  0
SECTION
  2
HEADER
  9
$ACADVER
  1
AC1018
  9
$ACADMAINTVER
 70
   104
  9
$DWGCODEPAGE
  3
ANSI_1252
  9
$TITLE
  1
Aquapresso ADF 18.10
  9
$CUSTOMPROPERTYTAG
  1
Manager
  9
$CUSTOMPROPERTY
  1

  9
$CUSTOMPROPERTYTAG
  1
Firma
  9
$CUSTOMPROPERTY
  1

  9
$CUSTOMPROPERTYTAG
  1
Kategorie
  9
$CUSTOMPROPERTY
  1

  9
$CUSTOMPROPERTYTAG
  1
Bauteilnummer
  9
$CUSTOMPROPERTY
  1
108575
  9
$CUSTOMPROPERTYTAG
  1
Bezeichnung
  9
$CUSTOMPROPERTY
  1

  9
$CUSTOMPROPERTYTAG
  1
Projekt
  9
$CUSTOMPROPERTY
  1
Internet 2D
  9
$CUSTOMPROPERTYTAG
  1
Konstrukteur
  9
$CUSTOMPROPERTY
  1
LTS
  9
$CUSTOMPROPERTYTAG
  1
Ingenieur
  9
$CUSTOMPROPERTY
  1

  9
$CUSTOMPROPERTYTAG
  1
Bevollmächtigter
  9
$CUSTOMPROPERTY
  1

  9
$CUSTOMPROPERTYTAG
  1
Kostenstelle
  9
$CUSTOMPROPERTY
  1

  9
$CUSTOMPROPERTYTAG
  1
Zulieferer
  9
$CUSTOMPROPERTY
  1

  9
$CUSTOMPROPERTYTAG
  1
Benutzerstatus
  9
$CUSTOMPROPERTY
  1

  9
$CUSTOMPROPERTYTAG
  1
Konstruktionsstatus
  9
$CUSTOMPROPERTY
  1
InBearbeitung
  9
$CUSTOMPROPERTYTAG
  1
Kontrolliert von
  9
$CUSTOMPROPERTY
  1
LTS
  9
$CUSTOMPROPERTYTAG
  1
Datum Überprüfung
  9
$CUSTOMPROPERTY
  1
06/05/2008
  9
$CUSTOMPROPERTYTAG
  1
Konstruktion genehmigt von
  9
$CUSTOMPROPERTY
  1
LTS
  9
$CUSTOMPROPERTYTAG
  1
Datum Konstruktionsgenehmigung
  9
$CUSTOMPROPERTY
  1
06/05/2008
  9
$CUSTOMPROPERTYTAG
  1
Fertigung genehmigt von
  9
$CUSTOMPROPERTY
  1

  9
$CUSTOMPROPERTYTAG
  1
Massstab
  9
$CUSTOMPROPERTY
  1
1:5
  9
$CUSTOMPROPERTYTAG
  1
Gewicht
  9
$CUSTOMPROPERTY
  1
0.000
  9
$CUSTOMPROPERTYTAG
  1
AeDatum1
  9
$CUSTOMPROPERTY
  1
  
  9
$CUSTOMPROPERTYTAG
  1
AeDesc1
  9
$CUSTOMPROPERTY
  1

  9
$CUSTOMPROPERTYTAG
  1
AeIDX1
  9
$CUSTOMPROPERTY
  1

  9
$CUSTOMPROPERTYTAG
  1
TolLange_Fein
  9
$CUSTOMPROPERTY
  1

  9
$CUSTOMPROPERTYTAG
  1
TolLange_Grob
  9
$CUSTOMPROPERTY
  1

  9
$CUSTOMPROPERTYTAG
  1
TolLange_Mittel
  9
$CUSTOMPROPERTY
  1
X
  9
$CUSTOMPROPERTYTAG
  1
TolWinkel_Fein
  9
$CUSTOMPROPERTY
  1

  9
$CUSTOMPROPERTYTAG
  1
TolWinkel_Grob
  9
$CUSTOMPROPERTY
  1
X
  9
$CUSTOMPROPERTYTAG
  1
ProtoTyp_NR
  9
$CUSTOMPROPERTY
  1
1
  9
$CUSTOMPROPERTYTAG
  1
AeDatum2
  9
$CUSTOMPROPERTY
  1
  
  9
$CUSTOMPROPERTYTAG
  1
AeDatum3
  9
$CUSTOMPROPERTY
  1
  
  9
$CUSTOMPROPERTYTAG
  1
AeDatum4
  9
$CUSTOMPROPERTY
  1
  
  9
$CUSTOMPROPERTYTAG
  1
AeDatum5
  9
$CUSTOMPROPERTY
  1
  
  9
$CUSTOMPROPERTYTAG
  1
AeDesc2
  9
$CUSTOMPROPERTY
  1

  9
$CUSTOMPROPERTYTAG
  1
AeDesc3
  9
$CUSTOMPROPERTY
  1

  9
$CUSTOMPROPERTYTAG
  1
AeDesc4
  9
$CUSTOMPROPERTY
  1

  9
$CUSTOMPROPERTYTAG
  1
AeDesc5
  9
$CUSTOMPROPERTY
  1

  9
$CUSTOMPROPERTYTAG
  1
AeIDX2
  9
$CUSTOMPROPERTY
  1

  9
$CUSTOMPROPERTYTAG
  1
AeIDX3
  9
$CUSTOMPROPERTY
  1

  9
$CUSTOMPROPERTYTAG
  1
AeIDX4
  9
$CUSTOMPROPERTY
  1

  9
$CUSTOMPROPERTYTAG
  1
AeIDX5
  9
$CUSTOMPROPERTY
  1

  9
$CUSTOMPROPERTYTAG
  1
Fachgeprüft_am
  9
$CUSTOMPROPERTY
  1
  .  .    
  9
$CUSTOMPROPERTYTAG
  1
Fachgeprüft_von
  9
$CUSTOMPROPERTY
  1

  9
$CUSTOMPROPERTYTAG
  1
ZeichnungsNummer
  9
$CUSTOMPROPERTY
  1

  9
$CUSTOMPROPERTYTAG
  1
AIMD_MATERIAL
  9
$CUSTOMPROPERTY
  1

  9
$CUSTOMPROPERTYTAG
  1
AIMD_WEIGHT
  9
$CUSTOMPROPERTY
  1
0.000
  9
$CUSTOMPROPERTYTAG
  1
AIMD_DESCRIPTION
  9
$CUSTOMPROPERTY
  1

  9
$CUSTOMPROPERTYTAG
  1
AIMD_ORIGIN
  9
$CUSTOMPROPERTY
  1
106180
  9
$CUSTOMPROPERTYTAG
  1
AIMD_PARTNO
  9
$CUSTOMPROPERTY
  1
7112002
  9
$CUSTOMPROPERTYTAG
  1
AIMD_WEIGHT_UNIT
  9
$CUSTOMPROPERTY
  1
kg
  9
$CUSTOMPROPERTYTAG
  1
Einheit
  9
$CUSTOMPROPERTY
  1
Stk
  9
$INSBASE
 10
0.0
 20
0.0
 30
0.0
  9
$EXTMIN
 10
0.0
 20
0.0
 30
0.0
  9
$EXTMAX
 10
1050.0
 20
1485.0
 30
0.0
  9
$LIMMIN
 10
0.0
 20
0.0
  9
$LIMMAX
 10
1050.0
 20
1485.0
  9
$ORTHOMODE
 70
     0
  9
$REGENMODE
 70
     1
  9
$FILLMODE
 70
     1
  9
$QTEXTMODE
 70
     0
  9
$MIRRTEXT
 70
     0
  9
$LTSCALE
 40
5.0
  9
$ATTMODE
 70
     1
  9
$TEXTSIZE
 40
0.2
  9
$TRACEWID
 40
0.05
  9
$TEXTSTYLE
  7
Standard
  9
$CLAYER
  8
0
  9
$CELTYPE
  6
ByLayer
  9
$CECOLOR
 62
   256
  9
$CELTSCALE
 40
1.0
  9
$DISPSILH
 70
     0
  9
$DIMSCALE
 40
1.0
  9
$DIMASZ
 40
1.799999999999999
  9
$DIMEXO
 40
0.0625
  9
$DIMDLI
 40
0.38
  9
$DIMRND
 40
0.0
  9
$DIMDLE
 40
0.0
  9
$DIMEXE
 40
0.18
  9
$DIMTP
 40
0.0
  9
$DIMTM
 40
0.0
  9
$DIMTXT
 40
0.3499999940395355
  9
$DIMCEN
 40
0.09
  9
$DIMTSZ
 40
0.0
  9
$DIMTOL
 70
     0
  9
$DIMLIM
 70
     0
  9
$DIMTIH
 70
     1
  9
$DIMTOH
 70
     1
  9
$DIMSE1
 70
     0
  9
$DIMSE2
 70
     0
  9
$DIMTAD
 70
     0
  9
$DIMZIN
 70
     0
  9
$DIMBLK
  1

  9
$DIMASO
 70
     1
  9
$DIMSHO
 70
     1
  9
$DIMPOST
  1

  9
$DIMAPOST
  1

  9
$DIMALT
 70
     0
  9
$DIMALTD
 70
     2
  9
$DIMALTF
 40
25.4
  9
$DIMLFAC
 40
1.0
  9
$DIMTOFL
 70
     0
  9
$DIMTVP
 40
0.0
  9
$DIMTIX
 70
     0
  9
$DIMSOXD
 70
     0
  9
$DIMSAH
 70
     0
  9
$DIMBLK1
  1

  9
$DIMBLK2
  1

  9
$DIMSTYLE
  2
Standard
  9
$DIMCLRD
 70
     0
  9
$DIMCLRE
 70
     0
  9
$DIMCLRT
 70
     0
  9
$DIMTFAC
 40
1.0
  9
$DIMGAP
 40
0.09
  9
$DIMJUST
 70
     0
  9
$DIMSD1
 70
     0
  9
$DIMSD2
 70
     0
  9
$DIMTOLJ
 70
     1
  9
$DIMTZIN
 70
     0
  9
$DIMALTZ
 70
     0
  9
$DIMALTTZ
 70
     0
  9
$DIMUPT
 70
     0
  9
$DIMDEC
 70
     4
  9
$DIMTDEC
 70
     4
  9
$DIMALTU
 70
     2
  9
$DIMALTTD
 70
     2
  9
$DIMTXSTY
  7
Standard
  9
$DIMAUNIT
 70
     0
  9
$DIMADEC
 70
     0
  9
$DIMALTRND
 40
0.0
  9
$DIMAZIN
 70
     0
  9
$DIMDSEP
 70
    46
  9
$DIMATFIT
 70
     3
  9
$DIMFRAC
 70
     0
  9
$DIMLDRBLK
  1

  9
$DIMLUNIT
 70
     2
  9
$DIMLWD
 70
    -2
  9
$DIMLWE
 70
    -2
  9
$DIMTMOVE
 70
     0
  9
$LUNITS
 70
     2
  9
$LUPREC
 70
     4
  9
$SKETCHINC
 40
0.1
  9
$FILLETRAD
 40
0.0
  9
$AUNITS
 70
     0
  9
$AUPREC
 70
     0
  9
$MENU
  1
.
  9
$ELEVATION
 40
0.0
  9
$PELEVATION
 40
0.0
  9
$THICKNESS
 40
0.0
  9
$LIMCHECK
 70
     0
  9
$CHAMFERA
 40
0.0
  9
$CHAMFERB
 40
0.0
  9
$CHAMFERC
 40
0.0
  9
$CHAMFERD
 40
0.0
  9
$SKPOLY
 70
     0
  9
$TDCREATE
 40
2454739.772178727
  9
$TDUCREATE
 40
2454739.688845394
  9
$TDUPDATE
 40
2454739.772178727
  9
$TDUUPDATE
 40
2454739.688845394
  9
$TDINDWG
 40
0.0000235185
  9
$TDUSRTIMER
 40
0.0000235185
  9
$USRTIMER
 70
     1
  9
$ANGBASE
 50
0.0
  9
$ANGDIR
 70
     0
  9
$PDMODE
 70
     0
  9
$PDSIZE
 40
0.0
  9
$PLINEWID
 40
0.0
  9
$SPLFRAME
 70
     0
  9
$SPLINETYPE
 70
     6
  9
$SPLINESEGS
 70
     8
  9
$HANDSEED
  5
487
  9
$SURFTAB1
 70
     6
  9
$SURFTAB2
 70
     6
  9
$SURFTYPE
 70
     6
  9
$SURFU
 70
     6
  9
$SURFV
 70
     6
  9
$UCSBASE
  2

  9
$UCSNAME
  2

  9
$UCSORG
 10
0.0
 20
0.0
 30
0.0
  9
$UCSXDIR
 10
1.0
 20
0.0
 30
0.0
  9
$UCSYDIR
 10
0.0
 20
1.0
 30
0.0
  9
$UCSORTHOREF
  2

  9
$UCSORTHOVIEW
 70
     0
  9
$UCSORGTOP
 10
0.0
 20
0.0
 30
0.0
  9
$UCSORGBOTTOM
 10
0.0
 20
0.0
 30
0.0
  9
$UCSORGLEFT
 10
0.0
 20
0.0
 30
0.0
  9
$UCSORGRIGHT
 10
0.0
 20
0.0
 30
0.0
  9
$UCSORGFRONT
 10
0.0
 20
0.0
 30
0.0
  9
$UCSORGBACK
 10
0.0
 20
0.0
 30
0.0
  9
$PUCSBASE
  2

  9
$PUCSNAME
  2

  9
$PUCSORG
 10
0.0
 20
0.0
 30
0.0
  9
$PUCSXDIR
 10
1.0
 20
0.0
 30
0.0
  9
$PUCSYDIR
 10
0.0
 20
1.0
 30
0.0
  9
$PUCSORTHOREF
  2

  9
$PUCSORTHOVIEW
 70
     0
  9
$PUCSORGTOP
 10
0.0
 20
0.0
 30
0.0
  9
$PUCSORGBOTTOM
 10
0.0
 20
0.0
 30
0.0
  9
$PUCSORGLEFT
 10
0.0
 20
0.0
 30
0.0
  9
$PUCSORGRIGHT
 10
0.0
 20
0.0
 30
0.0
  9
$PUCSORGFRONT
 10
0.0
 20
0.0
 30
0.0
  9
$PUCSORGBACK
 10
0.0
 20
0.0
 30
0.0
  9
$USERI1
 70
     0
  9
$USERI2
 70
     0
  9
$USERI3
 70
     0
  9
$USERI4
 70
     0
  9
$USERI5
 70
     0
  9
$USERR1
 40
0.0
  9
$USERR2
 40
0.0
  9
$USERR3
 40
0.0
  9
$USERR4
 40
0.0
  9
$USERR5
 40
0.0
  9
$WORLDVIEW
 70
     1
  9
$SHADEDGE
 70
     3
  9
$SHADEDIF
 70
    70
  9
$TILEMODE
 70
     1
  9
$MAXACTVP
 70
    64
  9
$PINSBASE
 10
0.0
 20
0.0
 30
0.0
  9
$PLIMCHECK
 70
     0
  9
$PEXTMIN
 10
0.0
 20
0.0
 30
0.0
  9
$PEXTMAX
 10
1050.0
 20
1485.0
 30
0.0
  9
$PLIMMIN
 10
0.0
 20
0.0
  9
$PLIMMAX
 10
1050.0
 20
1485.0
  9
$UNITMODE
 70
     0
  9
$VISRETAIN
 70
     1
  9
$PLINEGEN
 70
     0
  9
$PSLTSCALE
 70
     1
  9
$TREEDEPTH
 70
  3020
  9
$CMLSTYLE
  2
Standard
  9
$CMLJUST
 70
     0
  9
$CMLSCALE
 40
1.0
  9
$PROXYGRAPHICS
 70
     1
  9
$MEASUREMENT
 70
     1
  9
$CELWEIGHT
370
    -1
  9
$ENDCAPS
280
     0
  9
$JOINSTYLE
280
     0
  9
$LWDISPLAY
290
     0
  9
$INSUNITS
 70
     0
  9
$HYPERLINKBASE
  1

  9
$STYLESHEET
  1

  9
$XEDIT
290
     1
  9
$CEPSNTYPE
380
     0
  9
$PSTYLEMODE
290
     1
  9
$FINGERPRINTGUID
  2
{8B864287-463F-49B5-B76A-D38015BD7B68}
  9
$VERSIONGUID
  2
{D793314A-EE96-4293-A502-FE26EC118248}
  9
$EXTNAMES
290
     1
  9
$PSVPSCALE
 40
0.0
  9
$OLESTARTUP
290
     0
  9
$SORTENTS
280
   127
  9
$INDEXCTL
280
     0
  9
$HIDETEXT
280
     1
  9
$XCLIPFRAME
290
     0
  9
$HALOGAP
280
     0
  9
$OBSCOLOR
 70
   257
  9
$OBSLTYPE
280
     0
  9
$INTERSECTIONDISPLAY
280
     0
  9
$INTERSECTIONCOLOR
 70
   257
  9
$DIMASSOC
280
     1
  9
$PROJECTNAME
  1

  0
ENDSEC
  0
SECTION
  2
CLASSES
  0
CLASS
  1
ACDBDICTIONARYWDFLT
  2
AcDbDictionaryWithDefault
  3
ObjectDBX Classes
 90
        0
 91
        1
280
     0
281
     0
  0
CLASS
  1
MATERIAL
  2
AcDbMaterial
  3
ObjectDBX Classes
 90
     1024
 91
        3
280
     0
281
     0
  0
CLASS
  1
VISUALSTYLE
  2
AcDbVisualStyle
  3
ObjectDBX Classes
 90
     4095
 91
       16
280
     0
281
     0
  0
CLASS
  1
TABLESTYLE
  2
AcDbTableStyle
  3
ObjectDBX Classes
 90
     4095
 91
        1
280
     0
281
     0
  0
CLASS
  1
DICTIONARYVAR
  2
AcDbDictionaryVar
  3
ObjectDBX Classes
 90
        0
 91
        1
280
     0
281
     0
  0
ENDSEC
  0
SECTION
  2
TABLES
  0
TABLE
  2
VPORT
  5
8
330
0
100
AcDbSymbolTable
 70
     1
  0
VPORT
  5
28
330
8
100
AcDbSymbolTableRecord
100
AcDbViewportTableRecord
  2
*Active
 70
     0
 10
0.0
 20
0.0
 11
1.0
 21
1.0
 12
525.0
 22
742.4999999999999
 13
0.0
 23
0.0
 14
1.0
 24
1.0
 15
0.0
 25
0.0
 16
0.0
 26
0.0
 36
1.0
 17
0.0
 27
0.0
 37
0.0
 40
1485.0
 41
0.7070707070707071
 42
50.0
 43
0.0
 44
0.0
 50
0.0
 51
0.0
 71
     0
 72
   100
 73
     1
 74
     1
 75
     0
 76
     0
 77
     0
 78
     0
281
     0
 65
     1
110
0.0
120
0.0
130
0.0
111
1.0
121
0.0
131
0.0
112
0.0
122
1.0
132
0.0
 79
     0
146
0.0
  0
ENDTAB
  0
TABLE
  2
LTYPE
  5
5
330
0
100
AcDbSymbolTable
 70
    59
  0
LTYPE
  5
29
330
5
100
AcDbSymbolTableRecord
100
AcDbLinetypeTableRecord
  2
ByBlock
 70
     0
  3

 72
    65
 73
     0
 40
0.0
  0
LTYPE
  5
2A
330
5
100
AcDbSymbolTableRecord
100
AcDbLinetypeTableRecord
  2
ByLayer
 70
     0
  3

 72
    65
 73
     0
 40
0.0
  0
LTYPE
  5
2B
330
5
100
AcDbSymbolTableRecord
100
AcDbLinetypeTableRecord
  2
Continuous
 70
     0
  3
Solid line
 72
    65
 73
     0
 40
0.0
  0
LTYPE
  5
40
330
5
100
AcDbSymbolTableRecord
100
AcDbLinetypeTableRecord
  2
Section_View_Lines
 70
     0
  3
Section View Lines
 72
    65
 73
     4
 40
0.8406
 49
0.6614
 74
     0
 49
-0.0827
 74
     0
 49
0.0138
 74
     0
 49
-0.0827
 74
     0
  0
LTYPE
  5
41
330
5
100
AcDbSymbolTableRecord
100
AcDbLinetypeTableRecord
  2
CHAIN
 70
     0
  3
Chain ____ _ ____ _ ____ _ ____ _ ____ _ ____
 72
    65
 73
     4
 40
0.3543
 49
0.2362
 74
     0
 49
-0.0295
 74
     0
 49
0.0591
 74
     0
 49
-0.0295
 74
     0
  0
LTYPE
  5
42
330
5
100
AcDbSymbolTableRecord
100
AcDbLinetypeTableRecord
  2
DASH_DOT
 70
     0
  3
Dash dot _._._._._._._._._._._._._._._.
 72
    65
 73
     4
 40
0.37
 49
0.24
 74
     0
 49
-0.06
 74
     0
 49
0.01
 74
     0
 49
-0.06
 74
     0
  0
LTYPE
  5
43
330
5
100
AcDbSymbolTableRecord
100
AcDbLinetypeTableRecord
  2
DASH_DOUBLE_DOT
 70
     0
  3
Dash Double Dot __ __ . __ __ . __ __ . __ _
 72
    65
 73
     6
 40
0.4398
 49
0.24
 74
     0
 49
-0.06
 74
     0
 49
0.0098
 74
     0
 49
-0.06
 74
     0
 49
0.01
 74
     0
 49
-0.06
 74
     0
  0
LTYPE
  5
44
330
5
100
AcDbSymbolTableRecord
100
AcDbLinetypeTableRecord
  2
DASH_TRIPLE_DOT
 70
     0
  3
Dash Triple-Dot _ . . . _ . . . _ . . . _
 72
    65
 73
     8
 40
0.51
 49
0.24
 74
     0
 49
-0.06
 74
     0
 49
0.01
 74
     0
 49
-0.06
 74
     0
 49
0.01
 74
     0
 49
-0.06
 74
     0
 49
0.01
 74
     0
 49
-0.06
 74
     0
  0
LTYPE
  5
45
330
5
100
AcDbSymbolTableRecord
100
AcDbLinetypeTableRecord
  2
DASHED
 70
     0
  3
Dashed __ __ __ __ __ __ __ __ __ __ __ __ __ _
 72
    65
 73
     2
 40
0.2067
 49
0.1654
 74
     0
 49
-0.0413
 74
     0
  0
LTYPE
  5
46
330
5
100
AcDbSymbolTableRecord
100
AcDbLinetypeTableRecord
  2
DASHED_SPACE
 70
     0
  3
Dashed Space _._._._._._._._._._._._._._._.
 72
    65
 73
     2
 40
0.2067
 49
0.1654
 74
     0
 49
-0.0413
 74
     0
  0
LTYPE
  5
47
330
5
100
AcDbSymbolTableRecord
100
AcDbLinetypeTableRecord
  2
DOTTED
 70
     0
  3
Dotted . . . . . . . . . . . . . . . . . . . . 
 72
    65
 73
     2
 40
0.0482
 49
0.0069
 74
     0
 49
-0.0413
 74
     0
  0
LTYPE
  5
48
330
5
100
AcDbSymbolTableRecord
100
AcDbLinetypeTableRecord
  2
DOUBLE_DASH_CHAIN
 70
     0
  3
Double Dash Chain ___ _ _ ___ _ _ ___ _ _ ___ _
 72
    65
 73
     6
 40
1.240299999999999
 49
0.6614
 74
     0
 49
-0.0827
 74
     0
 49
0.1654
 74
     0
 49
-0.0827
 74
     0
 49
0.1654
 74
     0
 49
-0.0827
 74
     0
  0
LTYPE
  5
49
330
5
100
AcDbSymbolTableRecord
100
AcDbLinetypeTableRecord
  2
DOUBLE_DASH_DOT
 70
     0
  3
Double Dash Dot __ __ . __ __ . __ __ . __ _
 72
    65
 73
     6
 40
0.67
 49
0.24
 74
     0
 49
-0.06
 74
     0
 49
0.24
 74
     0
 49
-0.06
 74
     0
 49
0.01
 74
     0
 49
-0.06
 74
     0
  0
LTYPE
  5
4A
330
5
100
AcDbSymbolTableRecord
100
AcDbLinetypeTableRecord
  2
DOUBLE_DASH_DOUBLE_DOT
 70
     0
  3
Double-dash double-dot _ _ . . _ _ . . _
 72
    65
 73
     8
 40
0.7400000000000001
 49
0.24
 74
     0
 49
-0.06
 74
     0
 49
0.24
 74
     0
 49
-0.06
 74
     0
 49
0.01
 74
     0
 49
-0.06
 74
     0
 49
0.01
 74
     0
 49
-0.06
 74
     0
  0
LTYPE
  5
4B
330
5
100
AcDbSymbolTableRecord
100
AcDbLinetypeTableRecord
  2
DOUBLE_DASH_TRIPLE_DOT
 70
     0
  3
Double Dash Triple Dot __ __ . . . __ __ . . .
 72
    65
 73
    10
 40
0.8100000000000001
 49
0.24
 74
     0
 49
-0.06
 74
     0
 49
0.24
 74
     0
 49
-0.06
 74
     0
 49
0.01
 74
     0
 49
-0.06
 74
     0
 49
0.01
 74
     0
 49
-0.06
 74
     0
 49
0.01
 74
     0
 49
-0.06
 74
     0
  0
LTYPE
  5
4C
330
5
100
AcDbSymbolTableRecord
100
AcDbLinetypeTableRecord
  2
LONG_DASH_DOTTED
 70
     0
  3
Long-Dash Dot ____ . ____ . ____ . ____ . _
 72
    65
 73
     4
 40
0.3001
 49
0.2362
 74
     0
 49
-0.0295
 74
     0
 49
0.0049
 74
     0
 49
-0.0295
 74
     0
  0
LTYPE
  5
4D
330
5
100
AcDbSymbolTableRecord
100
AcDbLinetypeTableRecord
  2
LONG_DASH_DOUBLE_DOT
 70
     0
  3
Long Dash Double Dot ____ . . ____ . . ____ . .
 72
    65
 73
     6
 40
0.3345
 49
0.2362
 74
     0
 49
-0.0295
 74
     0
 49
0.0049
 74
     0
 49
-0.0295
 74
     0
 49
0.0049
 74
     0
 49
-0.0295
 74
     0
  0
LTYPE
  5
4E
330
5
100
AcDbSymbolTableRecord
100
AcDbLinetypeTableRecord
  2
LONG_DASH_TRIPLE_DOT
 70
     0
  3
Long Dash Triple Dot ____ ... ____ ... ____
 72
    65
 73
     8
 40
0.75
 49
0.48
 74
     0
 49
-0.06
 74
     0
 49
0.01
 74
     0
 49
-0.06
 74
     0
 49
0.01
 74
     0
 49
-0.06
 74
     0
 49
0.01
 74
     0
 49
-0.06
 74
     0
  0
LTYPE
  5
4F
330
5
100
AcDbSymbolTableRecord
100
AcDbLinetypeTableRecord
  2
BORDER
 70
     0
  3
Border __ __ . __ __ . __ __ . __ __ . __ __ .
 72
    65
 73
     6
 40
44.45
 49
12.7
 74
     0
 49
-6.349999999999999
 74
     0
 49
12.7
 74
     0
 49
-6.349999999999999
 74
     0
 49
0.0
 74
     0
 49
-6.349999999999999
 74
     0
  0
LTYPE
  5
50
330
5
100
AcDbSymbolTableRecord
100
AcDbLinetypeTableRecord
  2
BORDER2
 70
     0
  3
Border (.5x) __.__.__.__.__.__.__.__.__.__.__.
 72
    65
 73
     6
 40
22.225
 49
6.349999999999999
 74
     0
 49
-3.174999999999999
 74
     0
 49
6.349999999999999
 74
     0
 49
-3.174999999999999
 74
     0
 49
0.0
 74
     0
 49
-3.174999999999999
 74
     0
  0
LTYPE
  5
51
330
5
100
AcDbSymbolTableRecord
100
AcDbLinetypeTableRecord
  2
BORDERX2
 70
     0
  3
Border (2x) ____  ____  .  ____  ____  .  ___
 72
    65
 73
     6
 40
88.9
 49
25.4
 74
     0
 49
-12.7
 74
     0
 49
25.4
 74
     0
 49
-12.7
 74
     0
 49
0.0
 74
     0
 49
-12.7
 74
     0
  0
LTYPE
  5
52
330
5
100
AcDbSymbolTableRecord
100
AcDbLinetypeTableRecord
  2
CENTER
 70
     0
  3
Center ____ _ ____ _ ____ _ ____ _ ____ _ ____
 72
    65
 73
     4
 40
50.8
 49
31.75
 74
     0
 49
-6.349999999999999
 74
     0
 49
6.349999999999999
 74
     0
 49
-6.349999999999999
 74
     0
  0
LTYPE
  5
53
330
5
100
AcDbSymbolTableRecord
100
AcDbLinetypeTableRecord
  2
CENTER2
 70
     0
  3
Center (.5x) ___ _ ___ _ ___ _ ___ _ ___ _ ___
 72
    65
 73
     4
 40
28.575
 49
19.05
 74
     0
 49
-3.174999999999999
 74
     0
 49
3.174999999999999
 74
     0
 49
-3.174999999999999
 74
     0
  0
LTYPE
  5
54
330
5
100
AcDbSymbolTableRecord
100
AcDbLinetypeTableRecord
  2
CENTERX2
 70
     0
  3
Center (2x) ________  __  ________  __  _____
 72
    65
 73
     4
 40
101.6
 49
63.5
 74
     0
 49
-12.7
 74
     0
 49
12.7
 74
     0
 49
-12.7
 74
     0
  0
LTYPE
  5
55
330
5
100
AcDbSymbolTableRecord
100
AcDbLinetypeTableRecord
  2
DASHDOT2
 70
     0
  3
Dash dot (.5x) _._._._._._._._._._._._._._._.
 72
    65
 73
     4
 40
12.7
 49
6.349999999999999
 74
     0
 49
-3.174999999999999
 74
     0
 49
0.0
 74
     0
 49
-3.174999999999999
 74
     0
  0
LTYPE
  5
56
330
5
100
AcDbSymbolTableRecord
100
AcDbLinetypeTableRecord
  2
DASHDOTX2
 70
     0
  3
Dash dot (2x) ____  .  ____  .  ____  .  ___
 72
    65
 73
     4
 40
50.8
 49
25.4
 74
     0
 49
-12.7
 74
     0
 49
0.0
 74
     0
 49
-12.7
 74
     0
  0
LTYPE
  5
57
330
5
100
AcDbSymbolTableRecord
100
AcDbLinetypeTableRecord
  2
DASHED2
 70
     0
  3
Dashed (.5x) _ _ _ _ _ _ _ _ _ _ _ _ _ _ _ _ _
 72
    65
 73
     2
 40
9.524999999999998
 49
6.349999999999999
 74
     0
 49
-3.174999999999999
 74
     0
  0
LTYPE
  5
58
330
5
100
AcDbSymbolTableRecord
100
AcDbLinetypeTableRecord
  2
DASHEDX2
 70
     0
  3
Dashed (2x) ____  ____  ____  ____  ____  ___
 72
    65
 73
     2
 40
38.1
 49
25.4
 74
     0
 49
-12.7
 74
     0
  0
LTYPE
  5
59
330
5
100
AcDbSymbolTableRecord
100
AcDbLinetypeTableRecord
  2
DIVIDE
 70
     0
  3
Divide ____ . . ____ . . ____ . . ____ . . ____
 72
    65
 73
     6
 40
31.75
 49
12.7
 74
     0
 49
-6.349999999999999
 74
     0
 49
0.0
 74
     0
 49
-6.349999999999999
 74
     0
 49
0.0
 74
     0
 49
-6.349999999999999
 74
     0
  0
LTYPE
  5
5A
330
5
100
AcDbSymbolTableRecord
100
AcDbLinetypeTableRecord
  2
DIVIDE2
 70
     0
  3
Divide (.5x) __..__..__..__..__..__..__..__.._
 72
    65
 73
     6
 40
15.875
 49
6.349999999999999
 74
     0
 49
-3.174999999999999
 74
     0
 49
0.0
 74
     0
 49
-3.174999999999999
 74
     0
 49
0.0
 74
     0
 49
-3.174999999999999
 74
     0
  0
LTYPE
  5
5B
330
5
100
AcDbSymbolTableRecord
100
AcDbLinetypeTableRecord
  2
DIVIDEX2
 70
     0
  3
Divide (2x) ________  .  .  ________  .  .  _
 72
    65
 73
     6
 40
63.49999999999999
 49
25.4
 74
     0
 49
-12.7
 74
     0
 49
0.0
 74
     0
 49
-12.7
 74
     0
 49
0.0
 74
     0
 49
-12.7
 74
     0
  0
LTYPE
  5
5C
330
5
100
AcDbSymbolTableRecord
100
AcDbLinetypeTableRecord
  2
DOT
 70
     0
  3
Dot . . . . . . . . . . . . . . . . . . . . . .
 72
    65
 73
     2
 40
6.349999999999999
 49
0.0
 74
     0
 49
-6.349999999999999
 74
     0
  0
LTYPE
  5
5D
330
5
100
AcDbSymbolTableRecord
100
AcDbLinetypeTableRecord
  2
DOT2
 70
     0
  3
Dot (.5x) .....................................
 72
    65
 73
     2
 40
3.174999999999999
 49
0.0
 74
     0
 49
-3.174999999999999
 74
     0
  0
LTYPE
  5
5E
330
5
100
AcDbSymbolTableRecord
100
AcDbLinetypeTableRecord
  2
DOTX2
 70
     0
  3
Dot (2x) .  .  .  .  .  .  .  .  .  .  .  .  . 
 72
    65
 73
     2
 40
12.7
 49
0.0
 74
     0
 49
-12.7
 74
     0
  0
LTYPE
  5
5F
330
5
100
AcDbSymbolTableRecord
100
AcDbLinetypeTableRecord
  2
HIDDEN
 70
     0
  3
Hidden __ __ __ __ __ __ __ __ __ __ __ __ __ _
 72
    65
 73
     2
 40
9.524999999999998
 49
6.349999999999999
 74
     0
 49
-3.174999999999999
 74
     0
  0
LTYPE
  5
60
330
5
100
AcDbSymbolTableRecord
100
AcDbLinetypeTableRecord
  2
HIDDEN2
 70
     0
  3
Hidden (.5x) _ _ _ _ _ _ _ _ _ _ _ _ _ _ _ _ _
 72
    65
 73
     2
 40
4.762499999999999
 49
3.174999999999999
 74
     0
 49
-1.587499999999999
 74
     0
  0
LTYPE
  5
61
330
5
100
AcDbSymbolTableRecord
100
AcDbLinetypeTableRecord
  2
HIDDENX2
 70
     0
  3
Hidden (2x) ____ ____ ____ ____ ____ ____ ____
 72
    65
 73
     2
 40
19.05
 49
12.7
 74
     0
 49
-6.349999999999999
 74
     0
  0
LTYPE
  5
62
330
5
100
AcDbSymbolTableRecord
100
AcDbLinetypeTableRecord
  2
PHANTOM
 70
     0
  3
Phantom ______  __  __  ______  __  __  ______
 72
    65
 73
     6
 40
63.5
 49
31.75
 74
     0
 49
-6.349999999999999
 74
     0
 49
6.349999999999999
 74
     0
 49
-6.349999999999999
 74
     0
 49
6.349999999999999
 74
     0
 49
-6.349999999999999
 74
     0
  0
LTYPE
  5
63
330
5
100
AcDbSymbolTableRecord
100
AcDbLinetypeTableRecord
  2
PHANTOM2
 70
     0
  3
Phantom (.5x) ___ _ _ ___ _ _ ___ _ _ ___ _ _
 72
    65
 73
     6
 40
31.75
 49
15.875
 74
     0
 49
-3.174999999999999
 74
     0
 49
3.174999999999999
 74
     0
 49
-3.174999999999999
 74
     0
 49
3.174999999999999
 74
     0
 49
-3.174999999999999
 74
     0
  0
LTYPE
  5
64
330
5
100
AcDbSymbolTableRecord
100
AcDbLinetypeTableRecord
  2
PHANTOMX2
 70
     0
  3
Phantom (2x) ____________    ____    ____   _
 72
    65
 73
     6
 40
127.0
 49
63.5
 74
     0
 49
-12.7
 74
     0
 49
12.7
 74
     0
 49
-12.7
 74
     0
 49
12.7
 74
     0
 49
-12.7
 74
     0
  0
LTYPE
  5
65
330
5
100
AcDbSymbolTableRecord
100
AcDbLinetypeTableRecord
  2
ACAD_ISO02W100
 70
     0
  3
ISO dash __ __ __ __ __ __ __ __ __ __ __ __ __
 72
    65
 73
     2
 40
15.0
 49
12.0
 74
     0
 49
-3.0
 74
     0
  0
LTYPE
  5
66
330
5
100
AcDbSymbolTableRecord
100
AcDbLinetypeTableRecord
  2
ACAD_ISO03W100
 70
     0
  3
ISO dash space __    __    __    __    __    __
 72
    65
 73
     2
 40
30.0
 49
12.0
 74
     0
 49
-18.0
 74
     0
  0
LTYPE
  5
67
330
5
100
AcDbSymbolTableRecord
100
AcDbLinetypeTableRecord
  2
ACAD_ISO04W100
 70
     0
  3
ISO long-dash dot ____ . ____ . ____ . ____ . _
 72
    65
 73
     4
 40
30.0
 49
24.0
 74
     0
 49
-3.0
 74
     0
 49
0.0
 74
     0
 49
-3.0
 74
     0
  0
LTYPE
  5
68
330
5
100
AcDbSymbolTableRecord
100
AcDbLinetypeTableRecord
  2
ACAD_ISO05W100
 70
     0
  3
ISO long-dash double-dot ____ .. ____ .. ____ .
 72
    65
 73
     6
 40
33.0
 49
24.0
 74
     0
 49
-3.0
 74
     0
 49
0.0
 74
     0
 49
-3.0
 74
     0
 49
0.0
 74
     0
 49
-3.0
 74
     0
  0
LTYPE
  5
69
330
5
100
AcDbSymbolTableRecord
100
AcDbLinetypeTableRecord
  2
ACAD_ISO06W100
 70
     0
  3
ISO long-dash triple-dot ____ ... ____ ... ____
 72
    65
 73
     8
 40
36.0
 49
24.0
 74
     0
 49
-3.0
 74
     0
 49
0.0
 74
     0
 49
-3.0
 74
     0
 49
0.0
 74
     0
 49
-3.0
 74
     0
 49
0.0
 74
     0
 49
-3.0
 74
     0
  0
LTYPE
  5
6A
330
5
100
AcDbSymbolTableRecord
100
AcDbLinetypeTableRecord
  2
ACAD_ISO07W100
 70
     0
  3
ISO dot . . . . . . . . . . . . . . . . . . . .
 72
    65
 73
     2
 40
3.0
 49
0.0
 74
     0
 49
-3.0
 74
     0
  0
LTYPE
  5
6B
330
5
100
AcDbSymbolTableRecord
100
AcDbLinetypeTableRecord
  2
ACAD_ISO08W100
 70
     0
  3
ISO long-dash short-dash ____ __ ____ __ ____ _
 72
    65
 73
     4
 40
36.0
 49
24.0
 74
     0
 49
-3.0
 74
     0
 49
6.0
 74
     0
 49
-3.0
 74
     0
  0
LTYPE
  5
6C
330
5
100
AcDbSymbolTableRecord
100
AcDbLinetypeTableRecord
  2
ACAD_ISO09W100
 70
     0
  3
ISO long-dash double-short-dash ____ __ __ ____
 72
    65
 73
     6
 40
45.0
 49
24.0
 74
     0
 49
-3.0
 74
     0
 49
6.0
 74
     0
 49
-3.0
 74
     0
 49
6.0
 74
     0
 49
-3.0
 74
     0
  0
LTYPE
  5
6D
330
5
100
AcDbSymbolTableRecord
100
AcDbLinetypeTableRecord
  2
ACAD_ISO10W100
 70
     0
  3
ISO dash dot __ . __ . __ . __ . __ . __ . __ .
 72
    65
 73
     4
 40
18.0
 49
12.0
 74
     0
 49
-3.0
 74
     0
 49
0.0
 74
     0
 49
-3.0
 74
     0
  0
LTYPE
  5
6E
330
5
100
AcDbSymbolTableRecord
100
AcDbLinetypeTableRecord
  2
ACAD_ISO11W100
 70
     0
  3
ISO double-dash dot __ __ . __ __ . __ __ . __ 
 72
    65
 73
     6
 40
33.0
 49
12.0
 74
     0
 49
-3.0
 74
     0
 49
12.0
 74
     0
 49
-3.0
 74
     0
 49
0.0
 74
     0
 49
-3.0
 74
     0
  0
LTYPE
  5
6F
330
5
100
AcDbSymbolTableRecord
100
AcDbLinetypeTableRecord
  2
ACAD_ISO12W100
 70
     0
  3
ISO dash double-dot __ . . __ . . __ . . __ . .
 72
    65
 73
     6
 40
21.0
 49
12.0
 74
     0
 49
-3.0
 74
     0
 49
0.0
 74
     0
 49
-3.0
 74
     0
 49
0.0
 74
     0
 49
-3.0
 74
     0
  0
LTYPE
  5
70
330
5
100
AcDbSymbolTableRecord
100
AcDbLinetypeTableRecord
  2
ACAD_ISO13W100
 70
     0
  3
ISO double-dash double-dot __ __ . . __ __ . . 
 72
    65
 73
     8
 40
36.0
 49
12.0
 74
     0
 49
-3.0
 74
     0
 49
12.0
 74
     0
 49
-3.0
 74
     0
 49
0.0
 74
     0
 49
-3.0
 74
     0
 49
0.0
 74
     0
 49
-3.0
 74
     0
  0
LTYPE
  5
71
330
5
100
AcDbSymbolTableRecord
100
AcDbLinetypeTableRecord
  2
ACAD_ISO14W100
 70
     0
  3
ISO dash triple-dot __ . . . __ . . . __ . . . 
 72
    65
 73
     8
 40
24.0
 49
12.0
 74
     0
 49
-3.0
 74
     0
 49
0.0
 74
     0
 49
-3.0
 74
     0
 49
0.0
 74
     0
 49
-3.0
 74
     0
 49
0.0
 74
     0
 49
-3.0
 74
     0
  0
LTYPE
  5
72
330
5
100
AcDbSymbolTableRecord
100
AcDbLinetypeTableRecord
  2
ACAD_ISO15W100
 70
     0
  3
ISO double-dash triple-dot __ __ . . . __ __ . 
 72
    65
 73
    10
 40
39.0
 49
12.0
 74
     0
 49
-3.0
 74
     0
 49
12.0
 74
     0
 49
-3.0
 74
     0
 49
0.0
 74
     0
 49
-3.0
 74
     0
 49
0.0
 74
     0
 49
-3.0
 74
     0
 49
0.0
 74
     0
 49
-3.0
 74
     0
  0
LTYPE
  5
75
330
5
100
AcDbSymbolTableRecord
100
AcDbLinetypeTableRecord
  2
FENCELINE1
 70
     0
  3
Fenceline circle ----0-----0----0-----0----0---
 72
    65
 73
     4
 40
36.83
 49
6.349999999999999
 74
     0
 49
-2.54
 74
     4
 75
   133
340
74
 46
2.54
 50
0.0
 44
-2.54
 45
0.0
 49
-2.54
 74
     0
 49
25.4
 74
     0
  0
LTYPE
  5
76
330
5
100
AcDbSymbolTableRecord
100
AcDbLinetypeTableRecord
  2
FENCELINE2
 70
     0
  3
Fenceline square ----[]-----[]----[]-----[]----
 72
    65
 73
     4
 40
36.83
 49
6.349999999999999
 74
     0
 49
-2.54
 74
     4
 75
   132
340
74
 46
2.54
 50
0.0
 44
-2.54
 45
0.0
 49
-2.54
 74
     0
 49
25.4
 74
     0
  0
LTYPE
  5
77
330
5
100
AcDbSymbolTableRecord
100
AcDbLinetypeTableRecord
  2
TRACKS
 70
     0
  3
Tracks -|-|-|-|-|-|-|-|-|-|-|-|-|-|-|-|-|-|-|-|
 72
    65
 73
     2
 40
7.62
 49
3.81
 74
     4
 75
   130
340
74
 46
6.349999999999999
 50
0.0
 44
0.0
 45
0.0
 49
3.81
 74
     0
  0
LTYPE
  5
78
330
5
100
AcDbSymbolTableRecord
100
AcDbLinetypeTableRecord
  2
BATTING
 70
     0
  3
Batting SSSSSSSSSSSSSSSSSSSSSSSSSSSSSSSSSSSSSSS
 72
    65
 73
     4
 40
10.16254
 49
0.00254
 74
     0
 49
-2.54
 74
     4
 75
   134
340
74
 46
2.54
 50
0.0
 44
-2.54
 45
0.0
 49
-5.08
 74
     4
 75
   134
340
74
 46
2.54
 50
180.0
 44
2.54
 45
0.0
 49
-2.54
 74
     0
  0
LTYPE
  5
79
330
5
100
AcDbSymbolTableRecord
100
AcDbLinetypeTableRecord
  2
HOT_WATER_SUPPLY
 70
     0
  3
Hot water supply ---- HW ---- HW ---- HW ----
 72
    65
 73
     3
 40
22.86
 49
12.7
 74
     0
 49
-5.08
 74
     2
 75
     0
340
26
 46
2.54
 50
0.0
 44
-2.54
 45
-1.27
  9
HW
 49
-5.08
 74
     0
  0
LTYPE
  5
7A
330
5
100
AcDbSymbolTableRecord
100
AcDbLinetypeTableRecord
  2
GAS_LINE
 70
     0
  3
Gas line ----GAS----GAS----GAS----GAS----GAS---
 72
    65
 73
     3
 40
24.13
 49
12.7
 74
     0
 49
-5.08
 74
     2
 75
     0
340
26
 46
2.54
 50
0.0
 44
-2.54
 45
-1.27
  9
GAS
 49
-6.349999999999999
 74
     0
  0
LTYPE
  5
7B
330
5
100
AcDbSymbolTableRecord
100
AcDbLinetypeTableRecord
  2
ZIGZAG
 70
     0
  3
Zig zag /\/\/\/\/\/\/\/\/\/\/\/\/\/\/\/\/\/\/\/
 72
    65
 73
     4
 40
20.32254
 49
0.00254
 74
     0
 49
-5.08
 74
     4
 75
   131
340
74
 46
5.08
 50
0.0
 44
-5.08
 45
0.0
 49
-10.16
 74
     4
 75
   131
340
74
 46
5.08
 50
180.0
 44
5.08
 45
0.0
 49
-5.08
 74
     0
  0
ENDTAB
  0
TABLE
  2
LAYER
  5
2
330
0
100
AcDbSymbolTable
 70
    25
  0
LAYER
  5
25
330
2
100
AcDbSymbolTableRecord
100
AcDbLayerTableRecord
  2
0
 70
     0
 62
     7
  6
Continuous
370
    -3
390
F
  0
LAYER
  5
8B
330
2
100
AcDbSymbolTableRecord
100
AcDbLayerTableRecord
  2
Schraffur (ISO)
 70
     0
 62
     7
  6
Continuous
370
    18
390
F
  0
LAYER
  5
8C
330
2
100
AcDbSymbolTableRecord
100
AcDbLayerTableRecord
  2
Sichtbar (ISO)
 70
     0
 62
     7
  6
Continuous
370
    35
390
F
  0
LAYER
  5
8E
330
2
100
AcDbSymbolTableRecord
100
AcDbLayerTableRecord
  2
Skizziergeometrie (ISO)
 70
     0
 62
     7
  6
Continuous
370
    25
390
F
  0
LAYER
  5
8F
330
2
100
AcDbSymbolTableRecord
100
AcDbLayerTableRecord
  2
Symbol (ISO)
 70
     0
 62
     7
  6
Continuous
370
    25
390
F
  0
LAYER
  5
90
330
2
100
AcDbSymbolTableRecord
100
AcDbLayerTableRecord
  2
Titel (ISO)
 70
     0
 62
     7
  6
Continuous
370
    50
390
F
  0
ENDTAB
  0
TABLE
  2
STYLE
  5
3
330
0
100
AcDbSymbolTable
 70
    12
  0
STYLE
  5
26
330
3
100
AcDbSymbolTableRecord
100
AcDbTextStyleTableRecord
  2
Standard
 70
     0
 40
0.0
 41
1.0
 50
0.0
 71
     0
 42
0.2
  3
isocpeur.ttf
  4

1001
ACAD
1000
ISOCPEUR
1071
      256
  0
STYLE
  5
74
330
3
100
AcDbSymbolTableRecord
100
AcDbTextStyleTableRecord
  2

 70
     1
 40
0.0
 41
1.0
 50
0.0
 71
     0
 42
0.2
  3
ltypeshp.shx
  4

  0
STYLE
  5
94
330
3
100
AcDbSymbolTableRecord
100
AcDbTextStyleTableRecord
  2
Bezeichnungstext (DIN)
 70
     0
 40
0.0
 41
1.0
 50
0.0
 71
     0
 42
0.2
  3
isocpeur.ttf
  4

1001
ACAD
1000
ISOCPEUR
1071
      256
  0
STYLE
  5
95
330
3
100
AcDbSymbolTableRecord
100
AcDbTextStyleTableRecord
  2
Notiztext (DIN)
 70
     0
 40
0.0
 41
1.0
 50
0.0
 71
     0
 42
0.2
  3
isocpeur.ttf
  4

1001
ACAD
1000
ISOCPEUR
1071
      256
  0
STYLE
  5
96
330
3
100
AcDbSymbolTableRecord
100
AcDbTextStyleTableRecord
  2
Plan_Kopf_01.5
 70
     0
 40
0.0
 41
0.899999976158142
 50
0.0
 71
     0
 42
0.2
  3
ARIAL.TTF
  4

1001
ACAD
1000
Arial
1071
      256
  0
STYLE
  5
97
330
3
100
AcDbSymbolTableRecord
100
AcDbTextStyleTableRecord
  2
Plan_Kopf_02.0
 70
     0
 40
0.0
 41
0.899999976158142
 50
0.0
 71
     0
 42
0.2
  3
ARIAL.TTF
  4

1001
ACAD
1000
Arial
1071
      256
  0
STYLE
  5
98
330
3
100
AcDbSymbolTableRecord
100
AcDbTextStyleTableRecord
  2
Plan_Kopf_02.5
 70
     0
 40
0.0
 41
0.899999976158142
 50
0.0
 71
     0
 42
0.2
  3
ARIAL.TTF
  4

1001
ACAD
1000
Arial
1071
      256
  0
STYLE
  5
99
330
3
100
AcDbSymbolTableRecord
100
AcDbTextStyleTableRecord
  2
Plan_Kopf_05.0
 70
     0
 40
0.0
 41
0.899999976158142
 50
0.0
 71
     0
 42
0.2
  3
ARIAL.TTF
  4

1001
ACAD
1000
Arial
1071
      256
  0
STYLE
  5
9A
330
3
100
AcDbSymbolTableRecord
100
AcDbTextStyleTableRecord
  2
Stückliste
 70
     0
 40
0.0
 41
0.899999976158142
 50
0.0
 71
     0
 42
0.2
  3
isocpeur.ttf
  4

1001
ACAD
1000
ISOCPEUR
1071
      256
  0
STYLE
  5
9B
330
3
100
AcDbSymbolTableRecord
100
AcDbTextStyleTableRecord
  2
TolListe_12
 70
     0
 40
0.0
 41
1.0
 50
0.0
 71
     0
 42
0.2
  3
isocpeur.ttf
  4

1001
ACAD
1000
ISOCPEUR
1071
      256
  0
STYLE
  5
FE
330
3
100
AcDbSymbolTableRecord
100
AcDbTextStyleTableRecord
  2
TolListe_12-AIGDT
 70
     0
 40
0.0
 41
1.0
 50
0.0
 71
     0
 42
0.2
  3
AIGDT___.TTF
  4

1001
ACAD
1000
AIGDT
1071
      514
  0
STYLE
  5
157
330
3
100
AcDbSymbolTableRecord
100
AcDbTextStyleTableRecord
  2
TolListe_12-Arial
 70
     0
 40
0.0
 41
1.100000023841857
 50
0.0
 71
     0
 42
0.2
  3

  4

1001
ACAD
1000
Arial
1071
-33554176
  0
ENDTAB
  0
TABLE
  2
VIEW
  5
6
330
0
100
AcDbSymbolTable
 70
     0
  0
ENDTAB
  0
TABLE
  2
UCS
  5
7
330
0
100
AcDbSymbolTable
 70
     0
  0
ENDTAB
  0
TABLE
  2
APPID
  5
9
330
0
100
AcDbSymbolTable
 70
     1
  0
APPID
  5
27
330
9
100
AcDbSymbolTableRecord
100
AcDbRegAppTableRecord
  2
ACAD
 70
     0
  0
ENDTAB
  0
TABLE
  2
DIMSTYLE
  5
A
330
0
100
AcDbSymbolTable
 70
    11
100
AcDbDimStyleTable
 71
     0
  0
DIMSTYLE
105
3F
330
A
100
AcDbSymbolTableRecord
100
AcDbDimStyleTableRecord
  2
Standard
 70
     0
340
26
  0
DIMSTYLE
105
AA
330
A
100
AcDbSymbolTableRecord
100
AcDbDimStyleTableRecord
  2
Sonstiges Objekt (DIN)
 70
     0
 40
5.0
 41
5.0
 42
0.0
 43
6.0
 44
3.174999999999999
 45
0.00000001
 46
10.0
 77
     1
 78
     8
 79
     2
140
5.25
143
0.03937
146
0.6666666666666666
147
0.8
171
     3
172
     1
176
   256
177
   256
178
   256
271
     2
272
     2
274
     3
278
    44
284
     8
286
     8
340
94
341
9C
371
    -1
372
    -1
  0
DIMSTYLE
105
AB
330
A
100
AcDbSymbolTableRecord
100
AcDbDimStyleTableRecord
  2
Sonstiges Objekt (DIN)$7
 70
     0
 40
5.0
 41
5.0
 42
0.0
 43
6.0
 44
3.174999999999999
 45
0.00000001
 46
10.0
 77
     1
 78
     8
 79
     2
140
5.25
143
0.03937
146
0.6666666666666666
147
0.8
171
     3
172
     1
176
   256
177
   256
178
   256
271
     2
272
     2
274
     3
278
    44
284
     8
286
     8
340
94
341
9C
371
    25
372
    -1
  0
DIMSTYLE
105
AC
330
A
100
AcDbSymbolTableRecord
100
AcDbDimStyleTableRecord
  2
Standard - Methode 2a (DIN)
 70
     0
 40
5.0
 41
2.5
 42
0.8
 43
6.0
 44
3.174999999999999
 45
0.00000001
 46
10.0
 77
     1
 78
     8
 79
     2
140
3.5
143
0.03937
147
0.8
170
     1
171
     3
172
     1
176
   256
177
   256
178
   256
179
     2
271
     2
272
     2
274
     3
278
    44
284
     8
286
     8
340
95
371
    -1
372
    -1
  0
DIMSTYLE
105
AD
330
A
100
AcDbSymbolTableRecord
100
AcDbDimStyleTableRecord
  2
Standard - Methode 2a (DIN)$7
 70
     0
 40
5.0
 41
2.5
 42
0.8
 43
6.0
 44
3.174999999999999
 45
0.00000001
 46
10.0
 77
     1
 78
     8
 79
     2
140
3.5
143
0.03937
147
0.8
170
     1
171
     3
172
     1
176
   256
177
   256
178
   256
179
     2
271
     2
272
     2
274
     3
278
    44
284
     8
286
     8
340
95
371
    -1
372
    -1
  0
DIMSTYLE
105
AE
330
A
100
AcDbSymbolTableRecord
100
AcDbDimStyleTableRecord
  2
Standard - Methode 2b (DIN)
 70
     0
 40
5.0
 41
2.5
 42
0.0
 43
6.0
 44
3.174999999999999
 45
0.00000001
 46
10.0
 77
     1
 78
     8
 79
     2
140
3.5
143
0.03937
147
0.8
171
     3
172
     1
176
   256
177
   256
178
   256
271
     2
272
     2
274
     3
278
    44
284
     8
286
     8
340
95
371
    -1
372
    -1
  0
DIMSTYLE
105
AF
330
A
100
AcDbSymbolTableRecord
100
AcDbDimStyleTableRecord
  2
Standard - Methode 2b (DIN)$7
 70
     0
 40
5.0
 41
2.5
 42
0.0
 43
6.0
 44
3.174999999999999
 45
0.00000001
 46
10.0
 77
     1
 78
     8
 79
     2
140
3.5
143
0.03937
147
0.8
171
     3
172
     1
176
   256
177
   256
178
   256
271
     2
272
     2
274
     3
278
    44
284
     8
286
     8
340
95
371
    -1
372
    -1
  0
DIMSTYLE
105
B0
330
A
100
AcDbSymbolTableRecord
100
AcDbDimStyleTableRecord
  2
Standard (DIN)
 70
     0
 40
5.0
 41
2.5
 42
0.8
 43
6.0
 44
3.174999999999999
 45
0.00000001
 46
10.0
 73
     0
 74
     0
 77
     1
 78
     8
 79
     2
140
3.5
143
0.03937
147
0.8
171
     3
172
     1
176
   256
177
   256
178
   256
271
     2
272
     3
274
     3
278
    44
340
95
371
    -1
372
    -1
  0
DIMSTYLE
105
B1
330
A
100
AcDbSymbolTableRecord
100
AcDbDimStyleTableRecord
  2
Standard (DIN)$7
 70
     0
 40
5.0
 41
2.5
 42
0.8
 43
6.0
 44
3.174999999999999
 45
0.00000001
 46
10.0
 73
     0
 74
     0
 77
     1
 78
     8
 79
     2
140
3.5
143
0.03937
147
0.8
171
     3
172
     1
176
   256
177
   256
178
   256
271
     2
272
     3
274
     3
278
    44
340
95
371
    -1
372
    -1
  0
DIMSTYLE
105
B2
330
A
100
AcDbSymbolTableRecord
100
AcDbDimStyleTableRecord
  2
Alternativ (ISO)
 70
     0
 40
5.0
 41
2.5
340
26
342
B3
  0
DIMSTYLE
105
C4
330
A
100
AcDbSymbolTableRecord
100
AcDbDimStyleTableRecord
  2
Bezug (ISO)
 70
     0
 40
5.0
 41
2.5
340
26
342
B3
  0
ENDTAB
  0
TABLE
  2
BLOCK_RECORD
  5
1
330
0
100
AcDbSymbolTable
 70
     8
  0
BLOCK_RECORD
  5
37
330
1
100
AcDbSymbolTableRecord
100
AcDbBlockTableRecord
  2
*Model_Space
340
3A
  0
BLOCK_RECORD
  5
33
330
1
100
AcDbSymbolTableRecord
100
AcDbBlockTableRecord
  2
*Paper_Space
340
36
  0
BLOCK_RECORD
  5
3B
330
1
100
AcDbSymbolTableRecord
100
AcDbBlockTableRecord
  2
*Paper_Space0
340
3E
  0
BLOCK_RECORD
  5
9C
330
1
100
AcDbSymbolTableRecord
100
AcDbBlockTableRecord
  2
Filled-1
340
0
  0
BLOCK_RECORD
  5
B3
330
1
100
AcDbSymbolTableRecord
100
AcDbBlockTableRecord
  2
_Closed
340
0
  0
BLOCK_RECORD
  5
BA
330
1
100
AcDbSymbolTableRecord
100
AcDbBlockTableRecord
  2
DatumFilled45
340
0
  0
BLOCK_RECORD
  5
C5
330
1
100
AcDbSymbolTableRecord
100
AcDbBlockTableRecord
  2
Tolleranz Liste
340
0
  0
BLOCK_RECORD
  5
15F
330
1
100
AcDbSymbolTableRecord
100
AcDbBlockTableRecord
  2
ProtoTyp
340
0
  0
BLOCK_RECORD
  5
164
330
1
100
AcDbSymbolTableRecord
100
AcDbBlockTableRecord
  2
Logo
340
0
  0
BLOCK_RECORD
  5
1E1
330
1
100
AcDbSymbolTableRecord
100
AcDbBlockTableRecord
  2
P gross
340
0
102
{BLKREFS
331
47A
331
47B
331
47C
102
}
  0
ENDTAB
  0
ENDSEC
  0
SECTION
  2
BLOCKS
  0
BLOCK
  5
38
330
37
100
AcDbEntity
  8
0
100
AcDbBlockBegin
  2
*Model_Space
 70
     0
 10
0.0
 20
0.0
 30
0.0
  3
*Model_Space
  1

  0
ENDBLK
  5
39
330
37
100
AcDbEntity
  8
0
100
AcDbBlockEnd
  0
BLOCK
  5
34
330
33
100
AcDbEntity
 67
     1
  8
0
100
AcDbBlockBegin
  2
*Paper_Space
 70
     0
 10
0.0
 20
0.0
 30
0.0
  3
*Paper_Space
  1

  0
ENDBLK
  5
35
330
33
100
AcDbEntity
 67
     1
  8
0
100
AcDbBlockEnd
  0
BLOCK
  5
3C
330
3B
100
AcDbEntity
 67
     1
  8
0
100
AcDbBlockBegin
  2
*Paper_Space0
 70
     0
 10
0.0
 20
0.0
 30
0.0
  3
*Paper_Space0
  1

  0
ENDBLK
  5
3D
330
3B
100
AcDbEntity
 67
     1
  8
0
100
AcDbBlockEnd
  0
BLOCK
  5
9D
330
9C
100
AcDbEntity
  8
0
100
AcDbBlockBegin
  2
Filled-1
 70
     0
 10
0.0
 20
0.0
 30
0.0
  3
Filled-1
  1

  0
LINE
  5
9F
330
9C
100
AcDbEntity
  8
0
 62
     0
100
AcDbLine
 10
-1.0
 20
0.0
 30
0.0
 11
0.0
 21
0.0
 31
0.0
  0
POLYLINE
  5
A0
330
9C
100
AcDbEntity
  8
0
 62
     0
100
AcDb2dPolyline
 66
     1
 10
0.0
 20
0.0
 30
0.0
 70
   128
  0
VERTEX
  5
A1
330
A0
100
AcDbEntity
  8
0
 62
     0
100
AcDbVertex
100
AcDb2dVertex
 10
-1.0
 20
-0.1
 30
0.0
  0
VERTEX
  5
A2
330
A0
100
AcDbEntity
  8
0
 62
     0
100
AcDbVertex
100
AcDb2dVertex
 10
0.0
 20
0.0
 30
0.0
  0
VERTEX
  5
A4
330
A0
100
AcDbEntity
  8
0
 62
     0
100
AcDbVertex
100
AcDb2dVertex
 10
-1.0
 20
0.1
 30
0.0
  0
VERTEX
  5
A5
330
A0
100
AcDbEntity
  8
0
 62
     0
100
AcDbVertex
100
AcDb2dVertex
 10
-1.0
 20
-0.1
 30
0.0
  0
SEQEND
  5
A3
330
A0
100
AcDbEntity
  8
0
 62
     0
  0
SOLID
  5
A6
330
9C
100
AcDbEntity
  8
0
 62
     0
100
AcDbTrace
 10
-1.0
 20
-0.1
 30
0.0
 11
0.0
 21
0.0
 31
0.0
 12
-1.0
 22
0.1
 32
0.0
 13
-1.0
 23
-0.1
 33
0.0
  0
LINE
  5
A7
330
9C
100
AcDbEntity
  8
0
 62
     0
100
AcDbLine
 10
-1.0
 20
-0.1
 30
0.0
 11
0.0
 21
0.0
 31
0.0
  0
LINE
  5
A8
330
9C
100
AcDbEntity
  8
0
 62
     0
100
AcDbLine
 10
0.0
 20
0.0
 30
0.0
 11
-1.0
 21
0.1
 31
0.0
  0
LINE
  5
A9
330
9C
100
AcDbEntity
  8
0
 62
     0
100
AcDbLine
 10
-1.0
 20
0.1
 30
0.0
 11
-1.0
 21
-0.1
 31
0.0
  0
ENDBLK
  5
9E
330
9C
100
AcDbEntity
  8
0
100
AcDbBlockEnd
  0
BLOCK
  5
B8
330
B3
100
AcDbEntity
  8
0
100
AcDbBlockBegin
  2
_Closed
 70
     0
 10
0.0
 20
0.0
 30
0.0
  3
_Closed
  1

  0
LINE
  5
B4
330
B3
100
AcDbEntity
  8
0
  6
ByBlock
 62
     0
370
    -2
100
AcDbLine
 10
-1.0
 20
0.1666666666666666
 30
0.0
 11
0.0
 21
0.0
 31
0.0
  0
LINE
  5
B5
330
B3
100
AcDbEntity
  8
0
  6
ByBlock
 62
     0
370
    -2
100
AcDbLine
 10
0.0
 20
0.0
 30
0.0
 11
-1.0
 21
-0.1666666666666666
 31
0.0
  0
LINE
  5
B6
330
B3
100
AcDbEntity
  8
0
  6
ByBlock
 62
     0
370
    -2
100
AcDbLine
 10
-1.0
 20
0.1666666666666666
 30
0.0
 11
-1.0
 21
-0.1666666666666666
 31
0.0
  0
LINE
  5
B7
330
B3
100
AcDbEntity
  8
0
  6
ByBlock
 62
     0
370
    -2
100
AcDbLine
 10
0.0
 20
0.0
 30
0.0
 11
-1.0
 21
0.0
 31
0.0
  0
ENDBLK
  5
B9
330
B3
100
AcDbEntity
  8
0
100
AcDbBlockEnd
  0
BLOCK
  5
BB
330
BA
100
AcDbEntity
  8
0
100
AcDbBlockBegin
  2
DatumFilled45
 70
     0
 10
0.0
 20
0.0
 30
0.0
  3
DatumFilled45
  1

  0
POLYLINE
  5
BD
330
BA
100
AcDbEntity
  8
0
 62
     0
100
AcDb2dPolyline
 66
     1
 10
0.0
 20
0.0
 30
0.0
 70
   128
  0
VERTEX
  5
BE
330
BD
100
AcDbEntity
  8
0
 62
     0
100
AcDbVertex
100
AcDb2dVertex
 10
0.0
 20
1.0
 30
0.0
  0
VERTEX
  5
BF
330
BD
100
AcDbEntity
  8
0
 62
     0
100
AcDbVertex
100
AcDb2dVertex
 10
0.0
 20
-1.0
 30
0.0
  0
VERTEX
  5
C1
330
BD
100
AcDbEntity
  8
0
 62
     0
100
AcDbVertex
100
AcDb2dVertex
 10
-1.0
 20
0.0
 30
0.0
  0
VERTEX
  5
C2
330
BD
100
AcDbEntity
  8
0
 62
     0
100
AcDbVertex
100
AcDb2dVertex
 10
0.0
 20
1.0
 30
0.0
  0
SEQEND
  5
C0
330
BD
100
AcDbEntity
  8
0
 62
     0
  0
SOLID
  5
C3
330
BA
100
AcDbEntity
  8
0
 62
     0
100
AcDbTrace
 10
0.0
 20
1.0
 30
0.0
 11
0.0
 21
-1.0
 31
0.0
 12
-1.0
 22
0.0
 32
0.0
 13
0.0
 23
1.0
 33
0.0
  0
ENDBLK
  5
BC
330
BA
100
AcDbEntity
  8
0
100
AcDbBlockEnd
  0
BLOCK
  5
C6
330
C5
100
AcDbEntity
  8
0
100
AcDbBlockBegin
  2
Tolleranz Liste
 70
     2
 10
0.0
 20
0.0
 30
0.0
  3
Tolleranz Liste
  1

  0
LINE
  5
C8
330
C5
100
AcDbEntity
  8
Titel (ISO)
 62
     7
100
AcDbLine
 10
-190.0
 20
0.0
 30
0.0
 11
0.0
 21
0.0
 31
0.0
  0
LINE
  5
C9
330
C5
100
AcDbEntity
  8
Titel (ISO)
 62
     7
370
    18
100
AcDbLine
 10
-190.0
 20
2.999999999999989
 30
0.0
 11
0.0
 21
2.999999999999989
 31
0.0
  0
LINE
  5
CA
330
C5
100
AcDbEntity
  8
Titel (ISO)
 62
     7
370
    18
100
AcDbLine
 10
-190.0
 20
5.999999999999978
 30
0.0
 11
0.0
 21
5.999999999999978
 31
0.0
  0
LINE
  5
CB
330
C5
100
AcDbEntity
  8
Titel (ISO)
 62
     7
370
    18
100
AcDbLine
 10
-190.0
 20
8.999999999999968
 30
0.0
 11
0.0
 21
8.999999999999968
 31
0.0
  0
LINE
  5
CC
330
C5
100
AcDbEntity
  8
Titel (ISO)
 62
     7
100
AcDbLine
 10
-190.0
 20
18.99999999999996
 30
0.0
 11
0.0
 21
18.99999999999996
 31
0.0
  0
LINE
  5
CD
330
C5
100
AcDbEntity
  8
Titel (ISO)
 62
     7
370
    18
100
AcDbLine
 10
-130.861111
 20
13.7701170573068
 30
0.0
 11
-130.861111
 21
0.0
 31
0.0
  0
LINE
  5
CE
330
C5
100
AcDbEntity
  8
Titel (ISO)
 62
     7
370
    18
100
AcDbLine
 10
-162.972222
 20
13.7701170573068
 30
0.0
 11
-162.972222
 21
0.0
 31
0.0
  0
LINE
  5
CF
330
C5
100
AcDbEntity
  8
Titel (ISO)
 62
     7
370
    18
100
AcDbLine
 10
-154.944444
 20
13.7701170573068
 30
0.0
 11
-154.944444
 21
0.0
 31
0.0
  0
LINE
  5
D0
330
C5
100
AcDbEntity
  8
Titel (ISO)
 62
     7
370
    18
100
AcDbLine
 10
-146.916667
 20
13.7701170573068
 30
0.0
 11
-146.916667
 21
0.0
 31
0.0
  0
LINE
  5
D1
330
C5
100
AcDbEntity
  8
Titel (ISO)
 62
     7
370
    18
100
AcDbLine
 10
-138.888889
 20
13.7701170573068
 30
0.0
 11
-138.888889
 21
0.0
 31
0.0
  0
LINE
  5
D2
330
C5
100
AcDbEntity
  8
Titel (ISO)
 62
     7
370
    18
100
AcDbLine
 10
-183.25
 20
9.070117057306816
 30
0.0
 11
-183.25
 21
0.0
 31
0.0
  0
LINE
  5
D3
330
C5
100
AcDbEntity
  8
Titel (ISO)
 62
     7
100
AcDbLine
 10
-190.0
 20
18.99999999999996
 30
0.0
 11
-190.0
 21
0.0
 31
0.0
  0
LINE
  5
D4
330
C5
100
AcDbEntity
  8
Titel (ISO)
 62
     7
100
AcDbLine
 10
-171.0
 20
18.99999999999996
 30
0.0
 11
-171.0
 21
0.0
 31
0.0
  0
LINE
  5
D5
330
C5
100
AcDbEntity
  8
Titel (ISO)
 62
     7
370
    18
100
AcDbLine
 10
-190.0
 20
11.99999999999997
 30
0.0
 11
-171.0
 21
11.99999999999995
 31
0.0
  0
LINE
  5
D6
330
C5
100
AcDbEntity
  8
Titel (ISO)
  6
ByBlock
 62
     7
370
    25
100
AcDbLine
 10
-105.0
 20
7.570117057306813
 30
0.0
 11
-103.5
 21
7.570117057306813
 31
0.0
  0
LINE
  5
D7
330
C5
100
AcDbEntity
  8
Titel (ISO)
  6
ByBlock
 62
     7
370
    25
100
AcDbLine
 10
-112.5
 20
7.570117057306813
 30
0.0
 11
-111.0
 21
7.570117057306813
 31
0.0
  0
LINE
  5
D8
330
C5
100
AcDbEntity
  8
Titel (ISO)
 62
     7
370
    18
100
AcDbLine
 10
-122.833333
 20
13.7701170573068
 30
0.0
 11
-122.833333
 21
0.0
 31
0.0
  0
LINE
  5
D9
330
C5
100
AcDbEntity
  8
Titel (ISO)
 62
     7
370
    18
100
AcDbLine
 10
-114.805556
 20
13.7701170573068
 30
0.0
 11
-114.805556
 21
0.0
 31
0.0
  0
LINE
  5
DA
330
C5
100
AcDbEntity
  8
Titel (ISO)
 62
     7
370
    18
100
AcDbLine
 10
-106.777778
 20
13.7701170573068
 30
0.0
 11
-106.777778
 21
0.0
 31
0.0
  0
LINE
  5
DB
330
C5
100
AcDbEntity
  8
Titel (ISO)
 62
     7
100
AcDbLine
 10
-99.25000000000004
 20
18.99999999999996
 30
0.0
 11
-99.25000000000004
 21
0.0
 31
0.0
  0
LINE
  5
DC
330
C5
100
AcDbEntity
  8
Titel (ISO)
 62
     7
370
    18
100
AcDbLine
 10
-95.75000000000002
 20
6.070117057306809
 30
0.0
 11
-95.75000000000002
 21
0.0
 31
0.0
  0
LINE
  5
DD
330
C5
100
AcDbEntity
  8
Titel (ISO)
 62
     7
370
    18
100
AcDbLine
 10
-50.75000000000002
 20
6.070117057306809
 30
0.0
 11
-50.75000000000002
 21
0.0
 31
0.0
  0
LINE
  5
DE
330
C5
100
AcDbEntity
  8
Titel (ISO)
 62
     7
370
    18
100
AcDbLine
 10
-60.25000000000002
 20
6.070117057306809
 30
0.0
 11
-60.25000000000002
 21
0.0
 31
0.0
  0
LINE
  5
DF
330
C5
100
AcDbEntity
  8
Titel (ISO)
 62
     7
370
    18
100
AcDbLine
 10
-69.75000000000001
 20
13.7701170573068
 30
0.0
 11
-69.75000000000001
 21
9.070117057306816
 31
0.0
  0
LINE
  5
E0
330
C5
100
AcDbEntity
  8
Titel (ISO)
 62
     7
370
    18
100
AcDbLine
 10
-60.25000000000002
 20
13.7701170573068
 30
0.0
 11
-60.25000000000002
 21
9.070117057306816
 31
0.0
  0
LINE
  5
E1
330
C5
100
AcDbEntity
  8
Titel (ISO)
 62
     7
370
    18
100
AcDbLine
 10
-50.75000000000002
 20
13.7701170573068
 30
0.0
 11
-50.75000000000002
 21
9.070117057306816
 31
0.0
  0
LINE
  5
E2
330
C5
100
AcDbEntity
  8
Titel (ISO)
 62
     7
370
    18
100
AcDbLine
 10
-30.93750000000003
 20
13.7701170573068
 30
0.0
 11
-30.93750000000003
 21
9.070117057306816
 31
0.0
  0
LINE
  5
E3
330
C5
100
AcDbEntity
  8
Titel (ISO)
 62
     7
370
    18
100
AcDbLine
 10
-20.88650000000005
 20
6.070117057306809
 30
0.0
 11
-20.88650000000005
 21
0.0
 31
0.0
  0
LINE
  5
E4
330
C5
100
AcDbEntity
  8
Titel (ISO)
 62
     7
370
    18
100
AcDbLine
 10
-20.88650000000005
 20
13.7701170573068
 30
0.0
 11
-20.88650000000005
 21
9.070117057306816
 31
0.0
  0
LINE
  5
E5
330
C5
100
AcDbEntity
  8
Titel (ISO)
 62
     7
370
    18
100
AcDbLine
 10
-10.31250000000003
 20
13.7701170573068
 30
0.0
 11
-10.31250000000003
 21
9.070117057306816
 31
0.0
  0
LINE
  5
E6
330
C5
100
AcDbEntity
  8
Titel (ISO)
 62
     7
370
    18
100
AcDbLine
 10
-10.31250000000003
 20
6.070117057306809
 30
0.0
 11
-10.31250000000003
 21
0.0
 31
0.0
  0
LINE
  5
E7
330
C5
100
AcDbEntity
  8
Titel (ISO)
 62
     7
370
    18
100
AcDbLine
 10
-30.93750000000003
 20
6.070117057306809
 30
0.0
 11
-30.93750000000003
 21
0.0
 31
0.0
  0
LINE
  5
E8
330
C5
100
AcDbEntity
  8
Titel (ISO)
 62
     7
100
AcDbLine
 10
0.0
 20
0.0
 30
0.0
 11
0.0
 21
18.99999999999996
 31
0.0
  0
LINE
  5
E9
330
C5
100
AcDbEntity
  8
Titel (ISO)
 62
     7
370
    18
100
AcDbLine
 10
-69.75000000000001
 20
6.070117057306809
 30
0.0
 11
-69.75000000000001
 21
0.0
 31
0.0
  0
LINE
  5
EA
330
C5
100
AcDbEntity
  8
Titel (ISO)
 62
     7
100
AcDbLine
 10
-79.25000000000003
 20
18.99999999999996
 30
0.0
 11
-79.25000000000003
 21
0.0
 31
0.0
  0
LINE
  5
EB
330
C5
100
AcDbEntity
  8
Titel (ISO)
370
    18
100
AcDbLine
 10
-40.98894210789946
 20
8.999999999999968
 30
0.0
 11
-40.98894210789946
 21
13.7701170573068
 31
0.0
  0
LINE
  5
EC
330
C5
100
AcDbEntity
  8
Titel (ISO)
370
    18
100
AcDbLine
 10
-40.81485039283569
 20
5.999999999999978
 30
0.0
 11
-40.81485039283569
 21
0.0
 31
0.0
  0
SPLINE
  5
ED
330
C5
100
AcDbEntity
  8
Titel (ISO)
 62
     7
370
    18
100
AcDbSpline
210
0.0
220
0.0
230
1.0
 70
     8
 71
     4
 72
    15
 73
    10
 74
     0
 42
0.0000000001
 43
0.0000000001
 40
0.0
 40
0.0
 40
0.0
 40
0.0
 40
0.0
 40
0.2448862522902173
 40
0.372542829838283
 40
0.537712414826782
 40
0.6892572885860062
 40
0.7957086571447725
 40
1.0
 40
1.0
 40
1.0
 40
1.0
 40
1.0
 10
-66.28694873925519
 20
7.64651126040853
 30
0.0
 10
-66.28992133139053
 20
7.684326472464615
 30
0.0
 10
-66.30278798934259
 20
7.801058419170612
 30
0.0
 10
-66.54106167347689
 20
7.859647761643628
 30
0.0
 10
-66.76118299621641
 20
7.833028120844396
 30
0.0
 10
-66.95021102053759
 20
7.740235927209404
 30
0.0
 10
-66.9202360191262
 20
7.49058708009608
 30
0.0
 10
-66.82199748484567
 20
7.453245599066988
 30
0.0
 10
-66.75742436020357
 20
7.442433905354555
 30
0.0
 10
-66.71777189204616
 20
7.426104053762667
 30
0.0
  0
LINE
  5
EE
330
C5
100
AcDbEntity
  8
0
100
AcDbLine
 10
-66.26659572485762
 20
7.671004611388436
 30
0.0
 11
-66.37244477211755
 21
7.81624801356239
 31
0.0
  0
ARC
  5
EF
330
C5
100
AcDbEntity
  8
0
100
AcDbCircle
 10
-66.45038101106777
 20
7.648258902765228
 30
0.0
 40
0.1619243095334992
100
AcDbArc
 50
12.14398738960057
 51
60.02290540986514
  0
LINE
  5
F0
330
C5
100
AcDbEntity
  8
0
100
AcDbLine
 10
-66.89670837859369
 20
7.487238148935002
 30
0.0
 11
-66.71468159031151
 21
7.422119968654339
 31
0.0
  0
ARC
  5
F1
330
C5
100
AcDbEntity
  8
0
100
AcDbCircle
 10
-66.6890673438411
 20
7.78069177527314
 30
0.0
 40
0.3462460077174544
100
AcDbArc
 50
237.7261995458496
 51
262.9055232599758
  0
SPLINE
  5
F2
330
C5
100
AcDbEntity
  8
Titel (ISO)
 62
     7
370
    18
100
AcDbSpline
210
0.0
220
0.0
230
1.0
 70
     8
 71
     4
 72
    12
 73
     7
 74
     0
 42
0.0000000001
 43
0.0000000001
 40
0.0
 40
0.0
 40
0.0
 40
0.0
 40
0.0
 40
0.3933269697832906
 40
0.5579414211012799
 40
1.0
 40
1.0
 40
1.0
 40
1.0
 40
1.0
 10
-66.7177718920461
 20
7.426104053762667
 30
0.0
 10
-66.94102867992272
 20
7.36506224211622
 30
0.0
 10
-66.95038095686311
 20
7.40547820884279
 30
0.0
 10
-67.03925767066545
 20
6.865044071034649
 30
0.0
 10
-66.44367713306704
 20
6.956885902430158
 30
0.0
 10
-66.3418945025619
 20
7.013553608348583
 30
0.0
 10
-66.25537378160072
 20
7.154138853519782
 30
0.0
  0
SPLINE
  5
F3
330
C5
100
AcDbEntity
  8
Titel (ISO)
 62
     7
370
    18
100
AcDbSpline
210
0.0
220
0.0
230
1.0
 70
     8
 71
     4
 72
    12
 73
     7
 74
     0
 42
0.0000000001
 43
0.0000000001
 40
0.0
 40
0.0
 40
0.0
 40
0.0
 40
0.0
 40
0.3872212693569691
 40
0.5575199507602742
 40
1.0
 40
1.0
 40
1.0
 40
1.0
 40
1.0
 10
-23.59108108251476
 20
7.528905781183539
 30
0.0
 10
-23.70063657153558
 20
7.500278841709757
 30
0.0
 10
-23.87007003961081
 20
7.495055014400904
 30
0.0
 10
-23.87709660835664
 20
6.981211874419681
 30
0.0
 10
-23.33833653350904
 20
7.052090909862052
 30
0.0
 10
-23.20493964281642
 20
7.119913147019296
 30
0.0
 10
-23.12868297206911
 20
7.256940580940742
 30
0.0
  0
SPLINE
  5
F4
330
C5
100
AcDbEntity
  8
Titel (ISO)
 62
     7
370
    18
100
AcDbSpline
210
0.0
220
0.0
230
1.0
 70
     8
 71
     4
 72
    15
 73
    10
 74
     0
 42
0.0000000001
 43
0.0000000001
 40
0.0
 40
0.0
 40
0.0
 40
0.0
 40
0.0
 40
0.2448862522902173
 40
0.372542829838283
 40
0.537712414826782
 40
0.6892572885860062
 40
0.7957086571447725
 40
1.0
 40
1.0
 40
1.0
 40
1.0
 40
1.0
 10
-23.16025792972365
 20
7.74931298782949
 30
0.0
 10
-23.16323052185901
 20
7.787128199885575
 30
0.0
 10
-23.17609717981107
 20
7.903860146591572
 30
0.0
 10
-23.41437086394535
 20
7.962449489064589
 30
0.0
 10
-23.63449218668485
 20
7.935829848265356
 30
0.0
 10
-23.82352021100605
 20
7.843037654630364
 30
0.0
 10
-23.79354520959467
 20
7.59338880751704
 30
0.0
 10
-23.69530667531414
 20
7.556047326487949
 30
0.0
 10
-23.630733550672
 20
7.545235632775515
 30
0.0
 10
-23.59108108251462
 20
7.528905781183627
 30
0.0
  0
LINE
  5
F5
330
C5
100
AcDbEntity
  8
Skizziergeometrie (ISO)
100
AcDbLine
 10
-23.13990491532607
 20
7.773806338809468
 30
0.0
 11
-23.24575396258602
 21
7.91904974098335
 31
0.0
  0
LINE
  5
F6
330
C5
100
AcDbEntity
  8
Skizziergeometrie (ISO)
100
AcDbLine
 10
-23.77001756906214
 20
7.590039876355962
 30
0.0
 11
-23.5879907807799
 21
7.524921696075281
 31
0.0
  0
ARC
  5
F7
330
C5
100
AcDbEntity
  8
Skizziergeometrie (ISO)
100
AcDbCircle
 10
-23.32369020153624
 20
7.75106063018617
 30
0.0
 40
0.1619243095335294
100
AcDbArc
 50
12.14398738962304
 51
60.02290540987669
  0
ARC
  5
F8
330
C5
100
AcDbEntity
  8
Skizziergeometrie (ISO)
100
AcDbCircle
 10
-23.56237653430956
 20
7.883493502694083
 30
0.0
 40
0.3462460077174411
100
AcDbArc
 50
237.7261995458445
 51
262.9055232599874
  0
TEXT
  5
F9
330
C5
100
AcDbEntity
  8
Titel (ISO)
 62
     7
100
AcDbText
 10
-67.77000000000001
 20
10.07011705730681
 30
0.0
 40
1.500000059604644
  1
...50
  7
TolListe_12
100
AcDbText
  0
TEXT
  5
FB
330
C5
100
AcDbEntity
  8
Titel (ISO)
 62
     7
100
AcDbText
 10
-67.77000000000001
 20
12.47011705730679
 30
0.0
 40
1.500000059604644
  1
>  10
  7
TolListe_12
100
AcDbText
  0
TEXT
  5
FC
330
C5
100
AcDbEntity
  8
Titel (ISO)
 62
     7
100
AcDbText
 10
-77.52000000000001
 20
6.970117057306808
 30
0.0
 40
1.500000059604644
  1
Abmasse ±   Grad und Minuten)
  7
TolListe_12
100
AcDbText
  0
TEXT
  5
FD
330
C5
100
AcDbEntity
  8
Titel (ISO)
 62
     7
100
AcDbText
 10
-77.27000000000001
 20
10.07011705730681
 30
0.0
 40
1.500000059604644
  1
...10
  7
TolListe_12
100
AcDbText
  0
TEXT
  5
FF
330
C5
100
AcDbEntity
  8
Titel (ISO)
 62
     7
100
AcDbText
 10
-77.52000000000001
 20
0.9701170573068029
 30
0.0
 40
1.500000059604644
  1
` 1~30
  7
TolListe_12-AIGDT
100
AcDbText
  0
TEXT
  5
101
330
C5
100
AcDbEntity
  8
Titel (ISO)
 62
     7
100
AcDbText
 10
-77.52000000000001
 20
3.970117057306801
 30
0.0
 40
1.500000059604644
  1
` 1~
  7
TolListe_12-AIGDT
100
AcDbText
  0
TEXT
  5
102
330
C5
100
AcDbEntity
  8
Titel (ISO)
 62
     7
100
AcDbText
 10
-97.77000000000001
 20
11.97011705730681
 30
0.0
 40
1.500000059604644
  1
für Winkelmasse
  7
TolListe_12
100
AcDbText
  0
TEXT
  5
103
330
C5
100
AcDbEntity
  8
Titel (ISO)
 62
     7
100
AcDbText
 10
-97.97000000000004
 20
6.970117057306808
 30
0.0
 40
1.500000059604644
  1
Genauigkeitsgrad
  7
TolListe_12
100
AcDbText
  0
TEXT
  5
104
330
C5
100
AcDbEntity
  8
Titel (ISO)
 62
     7
100
AcDbText
 10
-94.49929825881072
 20
0.9701170573068029
 30
0.0
 40
1.500000059604644
  1
c(grob)
  7
TolListe_12
100
AcDbText
  0
TEXT
  5
105
330
C5
100
AcDbEntity
  8
Titel (ISO)
 62
     7
100
AcDbText
 10
-69.51999999999999
 20
15.97011705730679
 30
0.0
 40
1.500000059604644
  1
Nennmass in mm = Länge des kürzeren Winkelschenkels
  7
TolListe_12
100
AcDbText
  0
TEXT
  5
106
330
C5
100
AcDbEntity
  8
Titel (ISO)
 62
     7
100
AcDbText
 10
-8.332499999999996
 20
10.07011705730681
 30
0.0
 40
1.500000059604644
  1
..400
  7
TolListe_12
100
AcDbText
  0
TEXT
  5
107
330
C5
100
AcDbEntity
  8
Titel (ISO)
 62
     7
100
AcDbText
 10
-8.332499999999996
 20
12.47011705730679
 30
0.0
 40
1.500000059604644
  1
> 120
  7
TolListe_12
100
AcDbText
  0
TEXT
  5
108
330
C5
100
AcDbEntity
  8
Titel (ISO)
 62
     7
100
AcDbText
 10
-18.64499999999999
 20
10.07011705730681
 30
0.0
 40
1.500000059604644
  1
..120
  7
TolListe_12
100
AcDbText
  0
TEXT
  5
109
330
C5
100
AcDbEntity
  8
Titel (ISO)
 62
     7
100
AcDbText
 10
-18.64499999999999
 20
12.47011705730679
 30
0.0
 40
1.500000059604644
  1
>  50
  7
TolListe_12
100
AcDbText
  0
TEXT
  5
10A
330
C5
100
AcDbEntity
  8
Titel (ISO)
 62
     7
100
AcDbText
 10
-28.95749999999999
 20
10.07011705730681
 30
0.0
 40
1.500000059604644
  1
...50
  7
TolListe_12
100
AcDbText
  0
TEXT
  5
10B
330
C5
100
AcDbEntity
  8
Titel (ISO)
 62
     7
100
AcDbText
 10
-28.95749999999999
 20
12.47011705730679
 30
0.0
 40
1.500000059604644
  1
>  10
  7
TolListe_12
100
AcDbText
  0
TEXT
  5
10C
330
C5
100
AcDbEntity
  8
Titel (ISO)
 62
     7
100
AcDbText
 10
-39.26999999999999
 20
10.07011705730681
 30
0.0
 40
1.500000059604644
  1
...10
  7
TolListe_12
100
AcDbText
  0
TEXT
  5
10D
330
C5
100
AcDbEntity
  8
Titel (ISO)
 62
     7
100
AcDbText
 10
-17.895
 20
3.970117057306801
 30
0.0
 40
1.500000059604644
  1
` 0,6
  7
TolListe_12-AIGDT
100
AcDbText
  0
TEXT
  5
10E
330
C5
100
AcDbEntity
  8
Titel (ISO)
 62
     7
100
AcDbText
 10
-34.52000000000002
 20
6.970117057306808
 30
0.0
 40
1.500000059604644
  1
Abmasse ±     (mm/100mm)
  7
TolListe_12
100
AcDbText
  0
TEXT
  5
10F
330
C5
100
AcDbEntity
  8
Titel (ISO)
 62
     7
100
AcDbText
 10
-17.895
 20
0.9701170573068029
 30
0.0
 40
1.500000059604644
  1
` 0,9
  7
TolListe_12-AIGDT
100
AcDbText
  0
TEXT
  5
110
330
C5
100
AcDbEntity
  8
Titel (ISO)
 62
     7
100
AcDbText
 10
-68.01999999999999
 20
0.9701170573068029
 30
0.0
 40
1.500000059604644
  1
` 1~
  7
TolListe_12-AIGDT
100
AcDbText
  0
TEXT
  5
111
330
C5
100
AcDbEntity
  8
Titel (ISO)
 62
     7
100
AcDbText
 10
-68.01999999999999
 20
3.970117057306801
 30
0.0
 40
1.500000059604644
  1
` 30
  7
TolListe_12-AIGDT
100
AcDbText
  0
TEXT
  5
112
330
C5
100
AcDbEntity
  8
Titel (ISO)
 62
     7
100
AcDbText
 10
-58.52
 20
3.970117057306801
 30
0.0
 40
1.500000059604644
  1
` 20
  7
TolListe_12-AIGDT
100
AcDbText
  0
TEXT
  5
113
330
C5
100
AcDbEntity
  8
Titel (ISO)
 62
     7
100
AcDbText
 10
-48.77000000000001
 20
10.07011705730681
 30
0.0
 40
1.500000059604644
  1
..400
  7
TolListe_12
100
AcDbText
  0
TEXT
  5
114
330
C5
100
AcDbEntity
  8
Titel (ISO)
 62
     7
100
AcDbText
 10
-48.77000000000001
 20
12.47011705730679
 30
0.0
 40
1.500000059604644
  1
> 120
  7
TolListe_12
100
AcDbText
  0
TEXT
  5
115
330
C5
100
AcDbEntity
  8
Titel (ISO)
 62
     7
100
AcDbText
 10
-48.01999999999999
 20
0.9701170573068029
 30
0.0
 40
1.500000059604644
  1
` 15
  7
TolListe_12-AIGDT
100
AcDbText
  0
TEXT
  5
116
330
C5
100
AcDbEntity
  8
Titel (ISO)
 62
     7
100
AcDbText
 10
-58.52
 20
0.9701170573068029
 30
0.0
 40
1.500000059604644
  1
` 30
  7
TolListe_12-AIGDT
100
AcDbText
  0
TEXT
  5
117
330
C5
100
AcDbEntity
  8
Titel (ISO)
 62
     7
100
AcDbText
 10
-48.01999999999999
 20
3.970117057306801
 30
0.0
 40
1.500000059604644
  1
` 10
  7
TolListe_12-AIGDT
100
AcDbText
  0
TEXT
  5
118
330
C5
100
AcDbEntity
  8
Titel (ISO)
 62
     7
100
AcDbText
 10
-139.52
 20
15.97011705730679
 30
0.0
 40
1.500000059604644
  1
Nennmass mm
  7
TolListe_12
100
AcDbText
  0
TEXT
  5
119
330
C5
100
AcDbEntity
  8
Titel (ISO)
 62
     7
100
AcDbText
 10
-38.52
 20
0.9701170573068029
 30
0.0
 40
1.500000059604644
  1
` 2,5
  7
TolListe_12-AIGDT
100
AcDbText
  0
TEXT
  5
11A
330
C5
100
AcDbEntity
  8
Titel (ISO)
 62
     7
100
AcDbText
 10
-28.2075
 20
0.9701170573068029
 30
0.0
 40
1.500000059604644
  1
` 1,7
  7
TolListe_12-AIGDT
100
AcDbText
  0
TEXT
  5
11B
330
C5
100
AcDbEntity
  8
Titel (ISO)
 62
     7
100
AcDbText
 10
-7.582500000000003
 20
3.970117057306801
 30
0.0
 40
1.500000059604644
  1
` 0,3
  7
TolListe_12-AIGDT
100
AcDbText
  0
TEXT
  5
11C
330
C5
100
AcDbEntity
  8
Titel (ISO)
 62
     7
100
AcDbText
 10
-7.582500000000003
 20
0.9701170573068029
 30
0.0
 40
1.500000059604644
  1
` 0,4
  7
TolListe_12-AIGDT
100
AcDbText
  0
TEXT
  5
11D
330
C5
100
AcDbEntity
  8
Titel (ISO)
 62
     7
100
AcDbText
 10
-58.26999999999999
 20
10.07011705730681
 30
0.0
 40
1.500000059604644
  1
..120
  7
TolListe_12
100
AcDbText
  0
TEXT
  5
11E
330
C5
100
AcDbEntity
  8
Titel (ISO)
 62
     7
100
AcDbText
 10
-58.26999999999999
 20
12.47011705730679
 30
0.0
 40
1.500000059604644
  1
>  50
  7
TolListe_12
100
AcDbText
  0
TEXT
  5
11F
330
C5
100
AcDbEntity
  8
Titel (ISO)
 62
     7
100
AcDbText
 10
-38.52
 20
3.970117057306801
 30
0.0
 40
1.500000059604644
  1
` 1,7
  7
TolListe_12-AIGDT
100
AcDbText
  0
TEXT
  5
120
330
C5
100
AcDbEntity
  8
Titel (ISO)
 62
     7
100
AcDbText
 10
-28.2075
 20
3.970117057306801
 30
0.0
 40
1.500000059604644
  1
` 0,9
  7
TolListe_12-AIGDT
100
AcDbText
  0
TEXT
  5
121
330
C5
100
AcDbEntity
  8
Titel (ISO)
 62
     7
100
AcDbText
 10
-137.908889
 20
6.970117057306808
 30
0.0
 40
1.500000059604644
  1
` 0,2
  7
TolListe_12-AIGDT
100
AcDbText
  0
TEXT
  5
122
330
C5
100
AcDbEntity
  8
Titel (ISO)
 62
     7
100
AcDbText
 10
-137.908889
 20
10.07011705730681
 30
0.0
 40
1.500000059604644
  1
..400
  7
TolListe_12
100
AcDbText
  0
TEXT
  5
123
330
C5
100
AcDbEntity
  8
Titel (ISO)
 62
     7
100
AcDbText
 10
-137.908889
 20
0.9701170573068029
 30
0.0
 40
1.500000059604644
  1
` 1,2
  7
TolListe_12-AIGDT
100
AcDbText
  0
TEXT
  5
124
330
C5
100
AcDbEntity
  8
Titel (ISO)
 62
     7
100
AcDbText
 10
-137.908889
 20
3.970117057306801
 30
0.0
 40
1.500000059604644
  1
` 0,5
  7
TolListe_12-AIGDT
100
AcDbText
  0
TEXT
  5
125
330
C5
100
AcDbEntity
  8
Titel (ISO)
 62
     7
100
AcDbText
 10
-145.936667
 20
0.9701170573068029
 30
0.0
 40
1.500000059604644
  1
` 0,8
  7
TolListe_12-AIGDT
100
AcDbText
  0
TEXT
  5
126
330
C5
100
AcDbEntity
  8
Titel (ISO)
 62
     7
100
AcDbText
 10
-153.964444
 20
0.9701170573068029
 30
0.0
 40
1.500000059604644
  1
` 0,5
  7
TolListe_12-AIGDT
100
AcDbText
  0
TEXT
  5
127
330
C5
100
AcDbEntity
  8
Titel (ISO)
 62
     7
100
AcDbText
 10
-145.936667
 20
6.970117057306808
 30
0.0
 40
1.500000059604644
  1
` 0,15
  7
TolListe_12-AIGDT
100
AcDbText
  0
TEXT
  5
128
330
C5
100
AcDbEntity
  8
Titel (ISO)
 62
     7
100
AcDbText
 10
-145.936667
 20
3.970117057306801
 30
0.0
 40
1.500000059604644
  1
` 0,3
  7
TolListe_12-AIGDT
100
AcDbText
  0
TEXT
  5
129
330
C5
100
AcDbEntity
  8
Titel (ISO)
 62
     7
100
AcDbText
 10
-153.964444
 20
3.970117057306801
 30
0.0
 40
1.500000059604644
  1
` 0,2
  7
TolListe_12-AIGDT
100
AcDbText
  0
TEXT
  5
12A
330
C5
100
AcDbEntity
  8
Titel (ISO)
 62
     7
100
AcDbText
 10
-153.964444
 20
12.47011705730679
 30
0.0
 40
1.500000059604644
  1
>  6
  7
TolListe_12
100
AcDbText
  0
TEXT
  5
12B
330
C5
100
AcDbEntity
  8
Titel (ISO)
 62
     7
100
AcDbText
 10
-153.964444
 20
10.07011705730681
 30
0.0
 40
1.500000059604644
  1
..30
  7
TolListe_12
100
AcDbText
  0
TEXT
  5
12C
330
C5
100
AcDbEntity
  8
Titel (ISO)
 62
     7
100
AcDbText
 10
-161.992222
 20
3.970117057306801
 30
0.0
 40
1.500000059604644
  1
` 0,1
  7
TolListe_12-AIGDT
100
AcDbText
  0
TEXT
  5
12D
330
C5
100
AcDbEntity
  8
Titel (ISO)
 62
     7
100
AcDbText
 10
-161.992222
 20
6.970117057306808
 30
0.0
 40
1.500000059604644
  1
` 0,05
  7
TolListe_12-AIGDT
100
AcDbText
  0
TEXT
  5
12E
330
C5
100
AcDbEntity
  8
Titel (ISO)
 62
     7
100
AcDbText
 10
-161.992222
 20
10.07011705730681
 30
0.0
 40
1.500000059604644
  1
...6
  7
TolListe_12
100
AcDbText
  0
TEXT
  5
12F
330
C5
100
AcDbEntity
  8
Titel (ISO)
 62
     7
100
AcDbText
 10
-161.992222
 20
12.47011705730679
 30
0.0
 40
1.500000059604644
  1
>  3
  7
TolListe_12
100
AcDbText
  0
TEXT
  5
130
330
C5
100
AcDbEntity
  8
Titel (ISO)
 62
     7
100
AcDbText
 10
-153.964444
 20
6.970117057306808
 30
0.0
 40
1.500000059604644
  1
` 0,1
  7
TolListe_12-AIGDT
100
AcDbText
  0
TEXT
  5
131
330
C5
100
AcDbEntity
  8
Titel (ISO)
 62
     7
100
AcDbText
 10
-161.992222
 20
0.9701170573068029
 30
0.0
 40
1.500000059604644
  1
` 0,3
  7
TolListe_12-AIGDT
100
AcDbText
  0
TEXT
  5
132
330
C5
100
AcDbEntity
  8
Titel (ISO)
 62
     7
100
AcDbText
 10
-170.02
 20
3.970117057306801
 30
0.0
 40
1.500000059604644
  1
` 0,1
  7
TolListe_12-AIGDT
100
AcDbText
  0
TEXT
  5
133
330
C5
100
AcDbEntity
  8
Titel (ISO)
 62
     7
100
AcDbText
 10
-170.02
 20
0.9701170573068029
 30
0.0
 40
1.500000059604644
  1
` 0,2
  7
TolListe_12-AIGDT
100
AcDbText
  0
TEXT
  5
134
330
C5
100
AcDbEntity
  8
Titel (ISO)
 62
     7
100
AcDbText
 10
-170.02
 20
6.970117057306808
 30
0.0
 40
1.500000059604644
  1
` 0,05
  7
TolListe_12-AIGDT
100
AcDbText
  0
TEXT
  5
135
330
C5
100
AcDbEntity
  8
Titel (ISO)
 62
     7
100
AcDbText
 10
-170.02
 20
12.47011705730679
 30
0.0
 40
1.500000059604644
  1
>  0,5
  7
TolListe_12
100
AcDbText
  0
TEXT
  5
136
330
C5
100
AcDbEntity
  8
Titel (ISO)
 62
     7
100
AcDbText
 10
-145.936667
 20
10.07011705730681
 30
0.0
 40
1.500000059604644
  1
..120
  7
TolListe_12
100
AcDbText
  0
TEXT
  5
137
330
C5
100
AcDbEntity
  8
Titel (ISO)
 62
     7
100
AcDbText
 10
-145.936667
 20
12.47011705730679
 30
0.0
 40
1.500000059604644
  1
>  30
  7
TolListe_12
100
AcDbText
  0
TEXT
  5
138
330
C5
100
AcDbEntity
  8
Titel (ISO)
 62
     7
100
AcDbText
 10
-137.908889
 20
12.47011705730679
 30
0.0
 40
1.500000059604644
  1
> 120
  7
TolListe_12
100
AcDbText
  0
TEXT
  5
139
330
C5
100
AcDbEntity
  8
Titel (ISO)
 62
     7
100
AcDbText
 10
-88.26999999999999
 20
3.970117057306801
 30
0.0
 40
1.500000059604644
  1
m(mittel)
  7
TolListe_12
100
AcDbText
  0
TEXT
  5
13A
330
C5
100
AcDbEntity
  8
Titel (ISO)
 62
     7
100
AcDbText
 10
-189.02
 20
12.89999999999995
 30
0.0
 40
1.500000059604644
  1
für Längenmasse
  7
TolListe_12
100
AcDbText
  0
TEXT
  5
13B
330
C5
100
AcDbEntity
  8
Titel (ISO)
 62
     7
100
AcDbText
 10
-189.02
 20
9.899999999999966
 30
0.0
 40
1.500000059604644
  1
Genauigkeitsgrad
  7
TolListe_12
100
AcDbText
  0
TEXT
  5
13C
330
C5
100
AcDbEntity
  8
Titel (ISO)
 62
     7
100
AcDbText
 10
-170.02
 20
10.07011705730681
 30
0.0
 40
1.500000059604644
  1
...3
  7
TolListe_12
100
AcDbText
  0
TEXT
  5
13D
330
C5
100
AcDbEntity
  8
Titel (ISO)
 62
     7
100
AcDbText
 10
-182.02
 20
3.899999999999987
 30
0.0
 40
1.500000059604644
  1
m (mittel)
  7
TolListe_12
100
AcDbText
  0
TEXT
  5
13E
330
C5
100
AcDbEntity
  8
Titel (ISO)
 62
     7
100
AcDbText
 10
-182.02
 20
6.899999999999977
 30
0.0
 40
1.500000059604644
  1
f (fein)
  7
TolListe_12
100
AcDbText
  0
TEXT
  5
13F
330
C5
100
AcDbEntity
  8
Titel (ISO)
 62
     7
100
AcDbText
 10
-182.02
 20
0.8999999999999985
 30
0.0
 40
1.500000059604644
  1
c (grob)
  7
TolListe_12
100
AcDbText
  0
TEXT
  5
140
330
C5
100
AcDbEntity
  8
Titel (ISO)
 62
     7
100
AcDbText
 10
-189.02
 20
14.8701170573068
 30
0.0
 40
1.500000059604644
  1
toleranzen
  7
TolListe_12
100
AcDbText
  0
TEXT
  5
141
330
C5
100
AcDbEntity
  8
Titel (ISO)
 62
     7
100
AcDbText
 10
-189.02
 20
16.77011705730679
 30
0.0
 40
1.500000059604644
  1
Allgemein-
  7
TolListe_12
100
AcDbText
  0
TEXT
  5
142
330
C5
100
AcDbEntity
  8
Titel (ISO)
 62
     7
100
AcDbText
 10
-105.797778
 20
10.07011705730681
 30
0.0
 40
1.500000059604644
  1
..8000
  7
TolListe_12
100
AcDbText
  0
TEXT
  5
143
330
C5
100
AcDbEntity
  8
Titel (ISO)
 62
     7
100
AcDbText
 10
-105.797778
 20
12.47011705730679
 30
0.0
 40
1.500000059604644
  1
> 4000
  7
TolListe_12
100
AcDbText
  0
TEXT
  5
144
330
C5
100
AcDbEntity
  8
Titel (ISO)
 62
     7
100
AcDbText
 10
-105.797778
 20
3.970117057306801
 30
0.0
 40
1.500000059604644
  1
` 3
  7
TolListe_12-AIGDT
100
AcDbText
  0
TEXT
  5
145
330
C5
100
AcDbEntity
  8
Titel (ISO)
 62
     7
100
AcDbText
 10
-105.797778
 20
0.9701170573068029
 30
0.0
 40
1.500000059604644
  1
` 5
  7
TolListe_12-AIGDT
100
AcDbText
  0
TEXT
  5
146
330
C5
100
AcDbEntity
  8
Titel (ISO)
 62
     7
100
AcDbText
 10
-97.77000000000001
 20
14.37011705730681
 30
0.0
 40
1.500000059604644
  1
toleranzen
  7
TolListe_12
100
AcDbText
  0
TEXT
  5
147
330
C5
100
AcDbEntity
  8
Titel (ISO)
 62
     7
100
AcDbText
 10
-97.77000000000001
 20
16.77011705730679
 30
0.0
 40
1.500000059604644
  1
Allgemein-
  7
TolListe_12
100
AcDbText
  0
TEXT
  5
148
330
C5
100
AcDbEntity
  8
Titel (ISO)
 62
     7
100
AcDbText
 10
-121.853333
 20
3.970117057306801
 30
0.0
 40
1.500000059604644
  1
` 1,2
  7
TolListe_12-AIGDT
100
AcDbText
  0
TEXT
  5
149
330
C5
100
AcDbEntity
  8
Titel (ISO)
 62
     7
100
AcDbText
 10
-121.853333
 20
0.9701170573068029
 30
0.0
 40
1.500000059604644
  1
` 3
  7
TolListe_12-AIGDT
100
AcDbText
  0
TEXT
  5
14A
330
C5
100
AcDbEntity
  8
Titel (ISO)
 62
     7
100
AcDbText
 10
-113.825556
 20
10.07011705730681
 30
0.0
 40
1.500000059604644
  1
..4000
  7
TolListe_12
100
AcDbText
  0
TEXT
  5
14B
330
C5
100
AcDbEntity
  8
Titel (ISO)
 62
     7
100
AcDbText
 10
-113.825556
 20
12.47011705730679
 30
0.0
 40
1.500000059604644
  1
> 2000
  7
TolListe_12
100
AcDbText
  0
TEXT
  5
14C
330
C5
100
AcDbEntity
  8
Titel (ISO)
 62
     7
100
AcDbText
 10
-121.853333
 20
10.07011705730681
 30
0.0
 40
1.500000059604644
  1
..2000
  7
TolListe_12
100
AcDbText
  0
TEXT
  5
14D
330
C5
100
AcDbEntity
  8
Titel (ISO)
 62
     7
100
AcDbText
 10
-121.853333
 20
12.47011705730679
 30
0.0
 40
1.500000059604644
  1
> 1000
  7
TolListe_12
100
AcDbText
  0
TEXT
  5
14E
330
C5
100
AcDbEntity
  8
Titel (ISO)
 62
     7
100
AcDbText
 10
-121.853333
 20
6.970117057306808
 30
0.0
 40
1.500000059604644
  1
` 0,5
  7
TolListe_12-AIGDT
100
AcDbText
  0
TEXT
  5
14F
330
C5
100
AcDbEntity
  8
Titel (ISO)
 62
     7
100
AcDbText
 10
-113.825556
 20
3.970117057306801
 30
0.0
 40
1.500000059604644
  1
` 2
  7
TolListe_12-AIGDT
100
AcDbText
  0
TEXT
  5
150
330
C5
100
AcDbEntity
  8
Titel (ISO)
 62
     7
100
AcDbText
 10
-113.825556
 20
0.9701170573068029
 30
0.0
 40
1.500000059604644
  1
` 4
  7
TolListe_12-AIGDT
100
AcDbText
  0
TEXT
  5
151
330
C5
100
AcDbEntity
  8
Titel (ISO)
 62
     7
100
AcDbText
 10
-129.881111
 20
6.970117057306808
 30
0.0
 40
1.500000059604644
  1
` 0,3
  7
TolListe_12-AIGDT
100
AcDbText
  0
TEXT
  5
152
330
C5
100
AcDbEntity
  8
Titel (ISO)
 62
     7
100
AcDbText
 10
-129.881111
 20
10.07011705730681
 30
0.0
 40
1.500000059604644
  1
..1000
  7
TolListe_12
100
AcDbText
  0
TEXT
  5
153
330
C5
100
AcDbEntity
  8
Titel (ISO)
 62
     7
100
AcDbText
 10
-129.881111
 20
12.47011705730679
 30
0.0
 40
1.500000059604644
  1
>  400
  7
TolListe_12
100
AcDbText
  0
TEXT
  5
154
330
C5
100
AcDbEntity
  8
Titel (ISO)
 62
     7
100
AcDbText
 10
-129.881111
 20
0.9701170573068029
 30
0.0
 40
1.500000059604644
  1
` 2
  7
TolListe_12-AIGDT
100
AcDbText
  0
TEXT
  5
155
330
C5
100
AcDbEntity
  8
Titel (ISO)
 62
     7
100
AcDbText
 10
-129.881111
 20
3.970117057306801
 30
0.0
 40
1.500000059604644
  1
` 0,8
  7
TolListe_12-AIGDT
100
AcDbText
  0
TEXT
  5
156
330
C5
100
AcDbEntity
  8
Titel (ISO)
 62
     7
100
AcDbText
 10
-94.3154314551193
 20
3.970117057306801
 30
0.0
 40
1.500000059604644
  1
f(fein)
 41
0.8000000119209289
  7
TolListe_12
100
AcDbText
  0
TEXT
  5
158
330
C5
100
AcDbEntity
  8
Titel (ISO)
 62
     7
100
AcDbText
 10
-189.02
 20
6.399999985098823
 30
0.0
 40
2.000000029802322
  1
 
 41
1.100000023841857
  7
TolListe_12-Arial
 11
-189.02
 21
7.399999999999984
 31
0.0
100
AcDbText
 73
     2
  0
TEXT
  5
15A
330
C5
100
AcDbEntity
  8
Titel (ISO)
 62
     7
100
AcDbText
 10
-189.02
 20
3.399999985098824
 30
0.0
 40
2.000000029802322
  1
 
 41
1.100000023841857
  7
TolListe_12-Arial
 11
-189.02
 21
4.399999999999986
 31
0.0
100
AcDbText
 73
     2
  0
TEXT
  5
15B
330
C5
100
AcDbEntity
  8
Titel (ISO)
 62
     7
100
AcDbText
 10
-189.02
 20
0.3999999850988356
 30
0.0
 40
2.000000029802322
  1
 
 41
1.100000023841857
  7
TolListe_12-Arial
 11
-189.02
 21
1.399999999999996
 31
0.0
100
AcDbText
 73
     2
  0
ATTDEF
  5
15C
330
C5
100
AcDbEntity
  8
Titel (ISO)
 62
     7
100
AcDbText
 10
-98.35000000000002
 20
3.499999985098831
 30
0.0
 40
2.000000029802322
  1
 
 41
0.899999976158142
  7
TolListe_12-Arial
 11
-98.35000000000002
 21
4.499999999999992
 31
0.0
100
AcDbAttributeDefinition
  3
TolWinkel_Fein
  2
TolWinkel_Fein
 70
     0
 74
     2
  0
ATTDEF
  5
15D
330
C5
100
AcDbEntity
  8
Titel (ISO)
 62
     7
100
AcDbText
 10
-98.35000000000002
 20
0.4999999850988424
 30
0.0
 40
2.000000029802322
  1
 
 41
1.100000023841857
  7
TolListe_12-Arial
 11
-98.35000000000002
 21
1.500000000000003
 31
0.0
100
AcDbAttributeDefinition
  3
TolWinkel_Grob
  2
TolWinkel_Grob
 70
     0
 74
     2
  0
TEXT
  5
15E
330
C5
100
AcDbEntity
  8
Titel (ISO)
 62
     7
100
AcDbText
 10
-23.10385197106264
 20
6.481150342666044
 30
0.0
 40
1.199999973177909
  1
R
 41
0.899999976158142
  7
TolListe_12
100
AcDbText
  0
ENDBLK
  5
C7
330
C5
100
AcDbEntity
  8
0
100
AcDbBlockEnd
  0
BLOCK
  5
160
330
15F
100
AcDbEntity
  8
0
100
AcDbBlockBegin
  2
ProtoTyp
 70
     0
 10
0.0
 20
0.0
 30
0.0
  3
ProtoTyp
  1

  0
MTEXT
  5
162
330
15F
100
AcDbEntity
  8
Symbol (ISO)
100
AcDbMText
 10
-15.0
 20
3.333333333333428
 30
0.0
 40
5.0
 41
113.3539674448862
 71
     9
 72
     5
  1
\fArial|b1|i0;\W1.20;\H5.0000;Prototyp 
  7
Notiztext (DIN)
 73
     1
 44
1.0
  0
ENDBLK
  5
161
330
15F
100
AcDbEntity
  8
0
100
AcDbBlockEnd
  0
BLOCK
  5
165
330
164
100
AcDbEntity
  8
0
100
AcDbBlockBegin
  2
Logo
 70
     0
 10
0.0
 20
0.0
 30
0.0
  3
Logo
  1

  0
LINE
  5
167
102
{ACAD_REACTORS
330
172
102
}
330
164
100
AcDbEntity
  8
0
100
AcDbLine
 10
-63.82219267516564
 20
13.78707153306683
 30
0.0
 11
-63.44194367516561
 21
13.78707153306683
 31
0.0
  0
SPLINE
  5
168
102
{ACAD_REACTORS
330
172
102
}
330
164
100
AcDbEntity
  8
0
100
AcDbSpline
210
0.0
220
0.0
230
1.0
 70
     8
 71
     3
 72
    13
 73
     9
 74
     0
 42
0.0000000001
 43
0.0000000001
 40
-0.2488465402991201
 40
-0.2488465402991201
 40
-0.2488465402991201
 40
-0.2488465402991201
 40
-0.213514800971061
 40
-0.1813686001396738
 40
-0.151852207945606
 40
-0.122610058815004
 40
-0.0548379298616244
 40
0.0
 40
0.0
 40
0.0
 40
0.0
 10
-63.44194367516561
 20
13.78707153306683
 30
0.0
 10
-63.32417121073874
 20
13.78707153306683
 30
0.0
 10
-63.08419178569152
 20
13.80580234228952
 30
0.0
 10
-62.85168098131063
 20
14.06077992123113
 30
0.0
 10
-62.75106357115923
 20
14.3528991457025
 30
0.0
 10
-62.73688326920373
 20
14.7669903791009
 30
0.0
 10
-62.81190429146026
 20
15.35988989299784
 30
0.0
 10
-63.28410391460164
 20
15.46016853306682
 30
0.0
 10
-63.46689701414039
 20
15.46016853306682
 30
0.0
  0
LINE
  5
169
102
{ACAD_REACTORS
330
172
102
}
330
164
100
AcDbEntity
  8
0
100
AcDbLine
 10
-63.46689701414039
 20
15.46016853306682
 30
0.0
 11
-63.82219267516564
 21
15.46016853306682
 31
0.0
  0
LINE
  5
16A
102
{ACAD_REACTORS
330
172
102
}
330
164
100
AcDbEntity
  8
0
100
AcDbLine
 10
-63.82219267516564
 20
15.46016853306682
 30
0.0
 11
-63.82219267516564
 21
13.78707153306683
 31
0.0
  0
LINE
  5
16B
102
{ACAD_REACTORS
330
172
102
}
330
164
100
AcDbEntity
  8
0
100
AcDbLine
 10
-63.09258967516566
 20
16.44881753306684
 30
0.0
 11
-65.1910906751657
 21
16.44881753306684
 31
0.0
  0
SPLINE
  5
16C
102
{ACAD_REACTORS
330
172
102
}
330
164
100
AcDbEntity
  8
0
100
AcDbSpline
210
0.0
220
0.0
230
1.0
 70
     8
 71
     3
 72
    11
 73
     7
 74
     0
 42
0.0000000001
 43
0.0000000001
 40
0.2936837717354933
 40
0.2936837717354933
 40
0.2936837717354933
 40
0.2936837717354933
 40
0.3486086586423288
 40
0.4181833865755395
 40
0.4874646771879993
 40
0.5758658507171156
 40
0.5758658507171156
 40
0.5758658507171156
 40
0.5758658507171156
 10
-61.3885963599133
 20
14.628373224245
 30
0.0
 10
-61.3866327111799
 20
14.81461430976022
 30
0.0
 10
-61.42180843855425
 20
15.22586839198035
 30
0.0
 10
-61.65248502722848
 20
15.84811296147202
 30
0.0
 10
-62.25323916657581
 20
16.38211568442156
 30
0.0
 10
-62.79106792157026
 20
16.42485607934071
 30
0.0
 10
-63.09258967516566
 20
16.44881753306684
 30
0.0
  0
SPLINE
  5
16D
102
{ACAD_REACTORS
330
172
102
}
330
164
100
AcDbEntity
  8
0
100
AcDbSpline
210
0.0
220
0.0
230
1.0
 70
     8
 71
     3
 72
    10
 73
     6
 74
     0
 42
0.0000000001
 43
0.0000000001
 40
0.0
 40
0.0
 40
0.0
 40
0.0
 40
0.0653965997920125
 40
0.148785267001393
 40
0.2936837717354933
 40
0.2936837717354933
 40
0.2936837717354933
 40
0.2936837717354933
 10
-63.2280526751656
 20
12.79842253306682
 30
0.0
 10
-63.00807050524145
 20
12.79414883947174
 30
0.0
 10
-62.50758414980694
 20
12.78442566357808
 30
0.0
 10
-61.5936272368743
 20
13.31022024821636
 30
0.0
 10
-61.3937767031296
 20
14.13704668119749
 30
0.0
 10
-61.3885963599133
 20
14.628373224245
 30
0.0
  0
LINE
  5
16E
102
{ACAD_REACTORS
330
172
102
}
330
164
100
AcDbEntity
  8
0
100
AcDbLine
 10
-63.82219267516564
 20
12.79842253306682
 30
0.0
 11
-63.2280526751656
 21
12.79842253306682
 31
0.0
  0
LINE
  5
16F
102
{ACAD_REACTORS
330
172
102
}
330
164
100
AcDbEntity
  8
0
100
AcDbLine
 10
-63.82219267516564
 20
10.44087653306682
 30
0.0
 11
-63.82219267516564
 21
12.79842253306682
 31
0.0
  0
LINE
  5
170
102
{ACAD_REACTORS
330
172
102
}
330
164
100
AcDbEntity
  8
0
100
AcDbLine
 10
-65.1910906751657
 20
10.44087653306682
 30
0.0
 11
-63.82219267516564
 21
10.44087653306682
 31
0.0
  0
LINE
  5
171
102
{ACAD_REACTORS
330
172
102
}
330
164
100
AcDbEntity
  8
0
100
AcDbLine
 10
-65.1910906751657
 20
16.44881753306684
 30
0.0
 11
-65.1910906751657
 21
10.44087653306682
 31
0.0
  0
HATCH
  5
172
330
164
100
AcDbEntity
  8
Schraffur (ISO)
100
AcDbHatch
 10
0.0
 20
0.0
 30
0.0
210
0.0
220
0.0
230
1.0
  2
SOLID
 70
     1
 71
     1
 91
        2
 92
        0
 93
        4
 72
     1
 10
-63.82219267516564
 20
13.78707153306683
 11
-63.44194367516561
 21
13.78707153306683
 72
     4
 94
        3
 73
     0
 74
     0
 95
       13
 96
        9
 40
-0.2488465402991201
 40
-0.2488465402991201
 40
-0.2488465402991201
 40
-0.2488465402991201
 40
-0.213514800971061
 40
-0.1813686001396738
 40
-0.151852207945606
 40
-0.122610058815004
 40
-0.0548379298616244
 40
0.0
 40
0.0
 40
0.0
 40
0.0
 10
-63.44194367516561
 20
13.78707153306683
 10
-63.32417121073874
 20
13.78707153306683
 10
-63.08419178569152
 20
13.80580234228952
 10
-62.85168098131063
 20
14.06077992123113
 10
-62.75106357115923
 20
14.3528991457025
 10
-62.73688326920373
 20
14.7669903791009
 10
-62.81190429146026
 20
15.35988989299784
 10
-63.28410391460164
 20
15.46016853306682
 10
-63.46689701414039
 20
15.46016853306682
 72
     1
 10
-63.46689701414039
 20
15.46016853306682
 11
-63.82219267516564
 21
15.46016853306682
 72
     1
 10
-63.82219267516564
 20
15.46016853306682
 11
-63.82219267516564
 21
13.78707153306683
 97
        4
330
167
330
168
330
169
330
16A
 92
        1
 93
        7
 72
     1
 10
-63.09258967516566
 20
16.44881753306684
 11
-65.1910906751657
 21
16.44881753306684
 72
     1
 10
-65.1910906751657
 20
16.44881753306684
 11
-65.1910906751657
 21
10.44087653306682
 72
     1
 10
-65.1910906751657
 20
10.44087653306682
 11
-63.82219267516564
 21
10.44087653306682
 72
     1
 10
-63.82219267516564
 20
10.44087653306682
 11
-63.82219267516564
 21
12.79842253306682
 72
     1
 10
-63.82219267516564
 20
12.79842253306682
 11
-63.2280526751656
 21
12.79842253306682
 72
     4
 94
        3
 73
     0
 74
     0
 95
       10
 96
        6
 40
0.0
 40
0.0
 40
0.0
 40
0.0
 40
0.0653965997920125
 40
0.148785267001393
 40
0.2936837717354933
 40
0.2936837717354933
 40
0.2936837717354933
 40
0.2936837717354933
 10
-63.2280526751656
 20
12.79842253306682
 10
-63.00807050524145
 20
12.79414883947174
 10
-62.50758414980694
 20
12.78442566357808
 10
-61.5936272368743
 20
13.31022024821636
 10
-61.3937767031296
 20
14.13704668119749
 10
-61.3885963599133
 20
14.628373224245
 72
     4
 94
        3
 73
     0
 74
     0
 95
       11
 96
        7
 40
0.2936837717354933
 40
0.2936837717354933
 40
0.2936837717354933
 40
0.2936837717354933
 40
0.3486086586423288
 40
0.4181833865755395
 40
0.4874646771879993
 40
0.5758658507171156
 40
0.5758658507171156
 40
0.5758658507171156
 40
0.5758658507171156
 10
-61.3885963599133
 20
14.628373224245
 10
-61.3866327111799
 20
14.81461430976022
 10
-61.42180843855425
 20
15.22586839198035
 10
-61.65248502722848
 20
15.84811296147202
 10
-62.25323916657581
 20
16.38211568442156
 10
-62.79106792157026
 20
16.42485607934071
 10
-63.09258967516566
 20
16.44881753306684
 97
        7
330
16B
330
171
330
170
330
16F
330
16E
330
16D
330
16C
 75
     0
 76
     1
 98
        1
 10
0.0
 20
0.0
450
        0
451
        0
460
0.0
461
0.0
452
        0
462
0.0
453
        0
470

  0
LINE
  5
173
102
{ACAD_REACTORS
330
17D
102
}
330
164
100
AcDbEntity
  8
0
100
AcDbLine
 10
-60.62809767516559
 20
16.44881753306684
 30
0.0
 11
-60.62809767516559
 21
10.40524878827717
 31
0.0
  0
LINE
  5
174
102
{ACAD_REACTORS
330
17D
102
}
330
164
100
AcDbEntity
  8
0
100
AcDbLine
 10
-58.98987681977541
 20
16.44881753306684
 30
0.0
 11
-60.62809767516559
 21
16.44881753306684
 31
0.0
  0
LINE
  5
175
102
{ACAD_REACTORS
330
17D
102
}
330
164
100
AcDbEntity
  8
0
100
AcDbLine
 10
-57.88930580282222
 20
12.61710582815194
 30
0.0
 11
-58.98987681977541
 21
16.44881753306684
 31
0.0
  0
LINE
  5
176
102
{ACAD_REACTORS
330
17D
102
}
330
164
100
AcDbEntity
  8
0
100
AcDbLine
 10
-57.88930580282222
 20
16.44881753306684
 30
0.0
 11
-57.88930580282222
 21
12.61710582815194
 31
0.0
  0
LINE
  5
177
102
{ACAD_REACTORS
330
17D
102
}
330
164
100
AcDbEntity
  8
0
100
AcDbLine
 10
-56.69354904308139
 20
16.44881753306684
 30
0.0
 11
-57.88930580282222
 21
16.44881753306684
 31
0.0
  0
LINE
  5
178
102
{ACAD_REACTORS
330
17D
102
}
330
164
100
AcDbEntity
  8
0
100
AcDbLine
 10
-56.69354904308139
 20
10.40524878827717
 30
0.0
 11
-56.69354904308139
 21
16.44881753306684
 31
0.0
  0
LINE
  5
179
102
{ACAD_REACTORS
330
17D
102
}
330
164
100
AcDbEntity
  8
0
100
AcDbLine
 10
-58.22507916596087
 20
10.40524878827717
 30
0.0
 11
-56.69354904308139
 21
10.40524878827717
 31
0.0
  0
LINE
  5
17A
102
{ACAD_REACTORS
330
17D
102
}
330
164
100
AcDbEntity
  8
0
100
AcDbLine
 10
-59.41118327390213
 20
14.53474967794081
 30
0.0
 11
-58.22507916596087
 21
10.40524878827717
 31
0.0
  0
LINE
  5
17B
102
{ACAD_REACTORS
330
17D
102
}
330
164
100
AcDbEntity
  8
0
100
AcDbLine
 10
-59.41118327390213
 20
10.40524878827717
 30
0.0
 11
-59.41118327390213
 21
14.53474967794081
 31
0.0
  0
LINE
  5
17C
102
{ACAD_REACTORS
330
17D
102
}
330
164
100
AcDbEntity
  8
0
100
AcDbLine
 10
-60.62809767516559
 20
10.40524878827717
 30
0.0
 11
-59.41118327390213
 21
10.40524878827717
 31
0.0
  0
HATCH
  5
17D
330
164
100
AcDbEntity
  8
Schraffur (ISO)
100
AcDbHatch
 10
0.0
 20
0.0
 30
0.0
210
0.0
220
0.0
230
1.0
  2
SOLID
 70
     1
 71
     1
 91
        1
 92
        1
 93
       10
 72
     1
 10
-60.62809767516559
 20
16.44881753306684
 11
-60.62809767516559
 21
10.40524878827717
 72
     1
 10
-60.62809767516559
 20
10.40524878827717
 11
-59.41118327390213
 21
10.40524878827717
 72
     1
 10
-59.41118327390213
 20
10.40524878827717
 11
-59.41118327390213
 21
14.53474967794082
 72
     1
 10
-59.41118327390213
 20
14.53474967794081
 11
-58.22507916596087
 21
10.40524878827717
 72
     1
 10
-58.22507916596087
 20
10.40524878827717
 11
-56.69354904308139
 21
10.40524878827717
 72
     1
 10
-56.69354904308139
 20
10.40524878827717
 11
-56.69354904308139
 21
16.44881753306684
 72
     1
 10
-56.69354904308139
 20
16.44881753306684
 11
-57.88930580282222
 21
16.44881753306684
 72
     1
 10
-57.88930580282222
 20
16.44881753306684
 11
-57.88930580282222
 21
12.61710582815194
 72
     1
 10
-57.88930580282222
 20
12.61710582815194
 11
-58.98987681977541
 21
16.44881753306684
 72
     1
 10
-58.98987681977541
 20
16.44881753306684
 11
-60.62809767516559
 21
16.44881753306684
 97
       10
330
173
330
17C
330
17B
330
17A
330
179
330
178
330
177
330
176
330
175
330
174
 75
     0
 76
     1
 98
        1
 10
0.0
 20
0.0
450
        0
451
        0
460
0.0
461
0.0
452
        0
462
0.0
453
        0
470

  0
LINE
  5
17E
102
{ACAD_REACTORS
330
18A
102
}
330
164
100
AcDbEntity
  8
0
100
AcDbLine
 10
-54.3920076751656
 20
11.58162453306683
 30
10.0
 11
-52.27805867516565
 21
11.58162453306683
 31
10.0
  0
LINE
  5
17F
102
{ACAD_REACTORS
330
18A
102
}
330
164
100
AcDbEntity
  8
0
100
AcDbLine
 10
-54.3920076751656
 20
12.95052253306684
 30
10.0
 11
-54.3920076751656
 21
11.58162453306683
 31
10.0
  0
LINE
  5
180
102
{ACAD_REACTORS
330
18A
102
}
330
164
100
AcDbEntity
  8
0
100
AcDbLine
 10
-52.49194867516564
 20
12.95052253306684
 30
10.0
 11
-54.3920076751656
 21
12.95052253306684
 31
10.0
  0
LINE
  5
181
102
{ACAD_REACTORS
330
18A
102
}
330
164
100
AcDbEntity
  8
0
100
AcDbLine
 10
-52.49194867516564
 20
14.09127053306683
 30
10.0
 11
-52.49194867516564
 21
12.95052253306684
 31
10.0
  0
LINE
  5
182
102
{ACAD_REACTORS
330
18A
102
}
330
164
100
AcDbEntity
  8
0
100
AcDbLine
 10
-54.3920076751656
 20
14.09127053306683
 30
10.0
 11
-52.49194867516564
 21
14.09127053306683
 31
10.0
  0
LINE
  5
183
102
{ACAD_REACTORS
330
18A
102
}
330
164
100
AcDbEntity
  8
0
100
AcDbLine
 10
-54.3920076751656
 20
15.30806953306683
 30
10.0
 11
-54.3920076751656
 21
14.09127053306683
 31
10.0
  0
LINE
  5
184
102
{ACAD_REACTORS
330
18A
102
}
330
164
100
AcDbEntity
  8
0
100
AcDbLine
 10
-52.36836767516571
 20
15.30806953306683
 30
10.0
 11
-54.3920076751656
 21
15.30806953306683
 31
10.0
  0
LINE
  5
185
102
{ACAD_REACTORS
330
18A
102
}
330
164
100
AcDbEntity
  8
0
100
AcDbLine
 10
-52.36836767516571
 20
16.44881753306684
 30
10.0
 11
-52.36836767516571
 21
15.30806953306683
 31
10.0
  0
LINE
  5
186
102
{ACAD_REACTORS
330
18A
102
}
330
164
100
AcDbEntity
  8
0
100
AcDbLine
 10
-55.76090567516565
 20
16.44881753306684
 30
10.0
 11
-52.36836767516571
 21
16.44881753306684
 31
10.0
  0
LINE
  5
187
102
{ACAD_REACTORS
330
18A
102
}
330
164
100
AcDbEntity
  8
0
100
AcDbLine
 10
-55.76090567516565
 20
10.44087653306682
 30
10.0
 11
-55.76090567516565
 21
16.44881753306684
 31
10.0
  0
LINE
  5
188
102
{ACAD_REACTORS
330
18A
102
}
330
164
100
AcDbEntity
  8
0
100
AcDbLine
 10
-52.27805867516565
 20
10.44087653306682
 30
10.0
 11
-55.76090567516565
 21
10.44087653306682
 31
10.0
  0
LINE
  5
189
102
{ACAD_REACTORS
330
18A
102
}
330
164
100
AcDbEntity
  8
0
100
AcDbLine
 10
-52.27805867516565
 20
11.58162453306683
 30
10.0
 11
-52.27805867516565
 21
10.44087653306682
 31
10.0
  0
HATCH
  5
18A
330
164
100
AcDbEntity
  8
Schraffur (ISO)
100
AcDbHatch
 10
0.0
 20
0.0
 30
0.0
210
0.0
220
0.0
230
1.0
  2
SOLID
 70
     1
 71
     1
 91
        1
 92
        1
 93
       12
 72
     1
 10
-54.3920076751656
 20
11.58162453306683
 11
-52.27805867516565
 21
11.58162453306683
 72
     1
 10
-52.27805867516565
 20
11.58162453306683
 11
-52.27805867516565
 21
10.44087653306682
 72
     1
 10
-52.27805867516565
 20
10.44087653306682
 11
-55.76090567516565
 21
10.44087653306682
 72
     1
 10
-55.76090567516565
 20
10.44087653306682
 11
-55.76090567516565
 21
16.44881753306684
 72
     1
 10
-55.76090567516565
 20
16.44881753306684
 11
-52.36836767516571
 21
16.44881753306684
 72
     1
 10
-52.36836767516571
 20
16.44881753306684
 11
-52.36836767516571
 21
15.30806953306683
 72
     1
 10
-52.36836767516571
 20
15.30806953306683
 11
-54.3920076751656
 21
15.30806953306683
 72
     1
 10
-54.3920076751656
 20
15.30806953306683
 11
-54.3920076751656
 21
14.09127053306683
 72
     1
 10
-54.3920076751656
 20
14.09127053306683
 11
-52.49194867516564
 21
14.09127053306683
 72
     1
 10
-52.49194867516564
 20
14.09127053306683
 11
-52.49194867516564
 21
12.95052253306684
 72
     1
 10
-52.49194867516564
 20
12.95052253306684
 11
-54.3920076751656
 21
12.95052253306684
 72
     1
 10
-54.3920076751656
 20
12.95052253306684
 11
-54.3920076751656
 21
11.58162453306683
 97
       12
330
17E
330
189
330
188
330
187
330
186
330
185
330
184
330
183
330
182
330
181
330
180
330
17F
 75
     0
 76
     1
 98
        1
 10
0.0
 20
0.0
450
        0
451
        0
460
0.0
461
0.0
452
        0
462
0.0
453
        0
470

  0
SPLINE
  5
18B
102
{ACAD_REACTORS
330
193
102
}
330
164
100
AcDbEntity
  8
0
100
AcDbSpline
210
0.0
220
0.0
230
1.0
 70
     8
 71
     3
 72
    15
 73
    11
 74
     0
 42
0.0000000001
 43
0.0000000001
 40
0.0
 40
0.0
 40
0.0
 40
0.0
 40
0.0672548563799885
 40
0.1521664902326495
 40
0.2281703146548317
 40
0.3255600897830795
 40
0.4120495207317158
 40
0.4985389234182298
 40
0.5654159866690202
 40
0.6509023544104405
 40
0.6509023544104405
 40
0.6509023544104405
 40
0.6509023544104405
 10
-51.7302616751656
 20
12.50372953306684
 30
0.0
 10
-51.72250972741318
 20
12.28042993765319
 30
0.0
 10
-51.7049706715673
 20
11.77520670867943
 30
0.0
 10
-51.45830183546912
 20
11.01272899934195
 30
0.0
 10
-50.70619437300852
 20
10.49759629449973
 30
0.0
 10
-49.8251698126684
 20
10.4107231579618
 30
0.0
 10
-48.92313273835776
 20
10.49749520180978
 30
0.0
 10
-48.18766130508738
 20
10.93968926311738
 30
0.0
 10
-47.88526518983896
 20
11.71052808496217
 30
0.0
 10
-47.86377509624168
 20
12.21864242747865
 30
0.0
 10
-47.85171767516569
 20
12.50372953306684
 30
0.0
  0
LINE
  5
18C
102
{ACAD_REACTORS
330
193
102
}
330
164
100
AcDbEntity
  8
0
100
AcDbLine
 10
-51.7302616751656
 20
16.44881753306684
 30
0.0
 11
-51.7302616751656
 21
12.50372953306684
 31
0.0
  0
LINE
  5
18D
102
{ACAD_REACTORS
330
193
102
}
330
164
100
AcDbEntity
  8
0
100
AcDbLine
 10
-50.36136367516565
 20
16.44881753306684
 30
0.0
 11
-51.7302616751656
 21
16.44881753306684
 31
0.0
  0
LINE
  5
18E
102
{ACAD_REACTORS
330
193
102
}
330
164
100
AcDbEntity
  8
0
100
AcDbLine
 10
-50.36136367516565
 20
12.15437597654793
 30
0.0
 11
-50.36136367516565
 21
16.44881753306684
 31
0.0
  0
SPLINE
  5
18F
102
{ACAD_REACTORS
330
193
102
}
330
164
100
AcDbEntity
  8
0
100
AcDbSpline
210
0.0
220
0.0
230
1.0
 70
     8
 71
     3
 72
    12
 73
     8
 74
     0
 42
0.0000000001
 43
0.0000000001
 40
0.0
 40
0.0
 40
0.0
 40
0.0
 40
0.0459373561447192
 40
0.0841298945751798
 40
0.1189845232173717
 40
0.1628560898790358
 40
0.2038542643486715
 40
0.2038542643486715
 40
0.2038542643486715
 40
0.2038542643486715
 10
-49.22061567516561
 20
12.15437553306683
 30
0.0
 10
-49.2268789446577
 20
11.99485470427934
 30
0.0
 10
-49.23834952647364
 20
11.70270749262533
 30
0.0
 10
-49.57024113653026
 20
11.41847892432864
 30
0.0
 10
-49.99594522261111
 20
11.40074526513182
 30
0.0
 10
-50.29158571586791
 20
11.73973014957667
 30
0.0
 10
-50.33863533382652
 20
12.01931596640863
 30
0.0
 10
-50.36136367516565
 20
12.15437597654793
 30
0.0
  0
LINE
  5
190
102
{ACAD_REACTORS
330
193
102
}
330
164
100
AcDbEntity
  8
0
100
AcDbLine
 10
-49.22061567516561
 20
16.44881753306684
 30
0.0
 11
-49.22061567516561
 21
12.15437553306683
 31
0.0
  0
LINE
  5
191
102
{ACAD_REACTORS
330
193
102
}
330
164
100
AcDbEntity
  8
0
100
AcDbLine
 10
-47.85171767516569
 20
16.44881753306684
 30
0.0
 11
-49.22061567516561
 21
16.44881753306684
 31
0.0
  0
LINE
  5
192
102
{ACAD_REACTORS
330
193
102
}
330
164
100
AcDbEntity
  8
0
100
AcDbLine
 10
-47.85171767516569
 20
12.50372953306684
 30
0.0
 11
-47.85171767516569
 21
16.44881753306684
 31
0.0
  0
HATCH
  5
193
330
164
100
AcDbEntity
  8
Schraffur (ISO)
100
AcDbHatch
 10
0.0
 20
0.0
 30
0.0
210
0.0
220
0.0
230
1.0
  2
SOLID
 70
     1
 71
     1
 91
        1
 92
        1
 93
        8
 72
     4
 94
        3
 73
     0
 74
     0
 95
       15
 96
       11
 40
0.0
 40
0.0
 40
0.0
 40
0.0
 40
0.0672548563799885
 40
0.1521664902326495
 40
0.2281703146548317
 40
0.3255600897830795
 40
0.4120495207317158
 40
0.4985389234182298
 40
0.5654159866690202
 40
0.6509023544104405
 40
0.6509023544104405
 40
0.6509023544104405
 40
0.6509023544104405
 10
-51.7302616751656
 20
12.50372953306684
 10
-51.72250972741318
 20
12.28042993765319
 10
-51.7049706715673
 20
11.77520670867943
 10
-51.45830183546912
 20
11.01272899934195
 10
-50.70619437300852
 20
10.49759629449973
 10
-49.8251698126684
 20
10.4107231579618
 10
-48.92313273835776
 20
10.49749520180978
 10
-48.18766130508738
 20
10.93968926311738
 10
-47.88526518983896
 20
11.71052808496217
 10
-47.86377509624168
 20
12.21864242747865
 10
-47.85171767516569
 20
12.50372953306684
 72
     1
 10
-47.85171767516569
 20
12.50372953306684
 11
-47.85171767516569
 21
16.44881753306684
 72
     1
 10
-47.85171767516569
 20
16.44881753306684
 11
-49.22061567516561
 21
16.44881753306684
 72
     1
 10
-49.22061567516561
 20
16.44881753306684
 11
-49.22061567516561
 21
12.15437553306683
 72
     4
 94
        3
 73
     0
 74
     0
 95
       12
 96
        8
 40
0.0
 40
0.0
 40
0.0
 40
0.0
 40
0.0459373561447192
 40
0.0841298945751798
 40
0.1189845232173717
 40
0.1628560898790358
 40
0.2038542643486715
 40
0.2038542643486715
 40
0.2038542643486715
 40
0.2038542643486715
 10
-49.22061567516561
 20
12.15437553306683
 10
-49.2268789446577
 20
11.99485470427934
 10
-49.23834952647364
 20
11.70270749262533
 10
-49.57024113653026
 20
11.41847892432864
 10
-49.99594522261111
 20
11.40074526513182
 10
-50.29158571586791
 20
11.73973014957667
 10
-50.33863533382652
 20
12.01931596640863
 10
-50.36136367516565
 20
12.15437597654793
 72
     1
 10
-50.36136367516565
 20
12.15437597654793
 11
-50.36136367516565
 21
16.44881753306684
 72
     1
 10
-50.36136367516565
 20
16.44881753306684
 11
-51.7302616751656
 21
16.44881753306684
 72
     1
 10
-51.7302616751656
 20
16.44881753306684
 11
-51.7302616751656
 21
12.50372953306684
 97
        8
330
18B
330
192
330
191
330
190
330
18F
330
18E
330
18D
330
18C
 75
     0
 76
     1
 98
        1
 10
0.0
 20
0.0
450
        0
451
        0
460
0.0
461
0.0
452
        0
462
0.0
453
        0
470

  0
LINE
  5
194
102
{ACAD_REACTORS
330
1A2
102
}
330
164
100
AcDbEntity
  8
0
100
AcDbLine
 10
-44.98677667516563
 20
16.44881753306684
 30
10.0
 11
-44.26073767516562
 21
12.52868353306683
 31
10.0
  0
LINE
  5
195
102
{ACAD_REACTORS
330
1A2
102
}
330
164
100
AcDbEntity
  8
0
100
AcDbLine
 10
-47.01516967516568
 20
16.44881753306684
 30
10.0
 11
-44.98677667516563
 21
16.44881753306684
 31
10.0
  0
LINE
  5
196
102
{ACAD_REACTORS
330
1A2
102
}
330
164
100
AcDbEntity
  8
0
100
AcDbLine
 10
-47.01516967516568
 20
10.44087653306682
 30
10.0
 11
-47.01516967516568
 21
16.44881753306684
 31
10.0
  0
LINE
  5
197
102
{ACAD_REACTORS
330
1A2
102
}
330
164
100
AcDbEntity
  8
0
100
AcDbLine
 10
-45.79837167516565
 20
10.44087653306682
 30
10.0
 11
-47.01516967516568
 21
10.44087653306682
 31
10.0
  0
LINE
  5
198
102
{ACAD_REACTORS
330
1A2
102
}
330
164
100
AcDbEntity
  8
0
100
AcDbLine
 10
-45.79837167516565
 20
15.1559695330669
 30
10.0
 11
-45.79837167516565
 21
10.44087653306682
 31
10.0
  0
LINE
  5
199
102
{ACAD_REACTORS
330
1A2
102
}
330
164
100
AcDbEntity
  8
0
100
AcDbLine
 10
-44.83467667516558
 20
10.44087653306682
 30
10.0
 11
-45.79837167516565
 21
15.1559695330669
 31
10.0
  0
LINE
  5
19A
102
{ACAD_REACTORS
330
1A2
102
}
330
164
100
AcDbEntity
  8
0
100
AcDbLine
 10
-43.74621267516555
 20
10.44087653306682
 30
10.0
 11
-44.83467667516558
 21
10.44087653306682
 31
10.0
  0
LINE
  5
19B
102
{ACAD_REACTORS
330
1A2
102
}
330
164
100
AcDbEntity
  8
0
100
AcDbLine
 10
-42.83242567516563
 20
15.15596953306682
 30
10.0
 11
-43.74621267516555
 21
10.44087653306682
 31
10.0
  0
LINE
  5
19C
102
{ACAD_REACTORS
330
1A2
102
}
330
164
100
AcDbEntity
  8
0
100
AcDbLine
 10
-42.83242567516563
 20
10.44087653306682
 30
10.0
 11
-42.83242567516563
 21
15.15596953306682
 31
10.0
  0
LINE
  5
19D
102
{ACAD_REACTORS
330
1A2
102
}
330
164
100
AcDbEntity
  8
0
100
AcDbLine
 10
-41.53957767516555
 20
10.44087653306682
 30
10.0
 11
-42.83242567516563
 21
10.44087653306682
 31
10.0
  0
LINE
  5
19E
102
{ACAD_REACTORS
330
1A2
102
}
330
164
100
AcDbEntity
  8
0
100
AcDbLine
 10
-41.53957767516555
 20
16.44881753306684
 30
10.0
 11
-41.53957767516555
 21
10.44087653306682
 31
10.0
  0
LINE
  5
19F
102
{ACAD_REACTORS
330
1A2
102
}
330
164
100
AcDbEntity
  8
0
100
AcDbLine
 10
-43.54301667516562
 20
16.44881753306684
 30
10.0
 11
-41.53957767516555
 21
16.44881753306684
 31
10.0
  0
LINE
  5
1A0
102
{ACAD_REACTORS
330
1A2
102
}
330
164
100
AcDbEntity
  8
0
100
AcDbLine
 10
-44.24410167516565
 20
12.52868353306683
 30
10.0
 11
-43.54301667516562
 21
16.44881753306684
 31
10.0
  0
LINE
  5
1A1
102
{ACAD_REACTORS
330
1A2
102
}
330
164
100
AcDbEntity
  8
0
100
AcDbLine
 10
-44.26073767516562
 20
12.52868353306683
 30
10.0
 11
-44.24410167516565
 21
12.52868353306683
 31
10.0
  0
HATCH
  5
1A2
330
164
100
AcDbEntity
  8
Schraffur (ISO)
100
AcDbHatch
 10
0.0
 20
0.0
 30
0.0
210
0.0
220
0.0
230
1.0
  2
SOLID
 70
     1
 71
     1
 91
        1
 92
        1
 93
       14
 72
     1
 10
-44.98677667516563
 20
16.44881753306684
 11
-44.26073767516562
 21
12.52868353306683
 72
     1
 10
-44.26073767516562
 20
12.52868353306683
 11
-44.24410167516565
 21
12.52868353306683
 72
     1
 10
-44.24410167516565
 20
12.52868353306683
 11
-43.54301667516562
 21
16.44881753306684
 72
     1
 10
-43.54301667516562
 20
16.44881753306684
 11
-41.53957767516555
 21
16.44881753306684
 72
     1
 10
-41.53957767516555
 20
16.44881753306684
 11
-41.53957767516555
 21
10.44087653306682
 72
     1
 10
-41.53957767516555
 20
10.44087653306682
 11
-42.83242567516563
 21
10.44087653306682
 72
     1
 10
-42.83242567516563
 20
10.44087653306682
 11
-42.83242567516563
 21
15.15596953306682
 72
     1
 10
-42.83242567516563
 20
15.15596953306682
 11
-43.74621267516555
 21
10.44087653306682
 72
     1
 10
-43.74621267516555
 20
10.44087653306682
 11
-44.83467667516558
 21
10.44087653306682
 72
     1
 10
-44.83467667516558
 20
10.44087653306682
 11
-45.79837167516565
 21
15.1559695330669
 72
     1
 10
-45.79837167516565
 20
15.1559695330669
 11
-45.79837167516565
 21
10.44087653306682
 72
     1
 10
-45.79837167516565
 20
10.44087653306682
 11
-47.01516967516568
 21
10.44087653306682
 72
     1
 10
-47.01516967516568
 20
10.44087653306682
 11
-47.01516967516568
 21
16.44881753306684
 72
     1
 10
-47.01516967516568
 20
16.44881753306684
 11
-44.98677667516563
 21
16.44881753306684
 97
       14
330
194
330
1A1
330
1A0
330
19F
330
19E
330
19D
330
19C
330
19B
330
19A
330
199
330
198
330
197
330
196
330
195
 75
     0
 76
     1
 98
        1
 10
0.0
 20
0.0
450
        0
451
        0
460
0.0
461
0.0
452
        0
462
0.0
453
        0
470

  0
LINE
  5
1A3
102
{ACAD_REACTORS
330
1AF
102
}
330
164
100
AcDbEntity
  8
0
100
AcDbLine
 10
-39.2521406751656
 20
12.64632353306684
 30
0.0
 11
-38.24923267516571
 21
12.64632353306684
 31
0.0
  0
LINE
  5
1A4
102
{ACAD_REACTORS
330
1AF
102
}
330
164
100
AcDbEntity
  8
0
100
AcDbLine
 10
-38.24923267516571
 20
12.64632353306684
 30
0.0
 11
-38.75068667516565
 21
15.46016853306682
 31
0.0
  0
LINE
  5
1A5
102
{ACAD_REACTORS
330
1AF
102
}
330
164
100
AcDbEntity
  8
0
100
AcDbLine
 10
-38.75068667516565
 20
15.46016853306682
 30
0.0
 11
-38.76732267516559
 21
15.46016853306682
 31
0.0
  0
LINE
  5
1A6
102
{ACAD_REACTORS
330
1AF
102
}
330
164
100
AcDbEntity
  8
0
100
AcDbLine
 10
-38.76732267516559
 20
15.46016853306682
 30
0.0
 11
-39.2521406751656
 21
12.64632353306684
 31
0.0
  0
LINE
  5
1A7
102
{ACAD_REACTORS
330
1AF
102
}
330
164
100
AcDbEntity
  8
0
100
AcDbLine
 10
-37.80719267516563
 20
10.44087653306682
 30
0.0
 11
-36.36818667516561
 21
10.44087653306682
 31
0.0
  0
LINE
  5
1A8
102
{ACAD_REACTORS
330
1AF
102
}
330
164
100
AcDbEntity
  8
0
100
AcDbLine
 10
-38.02227067516558
 20
11.65767453306683
 30
0.0
 11
-37.80719267516563
 21
10.44087653306682
 31
0.0
  0
LINE
  5
1A9
102
{ACAD_REACTORS
330
1AF
102
}
330
164
100
AcDbEntity
  8
0
100
AcDbLine
 10
-39.43751167516563
 20
11.65767453306683
 30
0.0
 11
-38.02227067516558
 21
11.65767453306683
 31
0.0
  0
LINE
  5
1AA
102
{ACAD_REACTORS
330
1AF
102
}
330
164
100
AcDbEntity
  8
0
100
AcDbLine
 10
-39.64427267516566
 20
10.44087653306682
 30
0.0
 11
-39.43751167516563
 21
11.65767453306683
 31
0.0
  0
LINE
  5
1AB
102
{ACAD_REACTORS
330
1AF
102
}
330
164
100
AcDbEntity
  8
0
100
AcDbLine
 10
-41.0832786751656
 20
10.44087653306682
 30
0.0
 11
-39.64427267516566
 21
10.44087653306682
 31
0.0
  0
LINE
  5
1AC
102
{ACAD_REACTORS
330
1AF
102
}
330
164
100
AcDbEntity
  8
0
100
AcDbLine
 10
-39.57772867516564
 20
16.44881753306684
 30
0.0
 11
-41.0832786751656
 21
10.44087653306682
 31
0.0
  0
LINE
  5
1AD
102
{ACAD_REACTORS
330
1AF
102
}
330
164
100
AcDbEntity
  8
0
100
AcDbLine
 10
-37.84046467516564
 20
16.44881753306684
 30
0.0
 11
-39.57772867516564
 21
16.44881753306684
 31
0.0
  0
LINE
  5
1AE
102
{ACAD_REACTORS
330
1AF
102
}
330
164
100
AcDbEntity
  8
0
100
AcDbLine
 10
-36.36818667516561
 20
10.44087653306682
 30
0.0
 11
-37.84046467516564
 21
16.44881753306684
 31
0.0
  0
HATCH
  5
1AF
330
164
100
AcDbEntity
  8
Schraffur (ISO)
100
AcDbHatch
 10
0.0
 20
0.0
 30
0.0
210
0.0
220
0.0
230
1.0
  2
SOLID
 70
     1
 71
     1
 91
        2
 92
        0
 93
        4
 72
     1
 10
-39.2521406751656
 20
12.64632353306684
 11
-38.24923267516571
 21
12.64632353306684
 72
     1
 10
-38.24923267516571
 20
12.64632353306684
 11
-38.75068667516565
 21
15.46016853306682
 72
     1
 10
-38.75068667516565
 20
15.46016853306682
 11
-38.76732267516559
 21
15.46016853306682
 72
     1
 10
-38.76732267516559
 20
15.46016853306682
 11
-39.2521406751656
 21
12.64632353306684
 97
        4
330
1A3
330
1A4
330
1A5
330
1A6
 92
        1
 93
        8
 72
     1
 10
-37.80719267516563
 20
10.44087653306682
 11
-36.36818667516561
 21
10.44087653306682
 72
     1
 10
-36.36818667516561
 20
10.44087653306682
 11
-37.84046467516564
 21
16.44881753306684
 72
     1
 10
-37.84046467516564
 20
16.44881753306684
 11
-39.57772867516564
 21
16.44881753306684
 72
     1
 10
-39.57772867516564
 20
16.44881753306684
 11
-41.0832786751656
 21
10.44087653306682
 72
     1
 10
-41.0832786751656
 20
10.44087653306682
 11
-39.64427267516566
 21
10.44087653306682
 72
     1
 10
-39.64427267516566
 20
10.44087653306682
 11
-39.43751167516563
 21
11.65767453306683
 72
     1
 10
-39.43751167516563
 20
11.65767453306683
 11
-38.02227067516558
 21
11.65767453306683
 72
     1
 10
-38.02227067516558
 20
11.65767453306683
 11
-37.80719267516563
 21
10.44087653306682
 97
        8
330
1A7
330
1AE
330
1AD
330
1AC
330
1AB
330
1AA
330
1A9
330
1A8
 75
     0
 76
     1
 98
        1
 10
0.0
 20
0.0
450
        0
451
        0
460
0.0
461
0.0
452
        0
462
0.0
453
        0
470

  0
LINE
  5
1B0
102
{ACAD_REACTORS
330
1B8
102
}
330
164
100
AcDbEntity
  8
0
100
AcDbLine
 10
-33.7824906751656
 20
15.30806953306683
 30
10.0
 11
-33.7824906751656
 21
10.44087653306682
 31
10.0
  0
LINE
  5
1B1
102
{ACAD_REACTORS
330
1B8
102
}
330
164
100
AcDbEntity
  8
0
100
AcDbLine
 10
-32.52410267516563
 20
15.30806953306683
 30
10.0
 11
-33.7824906751656
 21
15.30806953306683
 31
10.0
  0
LINE
  5
1B2
102
{ACAD_REACTORS
330
1B8
102
}
330
164
100
AcDbEntity
  8
0
100
AcDbLine
 10
-32.52410267516563
 20
16.44881753306684
 30
10.0
 11
-32.52410267516563
 21
15.30806953306683
 31
10.0
  0
LINE
  5
1B3
102
{ACAD_REACTORS
330
1B8
102
}
330
164
100
AcDbEntity
  8
0
100
AcDbLine
 10
-36.36818667516561
 20
16.44881753306684
 30
10.0
 11
-32.52410267516563
 21
16.44881753306684
 31
10.0
  0
LINE
  5
1B4
102
{ACAD_REACTORS
330
1B8
102
}
330
164
100
AcDbEntity
  8
0
100
AcDbLine
 10
-36.36818667516561
 20
15.30806953306683
 30
10.0
 11
-36.36818667516561
 21
16.44881753306684
 31
10.0
  0
LINE
  5
1B5
102
{ACAD_REACTORS
330
1B8
102
}
330
164
100
AcDbEntity
  8
0
100
AcDbLine
 10
-35.15138767516564
 20
15.30806953306683
 30
10.0
 11
-36.36818667516561
 21
15.30806953306683
 31
10.0
  0
LINE
  5
1B6
102
{ACAD_REACTORS
330
1B8
102
}
330
164
100
AcDbEntity
  8
0
100
AcDbLine
 10
-35.15138767516564
 20
10.44087653306682
 30
10.0
 11
-35.15138767516564
 21
15.30806953306683
 31
10.0
  0
LINE
  5
1B7
102
{ACAD_REACTORS
330
1B8
102
}
330
164
100
AcDbEntity
  8
0
100
AcDbLine
 10
-33.7824906751656
 20
10.44087653306682
 30
10.0
 11
-35.15138767516564
 21
10.44087653306682
 31
10.0
  0
HATCH
  5
1B8
330
164
100
AcDbEntity
  8
Schraffur (ISO)
100
AcDbHatch
 10
0.0
 20
0.0
 30
0.0
210
0.0
220
0.0
230
1.0
  2
SOLID
 70
     1
 71
     1
 91
        1
 92
        1
 93
        8
 72
     1
 10
-33.7824906751656
 20
15.30806953306683
 11
-33.7824906751656
 21
10.44087653306682
 72
     1
 10
-33.7824906751656
 20
10.44087653306682
 11
-35.15138767516564
 21
10.44087653306682
 72
     1
 10
-35.15138767516564
 20
10.44087653306682
 11
-35.15138767516564
 21
15.30806953306683
 72
     1
 10
-35.15138767516564
 20
15.30806953306683
 11
-36.36818667516561
 21
15.30806953306683
 72
     1
 10
-36.36818667516561
 20
15.30806953306683
 11
-36.36818667516561
 21
16.44881753306684
 72
     1
 10
-36.36818667516561
 20
16.44881753306684
 11
-32.52410267516563
 21
16.44881753306684
 72
     1
 10
-32.52410267516563
 20
16.44881753306684
 11
-32.52410267516563
 21
15.30806953306683
 72
     1
 10
-32.52410267516563
 20
15.30806953306683
 11
-33.7824906751656
 21
15.30806953306683
 97
        8
330
1B0
330
1B7
330
1B6
330
1B5
330
1B4
330
1B3
330
1B2
330
1B1
 75
     0
 76
     1
 98
        1
 10
0.0
 20
0.0
450
        0
451
        0
460
0.0
461
0.0
452
        0
462
0.0
453
        0
470

  0
LINE
  5
1B9
102
{ACAD_REACTORS
330
1C5
102
}
330
164
100
AcDbEntity
  8
0
100
AcDbLine
 10
-30.66444567516566
 20
11.58162453306683
 30
10.0
 11
-28.55049667516564
 21
11.58162453306683
 31
10.0
  0
LINE
  5
1BA
102
{ACAD_REACTORS
330
1C5
102
}
330
164
100
AcDbEntity
  8
0
100
AcDbLine
 10
-30.66444567516566
 20
12.95052253306684
 30
10.0
 11
-30.66444567516566
 21
11.58162453306683
 31
10.0
  0
LINE
  5
1BB
102
{ACAD_REACTORS
330
1C5
102
}
330
164
100
AcDbEntity
  8
0
100
AcDbLine
 10
-28.76438667516563
 20
12.95052253306684
 30
10.0
 11
-30.66444567516566
 21
12.95052253306684
 31
10.0
  0
LINE
  5
1BC
102
{ACAD_REACTORS
330
1C5
102
}
330
164
100
AcDbEntity
  8
0
100
AcDbLine
 10
-28.76438667516563
 20
14.09127053306683
 30
10.0
 11
-28.76438667516563
 21
12.95052253306684
 31
10.0
  0
LINE
  5
1BD
102
{ACAD_REACTORS
330
1C5
102
}
330
164
100
AcDbEntity
  8
0
100
AcDbLine
 10
-30.66444567516566
 20
14.09127053306683
 30
10.0
 11
-28.76438667516563
 21
14.09127053306683
 31
10.0
  0
LINE
  5
1BE
102
{ACAD_REACTORS
330
1C5
102
}
330
164
100
AcDbEntity
  8
0
100
AcDbLine
 10
-30.66444567516566
 20
15.30806953306683
 30
10.0
 11
-30.66444567516566
 21
14.09127053306683
 31
10.0
  0
LINE
  5
1BF
102
{ACAD_REACTORS
330
1C5
102
}
330
164
100
AcDbEntity
  8
0
100
AcDbLine
 10
-28.6408056751657
 20
15.30806953306683
 30
10.0
 11
-30.66444567516566
 21
15.30806953306683
 31
10.0
  0
LINE
  5
1C0
102
{ACAD_REACTORS
330
1C5
102
}
330
164
100
AcDbEntity
  8
0
100
AcDbLine
 10
-28.6408056751657
 20
16.44881753306684
 30
10.0
 11
-28.6408056751657
 21
15.30806953306683
 31
10.0
  0
LINE
  5
1C1
102
{ACAD_REACTORS
330
1C5
102
}
330
164
100
AcDbEntity
  8
0
100
AcDbLine
 10
-32.03334267516563
 20
16.44881753306684
 30
10.0
 11
-28.6408056751657
 21
16.44881753306684
 31
10.0
  0
LINE
  5
1C2
102
{ACAD_REACTORS
330
1C5
102
}
330
164
100
AcDbEntity
  8
0
100
AcDbLine
 10
-32.03334267516563
 20
10.44087653306682
 30
10.0
 11
-32.03334267516563
 21
16.44881753306684
 31
10.0
  0
LINE
  5
1C3
102
{ACAD_REACTORS
330
1C5
102
}
330
164
100
AcDbEntity
  8
0
100
AcDbLine
 10
-28.55049667516564
 20
10.44087653306682
 30
10.0
 11
-32.03334267516563
 21
10.44087653306682
 31
10.0
  0
LINE
  5
1C4
102
{ACAD_REACTORS
330
1C5
102
}
330
164
100
AcDbEntity
  8
0
100
AcDbLine
 10
-28.55049667516564
 20
11.58162453306683
 30
10.0
 11
-28.55049667516564
 21
10.44087653306682
 31
10.0
  0
HATCH
  5
1C5
330
164
100
AcDbEntity
  8
Schraffur (ISO)
100
AcDbHatch
 10
0.0
 20
0.0
 30
0.0
210
0.0
220
0.0
230
1.0
  2
SOLID
 70
     1
 71
     1
 91
        1
 92
        1
 93
       12
 72
     1
 10
-30.66444567516566
 20
11.58162453306683
 11
-28.55049667516564
 21
11.58162453306683
 72
     1
 10
-28.55049667516564
 20
11.58162453306683
 11
-28.55049667516564
 21
10.44087653306682
 72
     1
 10
-28.55049667516564
 20
10.44087653306682
 11
-32.03334267516563
 21
10.44087653306682
 72
     1
 10
-32.03334267516563
 20
10.44087653306682
 11
-32.03334267516563
 21
16.44881753306684
 72
     1
 10
-32.03334267516563
 20
16.44881753306684
 11
-28.6408056751657
 21
16.44881753306684
 72
     1
 10
-28.6408056751657
 20
16.44881753306684
 11
-28.6408056751657
 21
15.30806953306683
 72
     1
 10
-28.6408056751657
 20
15.30806953306683
 11
-30.66444567516566
 21
15.30806953306683
 72
     1
 10
-30.66444567516566
 20
15.30806953306683
 11
-30.66444567516566
 21
14.09127053306683
 72
     1
 10
-30.66444567516566
 20
14.09127053306683
 11
-28.76438667516563
 21
14.09127053306683
 72
     1
 10
-28.76438667516563
 20
14.09127053306683
 11
-28.76438667516563
 21
12.95052253306684
 72
     1
 10
-28.76438667516563
 20
12.95052253306684
 11
-30.66444567516566
 21
12.95052253306684
 72
     1
 10
-30.66444567516566
 20
12.95052253306684
 11
-30.66444567516566
 21
11.58162453306683
 97
       12
330
1B9
330
1C4
330
1C3
330
1C2
330
1C1
330
1C0
330
1BF
330
1BE
330
1BD
330
1BC
330
1BB
330
1BA
 75
     0
 76
     1
 98
        1
 10
0.0
 20
0.0
450
        0
451
        0
460
0.0
461
0.0
452
        0
462
0.0
453
        0
470

  0
LINE
  5
1C6
102
{ACAD_REACTORS
330
1D3
102
}
330
164
100
AcDbEntity
  8
0
100
AcDbLine
 10
-25.43246658829611
 20
16.4546514228036
 30
10.0
 11
-23.90435631161623
 21
16.46180057898531
 31
10.0
  0
LINE
  5
1C7
102
{ACAD_REACTORS
330
1D3
102
}
330
164
100
AcDbEntity
  8
0
100
AcDbLine
 10
-26.01549057645176
 20
14.58511635645683
 30
10.0
 11
-25.43246658829611
 21
16.4546514228036
 31
10.0
  0
LINE
  5
1C8
102
{ACAD_REACTORS
330
1D3
102
}
330
164
100
AcDbEntity
  8
0
100
AcDbLine
 10
-26.03093740740494
 20
14.58504408954738
 30
10.0
 11
-26.01549057645176
 21
14.58511635645683
 31
10.0
  0
LINE
  5
1C9
102
{ACAD_REACTORS
330
1D3
102
}
330
164
100
AcDbEntity
  8
0
100
AcDbLine
 10
-26.64612930682606
 20
16.44881753306684
 30
10.0
 11
-26.03093740740494
 21
14.58504408954738
 31
10.0
  0
LINE
  5
1CA
102
{ACAD_REACTORS
330
1D3
102
}
330
164
100
AcDbEntity
  8
0
100
AcDbLine
 10
-28.16787067516568
 20
16.44881753306684
 30
10.0
 11
-26.64612930682606
 21
16.44881753306684
 31
10.0
  0
LINE
  5
1CB
102
{ACAD_REACTORS
330
1D3
102
}
330
164
100
AcDbEntity
  8
0
100
AcDbLine
 10
-26.87026967516569
 20
13.49475453306683
 30
10.0
 11
-28.16787067516568
 21
16.44881753306684
 31
10.0
  0
LINE
  5
1CC
102
{ACAD_REACTORS
330
1D3
102
}
330
164
100
AcDbEntity
  8
0
100
AcDbLine
 10
-28.30689867516558
 20
10.44087653306682
 30
10.0
 11
-26.87026967516569
 21
13.49475453306683
 31
10.0
  0
LINE
  5
1CD
102
{ACAD_REACTORS
330
1D3
102
}
330
164
100
AcDbEntity
  8
0
100
AcDbLine
 10
-26.78946667516559
 20
10.44087653306682
 30
10.0
 11
-28.30689867516558
 21
10.44087653306682
 31
10.0
  0
LINE
  5
1CE
102
{ACAD_REACTORS
330
1D3
102
}
330
164
100
AcDbEntity
  8
0
100
AcDbLine
 10
-26.0800636751657
 20
12.44669253306682
 30
10.0
 11
-26.78946667516559
 21
10.44087653306682
 31
10.0
  0
LINE
  5
1CF
102
{ACAD_REACTORS
330
1D3
102
}
330
164
100
AcDbEntity
  8
0
100
AcDbLine
 10
-25.52255357088104
 20
10.44087653306682
 30
10.0
 11
-26.0800636751657
 21
12.44669253306682
 31
10.0
  0
LINE
  5
1D0
102
{ACAD_REACTORS
330
1D3
102
}
330
164
100
AcDbEntity
  8
0
100
AcDbLine
 10
-23.91733373362687
 20
10.44087653306682
 30
10.0
 11
-25.52255357088104
 21
10.44087653306682
 31
10.0
  0
LINE
  5
1D1
102
{ACAD_REACTORS
330
1D3
102
}
330
164
100
AcDbEntity
  8
0
100
AcDbLine
 10
-25.16745525516015
 20
13.49429112836466
 30
10.0
 11
-23.91733373362687
 21
10.44087653306682
 31
10.0
  0
LINE
  5
1D2
102
{ACAD_REACTORS
330
1D3
102
}
330
164
100
AcDbEntity
  8
0
100
AcDbLine
 10
-23.90435631161623
 20
16.46180057898531
 30
10.0
 11
-25.16745525516015
 21
13.49429112836466
 31
10.0
  0
HATCH
  5
1D3
330
164
100
AcDbEntity
  8
Schraffur (ISO)
100
AcDbHatch
 10
0.0
 20
0.0
 30
0.0
210
0.0
220
0.0
230
1.0
  2
SOLID
 70
     1
 71
     1
 91
        1
 92
        1
 93
       13
 72
     1
 10
-25.43246658829611
 20
16.4546514228036
 11
-23.90435631161623
 21
16.46180057898531
 72
     1
 10
-23.90435631161623
 20
16.46180057898531
 11
-25.16745525516015
 21
13.49429112836467
 72
     1
 10
-25.16745525516015
 20
13.49429112836466
 11
-23.91733373362687
 21
10.44087653306682
 72
     1
 10
-23.91733373362687
 20
10.44087653306682
 11
-25.52255357088104
 21
10.44087653306682
 72
     1
 10
-25.52255357088104
 20
10.44087653306682
 11
-26.0800636751657
 21
12.44669253306682
 72
     1
 10
-26.0800636751657
 20
12.44669253306682
 11
-26.78946667516559
 21
10.44087653306682
 72
     1
 10
-26.78946667516559
 20
10.44087653306682
 11
-28.30689867516558
 21
10.44087653306682
 72
     1
 10
-28.30689867516558
 20
10.44087653306682
 11
-26.87026967516569
 21
13.49475453306683
 72
     1
 10
-26.87026967516569
 20
13.49475453306683
 11
-28.16787067516568
 21
16.44881753306684
 72
     1
 10
-28.16787067516568
 20
16.44881753306684
 11
-26.64612930682606
 21
16.44881753306684
 72
     1
 10
-26.64612930682606
 20
16.44881753306684
 11
-26.03093740740494
 21
14.58504408954738
 72
     1
 10
-26.03093740740494
 20
14.58504408954738
 11
-26.01549057645176
 21
14.58511635645683
 72
     1
 10
-26.01549057645176
 20
14.58511635645683
 11
-25.43246658829611
 21
16.4546514228036
 97
       13
330
1C6
330
1D2
330
1D1
330
1D0
330
1CF
330
1CE
330
1CD
330
1CC
330
1CB
330
1CA
330
1C9
330
1C8
330
1C7
 75
     0
 76
     1
 98
        1
 10
0.0
 20
0.0
450
        0
451
        0
460
0.0
461
0.0
452
        0
462
0.0
453
        0
470

  0
LINE
  5
1D4
330
164
100
AcDbEntity
  8
Skizziergeometrie (ISO)
100
AcDbLine
 10
-66.74197817516563
 20
0.2208965330668366
 30
0.0
 11
-53.44197817516562
 21
0.2208965330668366
 31
0.0
  0
LINE
  5
1D5
330
164
100
AcDbEntity
  8
Skizziergeometrie (ISO)
100
AcDbLine
 10
-53.44197817516562
 20
0.2208965330668366
 30
0.0
 11
-53.44197817516562
 21
13.52089653306683
 31
0.0
  0
LINE
  5
1D6
330
164
100
AcDbEntity
  8
Skizziergeometrie (ISO)
100
AcDbLine
 10
-53.44197817516562
 20
13.52089653306683
 30
0.0
 11
-66.74197817516563
 21
13.52089653306683
 31
0.0
  0
LINE
  5
1D7
330
164
100
AcDbEntity
  8
Skizziergeometrie (ISO)
100
AcDbLine
 10
-66.74197817516563
 20
13.52089653306683
 30
0.0
 11
-66.74197817516563
 21
0.2208965330668366
 31
0.0
  0
LINE
  5
1D8
330
164
100
AcDbEntity
  8
Skizziergeometrie (ISO)
100
AcDbLine
 10
-74.30834701753944
 20
20.17089653306684
 30
0.0
 11
-61.00834701753945
 21
20.17089653306684
 31
0.0
  0
LINE
  5
1D9
330
164
100
AcDbEntity
  8
Skizziergeometrie (ISO)
100
AcDbLine
 10
-61.00834701753945
 20
20.17089653306684
 30
0.0
 11
-61.00834701753945
 21
6.870896533066837
 31
0.0
  0
LINE
  5
1DA
330
164
100
AcDbEntity
  8
Skizziergeometrie (ISO)
100
AcDbLine
 10
-61.00834701753945
 20
6.870896533066837
 30
0.0
 11
-74.30834701753944
 21
6.870896533066837
 31
0.0
  0
LINE
  5
1DB
330
164
100
AcDbEntity
  8
Skizziergeometrie (ISO)
100
AcDbLine
 10
-74.30834701753944
 20
6.870896533066837
 30
0.0
 11
-74.30834701753944
 21
20.17089653306684
 31
0.0
  0
LINE
  5
1DC
330
164
100
AcDbEntity
  8
Skizziergeometrie (ISO)
100
AcDbLine
 10
-49.79098967516563
 20
25.34881753306685
 30
0.0
 11
-36.49098967516564
 21
25.34881753306685
 31
0.0
  0
LINE
  5
1DD
330
164
100
AcDbEntity
  8
Skizziergeometrie (ISO)
100
AcDbLine
 10
-36.49098967516564
 20
25.34881753306685
 30
0.0
 11
-36.49098967516564
 21
12.04881753306685
 31
0.0
  0
LINE
  5
1DE
330
164
100
AcDbEntity
  8
Skizziergeometrie (ISO)
100
AcDbLine
 10
-36.49098967516564
 20
12.04881753306685
 30
0.0
 11
-49.79098967516563
 21
12.04881753306685
 31
0.0
  0
LINE
  5
1DF
330
164
100
AcDbEntity
  8
Skizziergeometrie (ISO)
100
AcDbLine
 10
-49.79098967516563
 20
12.04881753306685
 30
0.0
 11
-49.79098967516563
 21
25.34881753306685
 31
0.0
  0
MTEXT
  5
1E0
330
164
100
AcDbEntity
  8
Titel (ISO)
100
AcDbMText
 10
-23.23075129610368
 20
16.30481426074307
 30
0.0
 40
2.5
 41
0.0
 71
     4
 72
     1
  1
\fAIGDT|b0|i0;\H2.5000;}
  7
Notiztext (DIN)
 73
     1
 44
1.0
  0
ENDBLK
  5
166
330
164
100
AcDbEntity
  8
0
100
AcDbBlockEnd
  0
BLOCK
  5
1E2
330
1E1
100
AcDbEntity
  8
0
100
AcDbBlockBegin
  2
P gross
 70
     0
 10
0.0
 20
0.0
 30
0.0
  3
P gross
  1

  0
LINE
  5
1E4
102
{ACAD_REACTORS
330
1F2
102
}
330
1E1
100
AcDbEntity
  8
0
100
AcDbLine
 10
8.769225522167296
 20
4.689310313762291
 30
0.0
 11
7.981577449080567
 21
4.689310313762327
 31
0.0
  0
LINE
  5
1E5
102
{ACAD_REACTORS
330
1F2
102
}
330
1E1
100
AcDbEntity
  8
0
100
AcDbLine
 10
7.981577449080567
 20
4.689310313762327
 30
0.0
 11
7.981577449080567
 21
0.7845927762325644
 31
0.0
  0
LINE
  5
1E6
102
{ACAD_REACTORS
330
1F2
102
}
330
1E1
100
AcDbEntity
  8
0
100
AcDbLine
 10
7.981577449080567
 20
0.7845927762325644
 30
0.0
 11
8.769225522167296
 21
0.7845927762325644
 31
0.0
  0
ARC
  5
1E7
102
{ACAD_REACTORS
330
1F2
102
}
330
1E1
100
AcDbEntity
  8
0
100
AcDbCircle
 10
8.769225522167296
 20
2.284592776232585
 30
0.0
 40
1.5
100
AcDbArc
 50
270.0
 51
0.0
  0
LINE
  5
1E8
102
{ACAD_REACTORS
330
1F2
102
}
330
1E1
100
AcDbEntity
  8
0
100
AcDbLine
 10
10.26922552216724
 20
2.284592776232585
 30
0.0
 11
10.26922552216728
 21
3.189310313762341
 31
0.0
  0
ARC
  5
1E9
102
{ACAD_REACTORS
330
1F2
102
}
330
1E1
100
AcDbEntity
  8
0
100
AcDbCircle
 10
8.769225522167296
 20
3.189310313762341
 30
0.0
 40
1.5
100
AcDbArc
 50
0.0
 51
90.0
  0
LINE
  5
1EA
102
{ACAD_REACTORS
330
1F2
102
}
330
1E1
100
AcDbEntity
  8
0
100
AcDbLine
 10
4.481577449080553
 20
7.033965470643472
 30
0.0
 11
4.481577449080553
 21
-7.033965470643472
 31
0.0
  0
LINE
  5
1EB
102
{ACAD_REACTORS
330
1F2
102
}
330
1E1
100
AcDbEntity
  8
0
100
AcDbLine
 10
9.557661927330194
 20
7.033965470643472
 30
0.0
 11
4.481577449080553
 21
7.033965470643472
 31
0.0
  0
ARC
  5
1EC
102
{ACAD_REACTORS
330
1F2
102
}
330
1E1
100
AcDbEntity
  8
0
100
AcDbCircle
 10
9.557661927330194
 20
3.033965470643487
 30
0.0
 40
4.0
100
AcDbArc
 50
0.0
 51
90.0
  0
LINE
  5
1ED
102
{ACAD_REACTORS
330
1F2
102
}
330
1E1
100
AcDbEntity
  8
0
100
AcDbLine
 10
13.55766192733018
 20
2.439937619351439
 30
0.0
 11
13.55766192733018
 21
3.033965470643487
 31
0.0
  0
ARC
  5
1EE
102
{ACAD_REACTORS
330
1F2
102
}
330
1E1
100
AcDbEntity
  8
0
100
AcDbCircle
 10
9.557661927330194
 20
2.439937619351439
 30
0.0
 40
4.0
100
AcDbArc
 50
270.0
 51
0.0
  0
LINE
  5
1EF
102
{ACAD_REACTORS
330
1F2
102
}
330
1E1
100
AcDbEntity
  8
0
100
AcDbLine
 10
7.981577449080603
 20
-1.560062380648581
 30
0.0
 11
9.557661927330194
 21
-1.560062380648581
 31
0.0
  0
LINE
  5
1F0
102
{ACAD_REACTORS
330
1F2
102
}
330
1E1
100
AcDbEntity
  8
0
100
AcDbLine
 10
7.981577449080567
 20
-7.033965470643508
 30
0.0
 11
7.981577449080603
 21
-1.560062380648581
 31
0.0
  0
LINE
  5
1F1
102
{ACAD_REACTORS
330
1F2
102
}
330
1E1
100
AcDbEntity
  8
0
100
AcDbLine
 10
4.481577449080553
 20
-7.033965470643472
 30
0.0
 11
7.981577449080567
 21
-7.033965470643508
 31
0.0
  0
HATCH
  5
1F2
330
1E1
100
AcDbEntity
  8
Schraffur (ISO)
100
AcDbHatch
 10
0.0
 20
0.0
 30
0.0
210
0.0
220
0.0
230
1.0
  2
SOLID
 70
     1
 71
     1
 91
        2
 92
        0
 93
        6
 72
     1
 10
8.769225522167296
 20
4.689310313762291
 11
7.981577449080567
 21
4.689310313762327
 72
     1
 10
7.981577449080567
 20
4.689310313762327
 11
7.981577449080567
 21
0.7845927762325644
 72
     1
 10
7.981577449080567
 20
0.7845927762325644
 11
8.769225522167296
 21
0.7845927762325644
 72
     2
 10
8.769225522167296
 20
2.284592776232585
 40
1.5
 50
270.0
 51
360.0
 73
     1
 72
     1
 10
10.26922552216724
 20
2.284592776232585
 11
10.26922552216728
 21
3.189310313762341
 72
     2
 10
8.769225522167296
 20
3.189310313762341
 40
1.5
 50
0.0
 51
90.0
 73
     1
 97
        6
330
1E4
330
1E5
330
1E6
330
1E7
330
1E8
330
1E9
 92
        1
 93
        8
 72
     1
 10
4.481577449080553
 20
7.033965470643472
 11
4.481577449080553
 21
-7.033965470643472
 72
     1
 10
4.481577449080553
 20
-7.033965470643472
 11
7.981577449080567
 21
-7.033965470643508
 72
     1
 10
7.981577449080567
 20
-7.033965470643508
 11
7.981577449080603
 21
-1.560062380648581
 72
     1
 10
7.981577449080603
 20
-1.560062380648581
 11
9.557661927330194
 21
-1.560062380648581
 72
     2
 10
9.557661927330194
 20
2.439937619351439
 40
4.0
 50
270.0
 51
360.0
 73
     1
 72
     1
 10
13.55766192733018
 20
2.439937619351439
 11
13.55766192733018
 21
3.033965470643487
 72
     2
 10
9.557661927330194
 20
3.033965470643487
 40
4.0
 50
0.0
 51
90.0
 73
     1
 72
     1
 10
9.557661927330194
 20
7.033965470643472
 11
4.481577449080553
 21
7.033965470643472
 97
        8
330
1EA
330
1F1
330
1F0
330
1EF
330
1EE
330
1ED
330
1EC
330
1EB
 75
     0
 76
     1
 98
        1
 10
0.0
 20
0.0
450
        0
451
        0
460
0.0
461
0.0
452
        0
462
0.0
453
        0
470

  0
LINE
  5
1F3
330
1E1
100
AcDbEntity
  8
Skizziergeometrie (ISO)
100
AcDbLine
 10
-13.99999999999998
 20
14.00746616799352
 30
0.0
 11
14.00000000000002
 21
14.00746616799352
 31
0.0
  0
LINE
  5
1F4
330
1E1
100
AcDbEntity
  8
Skizziergeometrie (ISO)
100
AcDbLine
 10
14.00000000000002
 20
14.00746616799352
 30
0.0
 11
14.00000000000002
 21
-14.00746616799352
 31
0.0
  0
LINE
  5
1F5
330
1E1
100
AcDbEntity
  8
Skizziergeometrie (ISO)
100
AcDbLine
 10
14.00000000000002
 20
-14.00746616799352
 30
0.0
 11
-13.99999999999998
 21
-14.00746616799352
 31
0.0
  0
LINE
  5
1F6
330
1E1
100
AcDbEntity
  8
Skizziergeometrie (ISO)
100
AcDbLine
 10
-13.99999999999998
 20
-14.00746616799352
 30
0.0
 11
-13.99999999999998
 21
14.00746616799352
 31
0.0
  0
LINE
  5
1F7
330
1E1
100
AcDbEntity
  8
Skizziergeometrie (ISO)
100
AcDbLine
 10
4.481577449080553
 20
7.033965470643472
 30
0.0
 11
4.481577449080553
 21
-7.033965470643472
 31
0.0
  0
LINE
  5
1F8
330
1E1
100
AcDbEntity
  8
Skizziergeometrie (ISO)
100
AcDbLine
 10
4.481577449080553
 20
-7.033965470643472
 30
0.0
 11
7.981577449080567
 21
-7.033965470643508
 31
0.0
  0
LINE
  5
1F9
330
1E1
100
AcDbEntity
  8
Skizziergeometrie (ISO)
100
AcDbLine
 10
7.981577449080567
 20
-7.033965470643508
 30
0.0
 11
7.981577449080603
 21
-1.560062380648581
 31
0.0
  0
LINE
  5
1FA
330
1E1
100
AcDbEntity
  8
Skizziergeometrie (ISO)
100
AcDbLine
 10
7.981577449080603
 20
-1.560062380648581
 30
0.0
 11
9.557661927330194
 21
-1.560062380648581
 31
0.0
  0
LINE
  5
1FB
330
1E1
100
AcDbEntity
  8
Skizziergeometrie (ISO)
100
AcDbLine
 10
9.557661927330194
 20
7.033965470643472
 30
0.0
 11
4.481577449080553
 21
7.033965470643472
 31
0.0
  0
ARC
  5
1FC
330
1E1
100
AcDbEntity
  8
Skizziergeometrie (ISO)
100
AcDbCircle
 10
9.557661927330194
 20
2.439937619351439
 30
0.0
 40
4.0
100
AcDbArc
 50
270.0
 51
0.0
  0
LINE
  5
1FD
330
1E1
100
AcDbEntity
  8
Skizziergeometrie (ISO)
100
AcDbLine
 10
13.55766192733018
 20
2.439937619351439
 30
0.0
 11
13.55766192733018
 21
3.033965470643487
 31
0.0
  0
ARC
  5
1FE
330
1E1
100
AcDbEntity
  8
Skizziergeometrie (ISO)
100
AcDbCircle
 10
9.557661927330194
 20
3.033965470643487
 30
0.0
 40
4.0
100
AcDbArc
 50
0.0
 51
90.0
  0
LINE
  5
1FF
330
1E1
100
AcDbEntity
  8
Skizziergeometrie (ISO)
100
AcDbLine
 10
7.981577449080567
 20
0.7845927762325644
 30
0.0
 11
7.981577449080567
 21
4.689310313762327
 31
0.0
  0
LINE
  5
200
330
1E1
100
AcDbEntity
  8
Skizziergeometrie (ISO)
100
AcDbLine
 10
7.981577449080567
 20
4.689310313762327
 30
0.0
 11
8.769225522167296
 21
4.689310313762291
 31
0.0
  0
ARC
  5
201
330
1E1
100
AcDbEntity
  8
Skizziergeometrie (ISO)
100
AcDbCircle
 10
8.769225522167296
 20
3.189310313762341
 30
0.0
 40
1.5
100
AcDbArc
 50
0.0
 51
90.0
  0
LINE
  5
202
330
1E1
100
AcDbEntity
  8
Skizziergeometrie (ISO)
100
AcDbLine
 10
10.26922552216728
 20
3.189310313762341
 30
0.0
 11
10.26922552216724
 21
2.284592776232585
 31
0.0
  0
ARC
  5
203
330
1E1
100
AcDbEntity
  8
Skizziergeometrie (ISO)
100
AcDbCircle
 10
8.769225522167296
 20
2.284592776232585
 30
0.0
 40
1.5
100
AcDbArc
 50
270.0
 51
0.0
  0
LINE
  5
204
330
1E1
100
AcDbEntity
  8
Skizziergeometrie (ISO)
100
AcDbLine
 10
8.769225522167296
 20
0.7845927762325644
 30
0.0
 11
7.981577449080567
 21
0.7845927762325644
 31
0.0
  0
ENDBLK
  5
1E3
330
1E1
100
AcDbEntity
  8
0
100
AcDbBlockEnd
  0
ENDSEC
  0
SECTION
  2
ENTITIES
  0
LINE
  5
205
330
37
100
AcDbEntity
  8
Sichtbar (ISO)
100
AcDbLine
 10
333.0749779892705
 20
1138.428888717786
 30
0.0
 11
296.5692094948223
 21
1138.428888717786
 31
0.0
  0
POLYLINE
  5
206
330
37
100
AcDbEntity
  8
Sichtbar (ISO)
100
AcDb2dPolyline
 66
     1
 10
0.0
 20
0.0
 30
0.0
 70
   128
  0
VERTEX
  5
207
330
206
100
AcDbEntity
  8
Sichtbar (ISO)
100
AcDbVertex
100
AcDb2dVertex
 10
338.9245813061333
 20
1128.297066063004
 30
0.0
  0
VERTEX
  5
208
330
206
100
AcDbEntity
  8
Sichtbar (ISO)
100
AcDbVertex
100
AcDb2dVertex
 10
338.7830608059501
 20
1128.301319450455
 30
0.0
  0
VERTEX
  5
20A
330
206
100
AcDbEntity
  8
Sichtbar (ISO)
100
AcDbVertex
100
AcDb2dVertex
 10
338.3610694576836
 20
1128.314804405289
 30
0.0
  0
VERTEX
  5
20B
330
206
100
AcDbEntity
  8
Sichtbar (ISO)
100
AcDbVertex
100
AcDb2dVertex
 10
337.6624648739433
 20
1128.338703483658
 30
0.0
  0
VERTEX
  5
20C
330
206
100
AcDbEntity
  8
Sichtbar (ISO)
100
AcDbVertex
100
AcDb2dVertex
 10
336.6929261852837
 20
1128.374199241715
 30
0.0
  0
VERTEX
  5
20D
330
206
100
AcDbEntity
  8
Sichtbar (ISO)
100
AcDbVertex
100
AcDb2dVertex
 10
335.4677550961113
 20
1128.42331346901
 30
0.0
  0
VERTEX
  5
20E
330
206
100
AcDbEntity
  8
Sichtbar (ISO)
100
AcDbVertex
100
AcDb2dVertex
 10
333.999525802288
 20
1128.48865923317
 30
0.0
  0
VERTEX
  5
20F
330
206
100
AcDbEntity
  8
Sichtbar (ISO)
100
AcDbVertex
100
AcDb2dVertex
 10
332.3001067806816
 20
1128.572925895767
 30
0.0
  0
VERTEX
  5
210
330
206
100
AcDbEntity
  8
Sichtbar (ISO)
100
AcDbVertex
100
AcDb2dVertex
 10
330.3941981960869
 20
1128.678383201676
 30
0.0
  0
VERTEX
  5
211
330
206
100
AcDbEntity
  8
Sichtbar (ISO)
100
AcDbVertex
100
AcDb2dVertex
 10
328.3097188641167
 20
1128.806862205582
 30
0.0
  0
VERTEX
  5
212
330
206
100
AcDbEntity
  8
Sichtbar (ISO)
100
AcDbVertex
100
AcDb2dVertex
 10
326.0660712887383
 20
1128.960327476578
 30
0.0
  0
VERTEX
  5
213
330
206
100
AcDbEntity
  8
Sichtbar (ISO)
100
AcDbVertex
100
AcDb2dVertex
 10
323.6877887417412
 20
1129.140362114029
 30
0.0
  0
VERTEX
  5
214
330
206
100
AcDbEntity
  8
Sichtbar (ISO)
100
AcDbVertex
100
AcDb2dVertex
 10
321.2196843792534
 20
1129.345936149674
 30
0.0
  0
VERTEX
  5
215
330
206
100
AcDbEntity
  8
Sichtbar (ISO)
100
AcDbVertex
100
AcDb2dVertex
 10
318.6885230709648
 20
1129.576000541764
 30
0.0
  0
VERTEX
  5
216
330
206
100
AcDbEntity
  8
Sichtbar (ISO)
100
AcDbVertex
100
AcDb2dVertex
 10
316.1186831165886
 20
1129.829639762955
 30
0.0
  0
VERTEX
  5
217
330
206
100
AcDbEntity
  8
Sichtbar (ISO)
100
AcDbVertex
100
AcDb2dVertex
 10
313.5545103718377
 20
1130.103039115982
 30
0.0
  0
VERTEX
  5
218
330
206
100
AcDbEntity
  8
Sichtbar (ISO)
100
AcDbVertex
100
AcDb2dVertex
 10
311.0313885380363
 20
1130.391201347427
 30
0.0
  0
VERTEX
  5
219
330
206
100
AcDbEntity
  8
Sichtbar (ISO)
100
AcDbVertex
100
AcDb2dVertex
 10
308.5731117893792
 20
1130.69002565773
 30
0.0
  0
VERTEX
  5
21A
330
206
100
AcDbEntity
  8
Sichtbar (ISO)
100
AcDbVertex
100
AcDb2dVertex
 10
306.20954682127
 20
1130.994381279068
 30
0.0
  0
VERTEX
  5
21B
330
206
100
AcDbEntity
  8
Sichtbar (ISO)
100
AcDbVertex
100
AcDb2dVertex
 10
303.9807312656975
 20
1131.296409935074
 30
0.0
  0
VERTEX
  5
21C
330
206
100
AcDbEntity
  8
Sichtbar (ISO)
100
AcDbVertex
100
AcDb2dVertex
 10
301.907686488781
 20
1131.590198844986
 30
0.0
  0
VERTEX
  5
21D
330
206
100
AcDbEntity
  8
Sichtbar (ISO)
100
AcDbVertex
100
AcDb2dVertex
 10
300.0104801823235
 20
1131.869930595475
 30
0.0
  0
VERTEX
  5
21E
330
206
100
AcDbEntity
  8
Sichtbar (ISO)
100
AcDbVertex
100
AcDb2dVertex
 10
298.3193962742424
 20
1132.127880424576
 30
0.0
  0
VERTEX
  5
21F
330
206
100
AcDbEntity
  8
Sichtbar (ISO)
100
AcDbVertex
100
AcDb2dVertex
 10
296.8545143772697
 20
1132.357944816666
 30
0.0
  0
VERTEX
  5
220
330
206
100
AcDbEntity
  8
Sichtbar (ISO)
100
AcDbVertex
100
AcDb2dVertex
 10
295.6290786434746
 20
1132.555164665299
 30
0.0
  0
VERTEX
  5
221
330
206
100
AcDbEntity
  8
Sichtbar (ISO)
100
AcDbVertex
100
AcDb2dVertex
 10
294.6581273247338
 20
1132.714294761734
 30
0.0
  0
VERTEX
  5
222
330
206
100
AcDbEntity
  8
Sichtbar (ISO)
100
AcDbVertex
100
AcDb2dVertex
 10
293.9579849411583
 20
1132.830547660904
 30
0.0
  0
VERTEX
  5
223
330
206
100
AcDbEntity
  8
Sichtbar (ISO)
100
AcDbVertex
100
AcDb2dVertex
 10
293.534347312603
 20
1132.901748985367
 30
0.0
  0
VERTEX
  5
224
330
206
100
AcDbEntity
  8
Sichtbar (ISO)
100
AcDbVertex
100
AcDb2dVertex
 10
293.3920579125023
 20
1132.925896019059
 30
0.0
  0
SEQEND
  5
209
330
206
100
AcDbEntity
  8
Sichtbar (ISO)
  0
LINE
  5
225
330
37
100
AcDbEntity
  8
Sichtbar (ISO)
100
AcDbLine
 10
333.0749779892705
 20
1139.413279509661
 30
0.0
 11
296.5692094948223
 21
1139.413279509661
 31
0.0
  0
LINE
  5
226
330
37
100
AcDbEntity
  8
Sichtbar (ISO)
100
AcDbLine
 10
333.0749779892705
 20
1138.428888717786
 30
0.0
 11
338.924583143053
 21
1128.297075387218
 31
0.0
  0
LINE
  5
227
330
37
100
AcDbEntity
  8
Sichtbar (ISO)
100
AcDbLine
 10
296.5692094948223
 20
1138.428888717786
 30
0.0
 11
293.3920584076846
 21
1132.925901611541
 31
0.0
  0
LINE
  5
228
330
37
100
AcDbEntity
  8
Sichtbar (ISO)
100
AcDbLine
 10
296.5692094948223
 20
1138.428888717786
 30
0.0
 11
296.5692094948223
 21
1139.413279509661
 31
0.0
  0
LINE
  5
229
330
37
100
AcDbEntity
  8
Sichtbar (ISO)
100
AcDbLine
 10
333.0749779892705
 20
1138.428888717786
 30
0.0
 11
333.0749779892705
 21
1139.413279509661
 31
0.0
  0
LINE
  5
22A
330
37
100
AcDbEntity
  8
Sichtbar (ISO)
100
AcDbLine
 10
296.5692094948223
 20
768.6651594848822
 30
0.0
 11
333.0749779892705
 21
768.6651594848822
 31
0.0
  0
POLYLINE
  5
22B
330
37
100
AcDbEntity
  8
Sichtbar (ISO)
100
AcDb2dPolyline
 66
     1
 10
0.0
 20
0.0
 30
0.0
 70
   128
  0
VERTEX
  5
22C
330
22B
100
AcDbEntity
  8
Sichtbar (ISO)
100
AcDbVertex
100
AcDb2dVertex
 10
293.3920579125023
 20
774.1681521836095
 30
0.0
  0
VERTEX
  5
22D
330
22B
100
AcDbEntity
  8
Sichtbar (ISO)
100
AcDbVertex
100
AcDb2dVertex
 10
293.5342292954064
 20
774.192299217301
 30
0.0
  0
VERTEX
  5
22F
330
22B
100
AcDbEntity
  8
Sichtbar (ISO)
100
AcDbVertex
100
AcDb2dVertex
 10
293.9577179123497
 20
774.263462394791
 30
0.0
  0
VERTEX
  5
230
330
22B
100
AcDbEntity
  8
Sichtbar (ISO)
100
AcDbVertex
100
AcDb2dVertex
 10
294.6579723526573
 20
774.379715293961
 30
0.0
  0
VERTEX
  5
231
330
22B
100
AcDbEntity
  8
Sichtbar (ISO)
100
AcDbVertex
100
AcDb2dVertex
 10
295.6289999653435
 20
774.5388835373692
 30
0.0
  0
VERTEX
  5
232
330
22B
100
AcDbEntity
  8
Sichtbar (ISO)
100
AcDbVertex
100
AcDb2dVertex
 10
296.8541364838219
 20
774.736046165543
 30
0.0
  0
VERTEX
  5
233
330
22B
100
AcDbEntity
  8
Sichtbar (ISO)
100
AcDbVertex
100
AcDb2dVertex
 10
298.3192126919365
 20
774.9661296311192
 30
0.0
  0
VERTEX
  5
234
330
22B
100
AcDbEntity
  8
Sichtbar (ISO)
100
AcDbVertex
100
AcDb2dVertex
 10
300.0112550427056
 20
775.2242320481114
 30
0.0
  0
VERTEX
  5
235
330
22B
100
AcDbEntity
  8
Sichtbar (ISO)
100
AcDbVertex
100
AcDb2dVertex
 10
301.9078605343437
 20
775.5038684311681
 30
0.0
  0
VERTEX
  5
236
330
22B
100
AcDbEntity
  8
Sichtbar (ISO)
100
AcDbVertex
100
AcDb2dVertex
 10
303.9807670284843
 20
775.7976382675938
 30
0.0
  0
VERTEX
  5
237
330
22B
100
AcDbEntity
  8
Sichtbar (ISO)
100
AcDbVertex
100
AcDb2dVertex
 10
306.2104528118706
 20
776.099800438004
 30
0.0
  0
VERTEX
  5
238
330
22B
100
AcDbEntity
  8
Sichtbar (ISO)
100
AcDbVertex
100
AcDb2dVertex
 10
308.5744564701653
 20
776.4041751328282
 30
0.0
  0
VERTEX
  5
239
330
22B
100
AcDbEntity
  8
Sichtbar (ISO)
100
AcDbVertex
100
AcDb2dVertex
 10
311.031975047741
 20
776.7029040756993
 30
0.0
  0
VERTEX
  5
23A
330
22B
100
AcDbEntity
  8
Sichtbar (ISO)
100
AcDbVertex
100
AcDb2dVertex
 10
313.5558598209953
 20
776.9912188950353
 30
0.0
  0
VERTEX
  5
23B
330
22B
100
AcDbEntity
  8
Sichtbar (ISO)
100
AcDbVertex
100
AcDb2dVertex
 10
316.1223929096794
 20
777.2648089829258
 30
0.0
  0
VERTEX
  5
23C
330
22B
100
AcDbEntity
  8
Sichtbar (ISO)
100
AcDbVertex
100
AcDb2dVertex
 10
318.6901133228874
 20
777.5181430283361
 30
0.0
  0
VERTEX
  5
23D
330
22B
100
AcDbEntity
  8
Sichtbar (ISO)
100
AcDbVertex
100
AcDb2dVertex
 10
321.220623748455
 20
777.7482074204258
 30
0.0
  0
VERTEX
  5
23E
330
22B
100
AcDbEntity
  8
Sichtbar (ISO)
100
AcDbVertex
100
AcDb2dVertex
 10
323.6898200680351
 20
777.9538768235021
 30
0.0
  0
VERTEX
  5
23F
330
22B
100
AcDbEntity
  8
Sichtbar (ISO)
100
AcDbVertex
100
AcDb2dVertex
 10
326.068002479229
 20
778.1338542404942
 30
0.0
  0
VERTEX
  5
240
330
22B
100
AcDbEntity
  8
Sichtbar (ISO)
100
AcDbVertex
100
AcDb2dVertex
 10
328.3105819393731
 20
778.287243217545
 30
0.0
  0
VERTEX
  5
241
330
22B
100
AcDbEntity
  8
Sichtbar (ISO)
100
AcDbVertex
100
AcDb2dVertex
 10
330.3953759838676
 20
778.4157412949377
 30
0.0
  0
VERTEX
  5
242
330
22B
100
AcDbEntity
  8
Sichtbar (ISO)
100
AcDbVertex
100
AcDb2dVertex
 10
332.3024623562431
 20
778.5212367478184
 30
0.0
  0
VERTEX
  5
243
330
22B
100
AcDbEntity
  8
Sichtbar (ISO)
100
AcDbVertex
100
AcDb2dVertex
 10
334.000565307293
 20
778.6054461899571
 30
0.0
  0
VERTEX
  5
244
330
22B
100
AcDbEntity
  8
Sichtbar (ISO)
100
AcDbVertex
100
AcDb2dVertex
 10
335.4685037304497
 20
778.6707538071447
 30
0.0
  0
VERTEX
  5
245
330
22B
100
AcDbEntity
  8
Sichtbar (ISO)
100
AcDbVertex
100
AcDb2dVertex
 10
336.6940229107476
 20
778.7198680344396
 30
0.0
  0
VERTEX
  5
246
330
22B
100
AcDbEntity
  8
Sichtbar (ISO)
100
AcDbVertex
100
AcDb2dVertex
 10
337.6632993389702
 20
778.7554400864416
 30
0.0
  0
VERTEX
  5
247
330
22B
100
AcDbEntity
  8
Sichtbar (ISO)
100
AcDbVertex
100
AcDb2dVertex
 10
338.3612983395195
 20
778.7793200913243
 30
0.0
  0
VERTEX
  5
248
330
22B
100
AcDbEntity
  8
Sichtbar (ISO)
100
AcDbVertex
100
AcDb2dVertex
 10
338.7830846478081
 20
778.7927668991856
 30
0.0
  0
VERTEX
  5
249
330
22B
100
AcDbEntity
  8
Sichtbar (ISO)
100
AcDbVertex
100
AcDb2dVertex
 10
338.9245813061333
 20
778.7969821396641
 30
0.0
  0
SEQEND
  5
22E
330
22B
100
AcDbEntity
  8
Sichtbar (ISO)
  0
LINE
  5
24A
330
37
100
AcDbEntity
  8
Sichtbar (ISO)
100
AcDbLine
 10
296.5692094948223
 20
767.6807686930064
 30
0.0
 11
333.0749779892705
 21
767.6807686930064
 31
0.0
  0
LINE
  5
24B
330
37
100
AcDbEntity
  8
Sichtbar (ISO)
100
AcDbLine
 10
296.5692094948223
 20
768.6651594848822
 30
0.0
 11
293.3920584076846
 21
774.1681465911274
 31
0.0
  0
LINE
  5
24C
330
37
100
AcDbEntity
  8
Sichtbar (ISO)
100
AcDbLine
 10
333.0749779892705
 20
768.6651594848822
 30
0.0
 11
338.9245831430529
 21
778.7969728154502
 31
0.0
  0
LINE
  5
24D
330
37
100
AcDbEntity
  8
Sichtbar (ISO)
100
AcDbLine
 10
333.0749779892705
 20
768.6651594848822
 30
0.0
 11
333.0749779892705
 21
767.6807686930064
 31
0.0
  0
LINE
  5
24E
330
37
100
AcDbEntity
  8
Sichtbar (ISO)
100
AcDbLine
 10
296.5692094948223
 20
768.6651594848822
 30
0.0
 11
296.5692094948223
 21
767.6807686930064
 31
0.0
  0
LINE
  5
24F
330
37
100
AcDbEntity
  8
Sichtbar (ISO)
100
AcDbLine
 10
380.7169830233208
 20
808.4633738841116
 30
0.0
 11
380.7169830233208
 21
1098.630674318556
 31
0.0
  0
LINE
  5
250
330
37
100
AcDbEntity
  8
Sichtbar (ISO)
100
AcDbLine
 10
276.8220937420464
 20
771.9470241013341
 30
0.0
 11
276.8220937420464
 21
1135.147024101334
 31
0.0
  0
LINE
  5
251
330
37
100
AcDbEntity
  8
Sichtbar (ISO)
100
AcDbLine
 10
284.8220937420464
 20
771.9470241013341
 30
0.0
 11
284.8220937420464
 21
1135.147024101334
 31
0.0
  0
LINE
  5
252
330
37
100
AcDbEntity
  8
Sichtbar (ISO)
100
AcDbLine
 10
341.259731658301
 20
779.1935149008467
 30
0.0
 11
341.259731658301
 21
1127.900533301821
 31
0.0
  0
ARC
  5
253
330
37
100
AcDbEntity
  8
Sichtbar (ISO)
100
AcDbCircle
 10
-254.9360154276002
 20
953.547024101334
 30
0.0
 40
652.0
100
AcDbArc
 50
347.1428570276888
 51
354.9295070209515
  0
ARC
  5
254
330
37
100
AcDbEntity
  8
Sichtbar (ISO)
100
AcDbCircle
 10
-254.9360154276002
 20
953.547024101334
 30
0.0
 40
652.0
100
AcDbArc
 50
10.06582391292518
 51
12.85714297231129
  0
ARC
  5
255
330
37
100
AcDbEntity
  8
Sichtbar (ISO)
100
AcDbCircle
 10
-254.9360154276002
 20
953.547024101334
 30
0.0
 40
652.0
100
AcDbArc
 50
5.070492979048398
 51
8.391234479077619
  0
ARC
  5
256
330
37
100
AcDbEntity
  8
Sichtbar (ISO)
100
AcDbCircle
 10
366.6220937420524
 20
898.3970746412145
 30
0.0
 40
27.99999999999391
100
AcDbArc
 50
354.9295070209516
 51
0.0
  0
ARC
  5
257
330
37
100
AcDbEntity
  8
Sichtbar (ISO)
100
AcDbCircle
 10
366.6220937420524
 20
1008.696973561453
 30
0.0
 40
27.99999999999391
100
AcDbArc
 50
0.0
 51
5.070492979048398
  0
LINE
  5
258
330
37
100
AcDbEntity
  8
Sichtbar (ISO)
100
AcDbLine
 10
394.6220937420464
 20
898.3970746412145
 30
0.0
 11
394.6220937420464
 21
1008.696973561453
 31
0.0
  0
LINE
  5
259
330
37
100
AcDbEntity
  8
Sichtbar (ISO)
100
AcDbLine
 10
276.8220937420464
 20
1135.147024101334
 30
0.0
 11
284.8220937420464
 21
1135.147024101334
 31
0.0
  0
LINE
  5
25A
330
37
100
AcDbEntity
  8
Sichtbar (ISO)
100
AcDbLine
 10
276.8220937420464
 20
771.9470241013341
 30
0.0
 11
284.8220937420464
 21
771.9470241013341
 31
0.0
  0
ARC
  5
25B
330
37
100
AcDbEntity
  8
Sichtbar (ISO)
100
AcDbCircle
 10
279.8220937420464
 20
773.1817479982077
 30
0.0
 40
360.0
100
AcDbArc
 50
87.83976127230438
 51
89.20419969799857
  0
ARC
  5
25C
330
37
100
AcDbEntity
  8
Sichtbar (ISO)
100
AcDbCircle
 10
279.8220937420464
 20
773.1817479982077
 30
0.0
 40
360.0
100
AcDbArc
 50
80.17379881807974
 51
80.55077047785765
  0
ARC
  5
25D
330
37
100
AcDbEntity
  8
Sichtbar (ISO)
100
AcDbCircle
 10
279.8220937420464
 20
1133.91230020446
 30
0.0
 40
360.0
100
AcDbArc
 50
279.4492295221424
 51
279.8262011819204
  0
ARC
  5
25E
330
37
100
AcDbEntity
  8
Sichtbar (ISO)
100
AcDbCircle
 10
279.8220937420464
 20
1133.91230020446
 30
0.0
 40
360.0
100
AcDbArc
 50
270.7958003020014
 51
272.1602387276956
  0
ARC
  5
25F
330
37
100
AcDbEntity
  8
Sichtbar (ISO)
100
AcDbCircle
 10
333.682253361317
 20
830.6384546195278
 30
0.0
 40
52.0
100
AcDbArc
 50
278.3790176620017
 51
334.7579106646938
  0
ARC
  5
260
330
37
100
AcDbEntity
  8
Sichtbar (ISO)
100
AcDbCircle
 10
333.682253361317
 20
1076.45559358314
 30
0.0
 40
52.00000000000001
100
AcDbArc
 50
25.24208933530621
 51
81.62098233799836
  0
ARC
  5
261
330
37
100
AcDbEntity
  8
Sichtbar (ISO)
100
AcDbCircle
 10
196.02209374359
 20
898.5166220918864
 30
0.0
 40
28.0
100
AcDbArc
 50
180.0
 51
185.0566706522035
  0
ARC
  5
262
330
37
100
AcDbEntity
  8
Sichtbar (ISO)
100
AcDbCircle
 10
196.0220937435897
 20
1008.577426110782
 30
0.0
 40
28.00000000000001
100
AcDbArc
 50
174.9433293477956
 51
180.0
  0
LINE
  5
263
330
37
100
AcDbEntity
  8
Sichtbar (ISO)
100
AcDbLine
 10
168.0220937435896
 20
1008.577426110782
 30
0.0
 11
168.02209374359
 21
898.5166220918864
 31
0.0
  0
ARC
  5
264
330
37
100
AcDbEntity
  8
Sichtbar (ISO)
100
AcDbCircle
 10
817.5934894818418
 20
953.5166220918862
 30
0.0
 40
651.9999999999986
100
AcDbArc
 50
185.0566706522037
 51
191.8926013736528
  0
ARC
  5
265
330
37
100
AcDbEntity
  8
Sichtbar (ISO)
100
AcDbCircle
 10
817.5934894818418
 20
953.5774261107818
 30
0.0
 40
651.9999999999992
100
AcDbArc
 50
168.1073986263467
 51
174.9433293477958
  0
ARC
  5
266
330
37
100
AcDbEntity
  8
Sichtbar (ISO)
100
AcDbCircle
 10
230.4721269795984
 20
829.8699250332608
 30
0.0
 40
51.99999999999995
100
AcDbArc
 50
191.8926013736531
 51
260.8399162249302
  0
ARC
  5
267
330
37
100
AcDbEntity
  8
Sichtbar (ISO)
100
AcDbCircle
 10
230.4721269795976
 20
1077.224123169407
 30
0.0
 40
51.99999999999997
100
AcDbArc
 50
99.16008377507022
 51
168.1073986263467
  0
ARC
  5
268
330
37
100
AcDbEntity
  8
Sichtbar (ISO)
100
AcDbCircle
 10
279.8220937425627
 20
771.177426110783
 30
0.0
 40
361.9999999999993
100
AcDbArc
 50
90.77555638722438
 51
99.16008377507065
  0
ARC
  5
269
330
37
100
AcDbEntity
  8
Sichtbar (ISO)
100
AcDbCircle
 10
279.8220937425616
 20
1135.916622091885
 30
0.0
 40
361.9999999999996
100
AcDbArc
 50
260.8399162249302
 51
269.2244436127765
  0
LINE
  5
26A
330
37
100
AcDbEntity
  8
Sichtbar (ISO)
100
AcDbLine
 10
326.3962121977006
 20
1167.631233520399
 30
0.0
 11
303.2479752863923
 21
1167.631233520399
 31
0.0
  0
LINE
  5
26B
330
37
100
AcDbEntity
  8
Sichtbar (ISO)
100
AcDbLine
 10
301.9346098243652
 20
1166.947538735535
 30
0.0
 11
327.7095776597276
 21
1166.947538735535
 31
0.0
  0
LINE
  5
26C
330
37
100
AcDbEntity
  8
Sichtbar (ISO)
100
AcDbLine
 10
303.2059283698178
 20
1166.285732190017
 30
0.0
 11
326.438259114275
 21
1166.285732190017
 31
0.0
  0
LINE
  5
26D
330
37
100
AcDbEntity
  8
Sichtbar (ISO)
100
AcDbLine
 10
301.8925629077908
 20
1165.602037405153
 30
0.0
 11
327.751624576302
 21
1165.602037405153
 31
0.0
  0
LINE
  5
26E
330
37
100
AcDbEntity
  8
Sichtbar (ISO)
100
AcDbLine
 10
303.1638814532434
 20
1164.940230859635
 30
0.0
 11
326.4803060308494
 21
1164.940230859635
 31
0.0
  0
LINE
  5
26F
330
37
100
AcDbEntity
  8
Sichtbar (ISO)
100
AcDbLine
 10
301.8505159912164
 20
1164.256536074771
 30
0.0
 11
327.7936714928765
 21
1164.256536074771
 31
0.0
  0
LINE
  5
270
330
37
100
AcDbEntity
  8
Sichtbar (ISO)
100
AcDbLine
 10
303.1218345366689
 20
1163.594729529253
 30
0.0
 11
326.5223529474239
 21
1163.594729529253
 31
0.0
  0
LINE
  5
271
330
37
100
AcDbEntity
  8
Sichtbar (ISO)
100
AcDbLine
 10
301.808469074642
 20
1162.911034744389
 30
0.0
 11
327.8357184094509
 21
1162.911034744389
 31
0.0
  0
LINE
  5
272
330
37
100
AcDbEntity
  8
Sichtbar (ISO)
100
AcDbLine
 10
303.0797876200945
 20
1162.249228198871
 30
0.0
 11
326.5643998639983
 21
1162.249228198871
 31
0.0
  0
LINE
  5
273
330
37
100
AcDbEntity
  8
Sichtbar (ISO)
100
AcDbLine
 10
301.7664221580675
 20
1161.565533414007
 30
0.0
 11
327.8777653260253
 21
1161.565533414007
 31
0.0
  0
LINE
  5
274
330
37
100
AcDbEntity
  8
Sichtbar (ISO)
100
AcDbLine
 10
303.0377407035201
 20
1160.903726868489
 30
0.0
 11
326.6064467805728
 21
1160.903726868489
 31
0.0
  0
LINE
  5
275
330
37
100
AcDbEntity
  8
Sichtbar (ISO)
100
AcDbLine
 10
301.7243752414931
 20
1160.220032083625
 30
0.0
 11
327.9198122425997
 21
1160.220032083625
 31
0.0
  0
LINE
  5
276
330
37
100
AcDbEntity
  8
Sichtbar (ISO)
100
AcDbLine
 10
302.9956937869457
 20
1159.558225538108
 30
0.0
 11
326.6484936971472
 21
1159.558225538108
 31
0.0
  0
LINE
  5
277
330
37
100
AcDbEntity
  8
Sichtbar (ISO)
100
AcDbLine
 10
301.6823283249186
 20
1158.874530753243
 30
0.0
 11
327.9618591591742
 21
1158.874530753243
 31
0.0
  0
LINE
  5
278
330
37
100
AcDbEntity
  8
Sichtbar (ISO)
100
AcDbLine
 10
302.9536468703712
 20
1158.212724207726
 30
0.0
 11
326.6905406137216
 21
1158.212724207726
 31
0.0
  0
LINE
  5
279
330
37
100
AcDbEntity
  8
Sichtbar (ISO)
100
AcDbLine
 10
301.6402814083442
 20
1157.529029422861
 30
0.0
 11
328.0039060757486
 21
1157.529029422861
 31
0.0
  0
LINE
  5
27A
330
37
100
AcDbEntity
  8
Sichtbar (ISO)
100
AcDbLine
 10
302.9115999537968
 20
1156.867222877344
 30
0.0
 11
326.732587530296
 21
1156.867222877344
 31
0.0
  0
LINE
  5
27B
330
37
100
AcDbEntity
  8
Sichtbar (ISO)
100
AcDbLine
 10
301.5982344917698
 20
1156.18352809248
 30
0.0
 11
328.0459529923231
 21
1156.18352809248
 31
0.0
  0
LINE
  5
27C
330
37
100
AcDbEntity
  8
Sichtbar (ISO)
100
AcDbLine
 10
302.8695530372223
 20
1155.521721546962
 30
0.0
 11
326.7746344468705
 21
1155.521721546962
 31
0.0
  0
LINE
  5
27D
330
37
100
AcDbEntity
  8
Sichtbar (ISO)
100
AcDbLine
 10
301.5561875751954
 20
1154.838026762098
 30
0.0
 11
328.0879999088975
 21
1154.838026762098
 31
0.0
  0
LINE
  5
27E
330
37
100
AcDbEntity
  8
Sichtbar (ISO)
100
AcDbLine
 10
326.8166813634449
 20
1154.17622021658
 30
0.0
 11
302.8275061206479
 21
1154.17622021658
 31
0.0
  0
LINE
  5
27F
330
37
100
AcDbEntity
  8
Sichtbar (ISO)
100
AcDbLine
 10
301.5141406586209
 20
1153.492525431716
 30
0.0
 11
328.1300468254719
 21
1153.492525431716
 31
0.0
  0
LINE
  5
280
330
37
100
AcDbEntity
  8
Sichtbar (ISO)
100
AcDbLine
 10
328.1720937420463
 20
1152.147024101334
 30
0.0
 11
301.4720937420465
 21
1152.147024101334
 31
0.0
  0
LINE
  5
281
330
37
100
AcDbEntity
  8
Sichtbar (ISO)
100
AcDbLine
 10
326.8587282800194
 20
1152.830718886198
 30
0.0
 11
302.7854592040735
 21
1152.830718886198
 31
0.0
  0
LINE
  5
282
330
37
100
AcDbEntity
  8
Sichtbar (ISO)
100
AcDbLine
 10
326.9219087755374
 20
1167.904893837409
 30
0.0
 11
302.7222787085555
 21
1167.904893837409
 31
0.0
  0
LINE
  5
283
330
37
100
AcDbEntity
  8
Sichtbar (ISO)
100
AcDbLine
 10
326.3962121977006
 20
1167.631233520399
 30
0.0
 11
327.7095776597275
 21
1166.947538735535
 31
0.0
  0
LINE
  5
284
330
37
100
AcDbEntity
  8
Sichtbar (ISO)
100
AcDbLine
 10
303.2479752863923
 20
1167.631233520399
 30
0.0
 11
301.9346098243653
 21
1166.947538735535
 31
0.0
  0
LINE
  5
285
330
37
100
AcDbEntity
  8
Sichtbar (ISO)
100
AcDbLine
 10
303.2059283698178
 20
1166.285732190017
 30
0.0
 11
301.9346098243652
 21
1166.947538735535
 31
0.0
  0
LINE
  5
286
330
37
100
AcDbEntity
  8
Sichtbar (ISO)
100
AcDbLine
 10
326.438259114275
 20
1166.285732190017
 30
0.0
 11
327.7095776597276
 21
1166.947538735535
 31
0.0
  0
LINE
  5
287
330
37
100
AcDbEntity
  8
Sichtbar (ISO)
100
AcDbLine
 10
326.438259114275
 20
1166.285732190017
 30
0.0
 11
327.751624576302
 21
1165.602037405153
 31
0.0
  0
LINE
  5
288
330
37
100
AcDbEntity
  8
Sichtbar (ISO)
100
AcDbLine
 10
303.2059283698178
 20
1166.285732190017
 30
0.0
 11
301.8925629077908
 21
1165.602037405153
 31
0.0
  0
LINE
  5
289
330
37
100
AcDbEntity
  8
Sichtbar (ISO)
100
AcDbLine
 10
303.1638814532434
 20
1164.940230859635
 30
0.0
 11
301.8925629077908
 21
1165.602037405153
 31
0.0
  0
LINE
  5
28A
330
37
100
AcDbEntity
  8
Sichtbar (ISO)
100
AcDbLine
 10
326.4803060308494
 20
1164.940230859635
 30
0.0
 11
327.751624576302
 21
1165.602037405153
 31
0.0
  0
LINE
  5
28B
330
37
100
AcDbEntity
  8
Sichtbar (ISO)
100
AcDbLine
 10
326.4803060308494
 20
1164.940230859635
 30
0.0
 11
327.7936714928765
 21
1164.256536074771
 31
0.0
  0
LINE
  5
28C
330
37
100
AcDbEntity
  8
Sichtbar (ISO)
100
AcDbLine
 10
303.1638814532434
 20
1164.940230859635
 30
0.0
 11
301.8505159912164
 21
1164.256536074771
 31
0.0
  0
LINE
  5
28D
330
37
100
AcDbEntity
  8
Sichtbar (ISO)
100
AcDbLine
 10
303.1218345366689
 20
1163.594729529253
 30
0.0
 11
301.8505159912164
 21
1164.256536074771
 31
0.0
  0
LINE
  5
28E
330
37
100
AcDbEntity
  8
Sichtbar (ISO)
100
AcDbLine
 10
326.5223529474239
 20
1163.594729529253
 30
0.0
 11
327.7936714928765
 21
1164.256536074771
 31
0.0
  0
LINE
  5
28F
330
37
100
AcDbEntity
  8
Sichtbar (ISO)
100
AcDbLine
 10
326.5223529474239
 20
1163.594729529253
 30
0.0
 11
327.8357184094509
 21
1162.911034744389
 31
0.0
  0
LINE
  5
290
330
37
100
AcDbEntity
  8
Sichtbar (ISO)
100
AcDbLine
 10
303.1218345366689
 20
1163.594729529253
 30
0.0
 11
301.808469074642
 21
1162.911034744389
 31
0.0
  0
LINE
  5
291
330
37
100
AcDbEntity
  8
Sichtbar (ISO)
100
AcDbLine
 10
303.0797876200945
 20
1162.249228198871
 30
0.0
 11
301.808469074642
 21
1162.911034744389
 31
0.0
  0
LINE
  5
292
330
37
100
AcDbEntity
  8
Sichtbar (ISO)
100
AcDbLine
 10
326.5643998639983
 20
1162.249228198871
 30
0.0
 11
327.8357184094509
 21
1162.911034744389
 31
0.0
  0
LINE
  5
293
330
37
100
AcDbEntity
  8
Sichtbar (ISO)
100
AcDbLine
 10
326.5643998639983
 20
1162.249228198871
 30
0.0
 11
327.8777653260253
 21
1161.565533414007
 31
0.0
  0
LINE
  5
294
330
37
100
AcDbEntity
  8
Sichtbar (ISO)
100
AcDbLine
 10
303.0797876200945
 20
1162.249228198871
 30
0.0
 11
301.7664221580675
 21
1161.565533414007
 31
0.0
  0
LINE
  5
295
330
37
100
AcDbEntity
  8
Sichtbar (ISO)
100
AcDbLine
 10
303.0377407035201
 20
1160.903726868489
 30
0.0
 11
301.7664221580675
 21
1161.565533414007
 31
0.0
  0
LINE
  5
296
330
37
100
AcDbEntity
  8
Sichtbar (ISO)
100
AcDbLine
 10
326.6064467805728
 20
1160.903726868489
 30
0.0
 11
327.8777653260253
 21
1161.565533414007
 31
0.0
  0
LINE
  5
297
330
37
100
AcDbEntity
  8
Sichtbar (ISO)
100
AcDbLine
 10
326.6064467805728
 20
1160.903726868489
 30
0.0
 11
327.9198122425997
 21
1160.220032083625
 31
0.0
  0
LINE
  5
298
330
37
100
AcDbEntity
  8
Sichtbar (ISO)
100
AcDbLine
 10
303.0377407035201
 20
1160.903726868489
 30
0.0
 11
301.7243752414931
 21
1160.220032083625
 31
0.0
  0
LINE
  5
299
330
37
100
AcDbEntity
  8
Sichtbar (ISO)
100
AcDbLine
 10
302.9956937869457
 20
1159.558225538108
 30
0.0
 11
301.7243752414931
 21
1160.220032083625
 31
0.0
  0
LINE
  5
29A
330
37
100
AcDbEntity
  8
Sichtbar (ISO)
100
AcDbLine
 10
326.6484936971472
 20
1159.558225538108
 30
0.0
 11
327.9198122425997
 21
1160.220032083625
 31
0.0
  0
LINE
  5
29B
330
37
100
AcDbEntity
  8
Sichtbar (ISO)
100
AcDbLine
 10
326.6484936971472
 20
1159.558225538108
 30
0.0
 11
327.9618591591742
 21
1158.874530753243
 31
0.0
  0
LINE
  5
29C
330
37
100
AcDbEntity
  8
Sichtbar (ISO)
100
AcDbLine
 10
302.9956937869457
 20
1159.558225538108
 30
0.0
 11
301.6823283249187
 21
1158.874530753243
 31
0.0
  0
LINE
  5
29D
330
37
100
AcDbEntity
  8
Sichtbar (ISO)
100
AcDbLine
 10
302.9536468703712
 20
1158.212724207726
 30
0.0
 11
301.6823283249186
 21
1158.874530753243
 31
0.0
  0
LINE
  5
29E
330
37
100
AcDbEntity
  8
Sichtbar (ISO)
100
AcDbLine
 10
326.6905406137216
 20
1158.212724207726
 30
0.0
 11
327.9618591591742
 21
1158.874530753243
 31
0.0
  0
LINE
  5
29F
330
37
100
AcDbEntity
  8
Sichtbar (ISO)
100
AcDbLine
 10
326.6905406137216
 20
1158.212724207726
 30
0.0
 11
328.0039060757486
 21
1157.529029422862
 31
0.0
  0
LINE
  5
2A0
330
37
100
AcDbEntity
  8
Sichtbar (ISO)
100
AcDbLine
 10
302.9536468703712
 20
1158.212724207726
 30
0.0
 11
301.6402814083442
 21
1157.529029422862
 31
0.0
  0
LINE
  5
2A1
330
37
100
AcDbEntity
  8
Sichtbar (ISO)
100
AcDbLine
 10
302.9115999537968
 20
1156.867222877344
 30
0.0
 11
301.6402814083442
 21
1157.529029422862
 31
0.0
  0
LINE
  5
2A2
330
37
100
AcDbEntity
  8
Sichtbar (ISO)
100
AcDbLine
 10
326.732587530296
 20
1156.867222877344
 30
0.0
 11
328.0039060757486
 21
1157.529029422862
 31
0.0
  0
LINE
  5
2A3
330
37
100
AcDbEntity
  8
Sichtbar (ISO)
100
AcDbLine
 10
326.7325875302961
 20
1156.867222877344
 30
0.0
 11
328.0459529923231
 21
1156.18352809248
 31
0.0
  0
LINE
  5
2A4
330
37
100
AcDbEntity
  8
Sichtbar (ISO)
100
AcDbLine
 10
302.9115999537967
 20
1156.867222877344
 30
0.0
 11
301.5982344917698
 21
1156.18352809248
 31
0.0
  0
LINE
  5
2A5
330
37
100
AcDbEntity
  8
Sichtbar (ISO)
100
AcDbLine
 10
302.8695530372223
 20
1155.521721546962
 30
0.0
 11
301.5982344917698
 21
1156.18352809248
 31
0.0
  0
LINE
  5
2A6
330
37
100
AcDbEntity
  8
Sichtbar (ISO)
100
AcDbLine
 10
326.7746344468705
 20
1155.521721546962
 30
0.0
 11
328.0459529923231
 21
1156.18352809248
 31
0.0
  0
LINE
  5
2A7
330
37
100
AcDbEntity
  8
Sichtbar (ISO)
100
AcDbLine
 10
326.7746344468705
 20
1155.521721546962
 30
0.0
 11
328.0879999088975
 21
1154.838026762098
 31
0.0
  0
LINE
  5
2A8
330
37
100
AcDbEntity
  8
Sichtbar (ISO)
100
AcDbLine
 10
302.8695530372223
 20
1155.521721546962
 30
0.0
 11
301.5561875751954
 21
1154.838026762098
 31
0.0
  0
LINE
  5
2A9
330
37
100
AcDbEntity
  8
Sichtbar (ISO)
100
AcDbLine
 10
302.8275061206479
 20
1154.17622021658
 30
0.0
 11
301.5561875751954
 21
1154.838026762098
 31
0.0
  0
LINE
  5
2AA
330
37
100
AcDbEntity
  8
Sichtbar (ISO)
100
AcDbLine
 10
326.8166813634449
 20
1154.17622021658
 30
0.0
 11
328.0879999088975
 21
1154.838026762098
 31
0.0
  0
LINE
  5
2AB
330
37
100
AcDbEntity
  8
Sichtbar (ISO)
100
AcDbLine
 10
326.8166813634449
 20
1154.17622021658
 30
0.0
 11
328.1300468254719
 21
1153.492525431716
 31
0.0
  0
LINE
  5
2AC
330
37
100
AcDbEntity
  8
Sichtbar (ISO)
100
AcDbLine
 10
302.8275061206479
 20
1154.17622021658
 30
0.0
 11
301.5141406586209
 21
1153.492525431716
 31
0.0
  0
LINE
  5
2AD
330
37
100
AcDbEntity
  8
Sichtbar (ISO)
100
AcDbLine
 10
326.8587282800194
 20
1152.830718886198
 30
0.0
 11
328.1720937420464
 21
1152.147024101334
 31
0.0
  0
LINE
  5
2AE
330
37
100
AcDbEntity
  8
Sichtbar (ISO)
100
AcDbLine
 10
302.7854592040735
 20
1152.830718886198
 30
0.0
 11
301.4720937420465
 21
1152.147024101334
 31
0.0
  0
LINE
  5
2AF
330
37
100
AcDbEntity
  8
Sichtbar (ISO)
100
AcDbLine
 10
302.7854592040735
 20
1152.830718886198
 30
0.0
 11
301.5141406586209
 21
1153.492525431716
 31
0.0
  0
LINE
  5
2B0
330
37
100
AcDbEntity
  8
Sichtbar (ISO)
100
AcDbLine
 10
326.8587282800194
 20
1152.830718886198
 30
0.0
 11
328.1300468254719
 21
1153.492525431716
 31
0.0
  0
LINE
  5
2B1
330
37
100
AcDbEntity
  8
Sichtbar (ISO)
100
AcDbLine
 10
303.2479752863923
 20
1167.631233520399
 30
0.0
 11
302.7222787085555
 21
1167.904893837409
 31
0.0
  0
LINE
  5
2B2
330
37
100
AcDbEntity
  8
Sichtbar (ISO)
100
AcDbLine
 10
326.3962121977006
 20
1167.631233520399
 30
0.0
 11
326.9219087755374
 21
1167.904893837409
 31
0.0
  0
LINE
  5
2B3
330
37
100
AcDbEntity
  8
Sichtbar (ISO)
100
AcDbLine
 10
302.9720937420464
 20
1168.147024101334
 30
0.0
 11
326.6720937420464
 21
1168.147024101334
 31
0.0
  0
LINE
  5
2B4
330
37
100
AcDbEntity
  8
Sichtbar (ISO)
100
AcDbLine
 10
326.6720937420464
 20
1168.147024101334
 30
0.0
 11
326.9219087755374
 21
1167.904893837409
 31
0.0
  0
LINE
  5
2B5
330
37
100
AcDbEntity
  8
Sichtbar (ISO)
100
AcDbLine
 10
302.9720937420464
 20
1168.147024101334
 30
0.0
 11
302.7222787085555
 21
1167.904893837409
 31
0.0
  0
LINE
  5
2B6
330
37
100
AcDbEntity
  8
Sichtbar (ISO)
100
AcDbLine
 10
301.4720937420465
 20
1143.412494303398
 30
0.0
 11
301.4720937420465
 21
1152.147024101334
 31
0.0
  0
LINE
  5
2B7
330
37
100
AcDbEntity
  8
Sichtbar (ISO)
100
AcDbLine
 10
328.1720937420463
 20
1143.412494303398
 30
0.0
 11
328.1720937420463
 21
1152.147024101334
 31
0.0
  0
LINE
  5
2B8
330
37
100
AcDbEntity
  8
Sichtbar (ISO)
100
AcDbLine
 10
303.2479752863922
 20
739.4628146822691
 30
0.0
 11
326.3962121977006
 21
739.4628146822691
 31
0.0
  0
LINE
  5
2B9
330
37
100
AcDbEntity
  8
Sichtbar (ISO)
100
AcDbLine
 10
327.7095776597276
 20
740.146509467133
 30
0.0
 11
301.9346098243652
 21
740.146509467133
 31
0.0
  0
LINE
  5
2BA
330
37
100
AcDbEntity
  8
Sichtbar (ISO)
100
AcDbLine
 10
326.4382591142751
 20
740.808316012651
 30
0.0
 11
303.2059283698178
 21
740.808316012651
 31
0.0
  0
LINE
  5
2BB
330
37
100
AcDbEntity
  8
Sichtbar (ISO)
100
AcDbLine
 10
327.751624576302
 20
741.492010797515
 30
0.0
 11
301.8925629077908
 21
741.492010797515
 31
0.0
  0
LINE
  5
2BC
330
37
100
AcDbEntity
  8
Sichtbar (ISO)
100
AcDbLine
 10
326.4803060308495
 20
742.1538173430329
 30
0.0
 11
303.1638814532434
 21
742.1538173430329
 31
0.0
  0
LINE
  5
2BD
330
37
100
AcDbEntity
  8
Sichtbar (ISO)
100
AcDbLine
 10
327.7936714928765
 20
742.8375121278969
 30
0.0
 11
301.8505159912164
 21
742.8375121278969
 31
0.0
  0
LINE
  5
2BE
330
37
100
AcDbEntity
  8
Sichtbar (ISO)
100
AcDbLine
 10
326.5223529474239
 20
743.4993186734149
 30
0.0
 11
303.1218345366689
 21
743.4993186734149
 31
0.0
  0
LINE
  5
2BF
330
37
100
AcDbEntity
  8
Sichtbar (ISO)
100
AcDbLine
 10
327.8357184094509
 20
744.1830134582787
 30
0.0
 11
301.8084690746419
 21
744.1830134582787
 31
0.0
  0
LINE
  5
2C0
330
37
100
AcDbEntity
  8
Sichtbar (ISO)
100
AcDbLine
 10
326.5643998639983
 20
744.8448200037967
 30
0.0
 11
303.0797876200945
 21
744.8448200037967
 31
0.0
  0
LINE
  5
2C1
330
37
100
AcDbEntity
  8
Sichtbar (ISO)
100
AcDbLine
 10
327.8777653260253
 20
745.5285147886606
 30
0.0
 11
301.7664221580675
 21
745.5285147886606
 31
0.0
  0
LINE
  5
2C2
330
37
100
AcDbEntity
  8
Sichtbar (ISO)
100
AcDbLine
 10
326.6064467805728
 20
746.1903213341786
 30
0.0
 11
303.0377407035201
 21
746.1903213341786
 31
0.0
  0
LINE
  5
2C3
330
37
100
AcDbEntity
  8
Sichtbar (ISO)
100
AcDbLine
 10
327.9198122425998
 20
746.8740161190425
 30
0.0
 11
301.724375241493
 21
746.8740161190425
 31
0.0
  0
LINE
  5
2C4
330
37
100
AcDbEntity
  8
Sichtbar (ISO)
100
AcDbLine
 10
326.6484936971472
 20
747.5358226645605
 30
0.0
 11
302.9956937869456
 21
747.5358226645605
 31
0.0
  0
LINE
  5
2C5
330
37
100
AcDbEntity
  8
Sichtbar (ISO)
100
AcDbLine
 10
327.9618591591742
 20
748.2195174494245
 30
0.0
 11
301.6823283249186
 21
748.2195174494245
 31
0.0
  0
LINE
  5
2C6
330
37
100
AcDbEntity
  8
Sichtbar (ISO)
100
AcDbLine
 10
326.6905406137217
 20
748.8813239949425
 30
0.0
 11
302.9536468703712
 21
748.8813239949425
 31
0.0
  0
LINE
  5
2C7
330
37
100
AcDbEntity
  8
Sichtbar (ISO)
100
AcDbLine
 10
328.0039060757486
 20
749.5650187798063
 30
0.0
 11
301.6402814083442
 21
749.5650187798063
 31
0.0
  0
LINE
  5
2C8
330
37
100
AcDbEntity
  8
Sichtbar (ISO)
100
AcDbLine
 10
326.7325875302961
 20
750.2268253253243
 30
0.0
 11
302.9115999537967
 21
750.2268253253243
 31
0.0
  0
LINE
  5
2C9
330
37
100
AcDbEntity
  8
Sichtbar (ISO)
100
AcDbLine
 10
328.0459529923231
 20
750.9105201101882
 30
0.0
 11
301.5982344917698
 21
750.9105201101882
 31
0.0
  0
LINE
  5
2CA
330
37
100
AcDbEntity
  8
Sichtbar (ISO)
100
AcDbLine
 10
326.7746344468705
 20
751.5723266557062
 30
0.0
 11
302.8695530372223
 21
751.5723266557062
 31
0.0
  0
LINE
  5
2CB
330
37
100
AcDbEntity
  8
Sichtbar (ISO)
100
AcDbLine
 10
328.0879999088975
 20
752.2560214405701
 30
0.0
 11
301.5561875751954
 21
752.2560214405701
 31
0.0
  0
LINE
  5
2CC
330
37
100
AcDbEntity
  8
Sichtbar (ISO)
100
AcDbLine
 10
302.8275061206479
 20
752.9178279860881
 30
0.0
 11
326.8166813634449
 21
752.9178279860881
 31
0.0
  0
LINE
  5
2CD
330
37
100
AcDbEntity
  8
Sichtbar (ISO)
100
AcDbLine
 10
328.1300468254719
 20
753.6015227709521
 30
0.0
 11
301.5141406586209
 21
753.6015227709521
 31
0.0
  0
LINE
  5
2CE
330
37
100
AcDbEntity
  8
Sichtbar (ISO)
100
AcDbLine
 10
301.4720937420465
 20
754.9470241013339
 30
0.0
 11
328.1720937420464
 21
754.9470241013339
 31
0.0
  0
LINE
  5
2CF
330
37
100
AcDbEntity
  8
Sichtbar (ISO)
100
AcDbLine
 10
302.7854592040735
 20
754.26332931647
 30
0.0
 11
326.8587282800194
 21
754.26332931647
 31
0.0
  0
LINE
  5
2D0
330
37
100
AcDbEntity
  8
Sichtbar (ISO)
100
AcDbLine
 10
302.7222787085554
 20
739.1891543652595
 30
0.0
 11
326.9219087755374
 21
739.1891543652595
 31
0.0
  0
LINE
  5
2D1
330
37
100
AcDbEntity
  8
Sichtbar (ISO)
100
AcDbLine
 10
303.2479752863922
 20
739.4628146822691
 30
0.0
 11
301.9346098243652
 21
740.146509467133
 31
0.0
  0
LINE
  5
2D2
330
37
100
AcDbEntity
  8
Sichtbar (ISO)
100
AcDbLine
 10
326.3962121977006
 20
739.4628146822691
 30
0.0
 11
327.7095776597276
 21
740.146509467133
 31
0.0
  0
LINE
  5
2D3
330
37
100
AcDbEntity
  8
Sichtbar (ISO)
100
AcDbLine
 10
326.4382591142751
 20
740.808316012651
 30
0.0
 11
327.7095776597276
 21
740.146509467133
 31
0.0
  0
LINE
  5
2D4
330
37
100
AcDbEntity
  8
Sichtbar (ISO)
100
AcDbLine
 10
303.2059283698178
 20
740.808316012651
 30
0.0
 11
301.9346098243652
 21
740.146509467133
 31
0.0
  0
LINE
  5
2D5
330
37
100
AcDbEntity
  8
Sichtbar (ISO)
100
AcDbLine
 10
303.2059283698178
 20
740.808316012651
 30
0.0
 11
301.8925629077908
 21
741.492010797515
 31
0.0
  0
LINE
  5
2D6
330
37
100
AcDbEntity
  8
Sichtbar (ISO)
100
AcDbLine
 10
326.4382591142751
 20
740.808316012651
 30
0.0
 11
327.751624576302
 21
741.492010797515
 31
0.0
  0
LINE
  5
2D7
330
37
100
AcDbEntity
  8
Sichtbar (ISO)
100
AcDbLine
 10
326.4803060308495
 20
742.1538173430329
 30
0.0
 11
327.751624576302
 21
741.4920107975149
 31
0.0
  0
LINE
  5
2D8
330
37
100
AcDbEntity
  8
Sichtbar (ISO)
100
AcDbLine
 10
303.1638814532434
 20
742.1538173430329
 30
0.0
 11
301.8925629077908
 21
741.4920107975149
 31
0.0
  0
LINE
  5
2D9
330
37
100
AcDbEntity
  8
Sichtbar (ISO)
100
AcDbLine
 10
303.1638814532434
 20
742.1538173430329
 30
0.0
 11
301.8505159912164
 21
742.8375121278968
 31
0.0
  0
LINE
  5
2DA
330
37
100
AcDbEntity
  8
Sichtbar (ISO)
100
AcDbLine
 10
326.4803060308495
 20
742.1538173430329
 30
0.0
 11
327.7936714928765
 21
742.8375121278969
 31
0.0
  0
LINE
  5
2DB
330
37
100
AcDbEntity
  8
Sichtbar (ISO)
100
AcDbLine
 10
326.5223529474239
 20
743.4993186734149
 30
0.0
 11
327.7936714928765
 21
742.8375121278969
 31
0.0
  0
LINE
  5
2DC
330
37
100
AcDbEntity
  8
Sichtbar (ISO)
100
AcDbLine
 10
303.1218345366689
 20
743.4993186734149
 30
0.0
 11
301.8505159912164
 21
742.8375121278968
 31
0.0
  0
LINE
  5
2DD
330
37
100
AcDbEntity
  8
Sichtbar (ISO)
100
AcDbLine
 10
303.1218345366689
 20
743.4993186734149
 30
0.0
 11
301.8084690746419
 21
744.1830134582787
 31
0.0
  0
LINE
  5
2DE
330
37
100
AcDbEntity
  8
Sichtbar (ISO)
100
AcDbLine
 10
326.5223529474239
 20
743.4993186734149
 30
0.0
 11
327.8357184094509
 21
744.1830134582787
 31
0.0
  0
LINE
  5
2DF
330
37
100
AcDbEntity
  8
Sichtbar (ISO)
100
AcDbLine
 10
326.5643998639983
 20
744.8448200037967
 30
0.0
 11
327.8357184094509
 21
744.1830134582787
 31
0.0
  0
LINE
  5
2E0
330
37
100
AcDbEntity
  8
Sichtbar (ISO)
100
AcDbLine
 10
303.0797876200945
 20
744.8448200037967
 30
0.0
 11
301.8084690746419
 21
744.1830134582787
 31
0.0
  0
LINE
  5
2E1
330
37
100
AcDbEntity
  8
Sichtbar (ISO)
100
AcDbLine
 10
303.0797876200945
 20
744.8448200037967
 30
0.0
 11
301.7664221580675
 21
745.5285147886606
 31
0.0
  0
LINE
  5
2E2
330
37
100
AcDbEntity
  8
Sichtbar (ISO)
100
AcDbLine
 10
326.5643998639983
 20
744.8448200037967
 30
0.0
 11
327.8777653260254
 21
745.5285147886606
 31
0.0
  0
LINE
  5
2E3
330
37
100
AcDbEntity
  8
Sichtbar (ISO)
100
AcDbLine
 10
326.6064467805728
 20
746.1903213341786
 30
0.0
 11
327.8777653260253
 21
745.5285147886606
 31
0.0
  0
LINE
  5
2E4
330
37
100
AcDbEntity
  8
Sichtbar (ISO)
100
AcDbLine
 10
303.0377407035201
 20
746.1903213341786
 30
0.0
 11
301.7664221580675
 21
745.5285147886606
 31
0.0
  0
LINE
  5
2E5
330
37
100
AcDbEntity
  8
Sichtbar (ISO)
100
AcDbLine
 10
303.0377407035201
 20
746.1903213341786
 30
0.0
 11
301.724375241493
 21
746.8740161190425
 31
0.0
  0
LINE
  5
2E6
330
37
100
AcDbEntity
  8
Sichtbar (ISO)
100
AcDbLine
 10
326.6064467805728
 20
746.1903213341786
 30
0.0
 11
327.9198122425998
 21
746.8740161190425
 31
0.0
  0
LINE
  5
2E7
330
37
100
AcDbEntity
  8
Sichtbar (ISO)
100
AcDbLine
 10
326.6484936971472
 20
747.5358226645607
 30
0.0
 11
327.9198122425998
 21
746.8740161190425
 31
0.0
  0
LINE
  5
2E8
330
37
100
AcDbEntity
  8
Sichtbar (ISO)
100
AcDbLine
 10
302.9956937869456
 20
747.5358226645605
 30
0.0
 11
301.724375241493
 21
746.8740161190425
 31
0.0
  0
LINE
  5
2E9
330
37
100
AcDbEntity
  8
Sichtbar (ISO)
100
AcDbLine
 10
302.9956937869456
 20
747.5358226645605
 30
0.0
 11
301.6823283249186
 21
748.2195174494245
 31
0.0
  0
LINE
  5
2EA
330
37
100
AcDbEntity
  8
Sichtbar (ISO)
100
AcDbLine
 10
326.6484936971472
 20
747.5358226645605
 30
0.0
 11
327.9618591591742
 21
748.2195174494245
 31
0.0
  0
LINE
  5
2EB
330
37
100
AcDbEntity
  8
Sichtbar (ISO)
100
AcDbLine
 10
326.6905406137217
 20
748.8813239949425
 30
0.0
 11
327.9618591591742
 21
748.2195174494245
 31
0.0
  0
LINE
  5
2EC
330
37
100
AcDbEntity
  8
Sichtbar (ISO)
100
AcDbLine
 10
302.9536468703712
 20
748.8813239949425
 30
0.0
 11
301.6823283249186
 21
748.2195174494245
 31
0.0
  0
LINE
  5
2ED
330
37
100
AcDbEntity
  8
Sichtbar (ISO)
100
AcDbLine
 10
302.9536468703712
 20
748.8813239949425
 30
0.0
 11
301.6402814083442
 21
749.5650187798063
 31
0.0
  0
LINE
  5
2EE
330
37
100
AcDbEntity
  8
Sichtbar (ISO)
100
AcDbLine
 10
326.6905406137217
 20
748.8813239949425
 30
0.0
 11
328.0039060757486
 21
749.5650187798063
 31
0.0
  0
LINE
  5
2EF
330
37
100
AcDbEntity
  8
Sichtbar (ISO)
100
AcDbLine
 10
326.7325875302961
 20
750.2268253253243
 30
0.0
 11
328.0039060757486
 21
749.5650187798063
 31
0.0
  0
LINE
  5
2F0
330
37
100
AcDbEntity
  8
Sichtbar (ISO)
100
AcDbLine
 10
302.9115999537967
 20
750.2268253253243
 30
0.0
 11
301.6402814083442
 21
749.5650187798063
 31
0.0
  0
LINE
  5
2F1
330
37
100
AcDbEntity
  8
Sichtbar (ISO)
100
AcDbLine
 10
302.9115999537967
 20
750.2268253253243
 30
0.0
 11
301.5982344917698
 21
750.9105201101882
 31
0.0
  0
LINE
  5
2F2
330
37
100
AcDbEntity
  8
Sichtbar (ISO)
100
AcDbLine
 10
326.7325875302961
 20
750.2268253253243
 30
0.0
 11
328.0459529923231
 21
750.9105201101882
 31
0.0
  0
LINE
  5
2F3
330
37
100
AcDbEntity
  8
Sichtbar (ISO)
100
AcDbLine
 10
326.7746344468705
 20
751.5723266557062
 30
0.0
 11
328.0459529923231
 21
750.9105201101882
 31
0.0
  0
LINE
  5
2F4
330
37
100
AcDbEntity
  8
Sichtbar (ISO)
100
AcDbLine
 10
302.8695530372223
 20
751.5723266557062
 30
0.0
 11
301.5982344917698
 21
750.9105201101882
 31
0.0
  0
LINE
  5
2F5
330
37
100
AcDbEntity
  8
Sichtbar (ISO)
100
AcDbLine
 10
302.8695530372223
 20
751.5723266557062
 30
0.0
 11
301.5561875751954
 21
752.2560214405701
 31
0.0
  0
LINE
  5
2F6
330
37
100
AcDbEntity
  8
Sichtbar (ISO)
100
AcDbLine
 10
326.7746344468705
 20
751.5723266557062
 30
0.0
 11
328.0879999088975
 21
752.2560214405701
 31
0.0
  0
LINE
  5
2F7
330
37
100
AcDbEntity
  8
Sichtbar (ISO)
100
AcDbLine
 10
326.8166813634449
 20
752.9178279860881
 30
0.0
 11
328.0879999088975
 21
752.2560214405701
 31
0.0
  0
LINE
  5
2F8
330
37
100
AcDbEntity
  8
Sichtbar (ISO)
100
AcDbLine
 10
302.8275061206479
 20
752.9178279860881
 30
0.0
 11
301.5561875751954
 21
752.2560214405701
 31
0.0
  0
LINE
  5
2F9
330
37
100
AcDbEntity
  8
Sichtbar (ISO)
100
AcDbLine
 10
302.8275061206479
 20
752.9178279860881
 30
0.0
 11
301.5141406586209
 21
753.6015227709521
 31
0.0
  0
LINE
  5
2FA
330
37
100
AcDbEntity
  8
Sichtbar (ISO)
100
AcDbLine
 10
326.8166813634449
 20
752.9178279860881
 30
0.0
 11
328.1300468254719
 21
753.6015227709521
 31
0.0
  0
LINE
  5
2FB
330
37
100
AcDbEntity
  8
Sichtbar (ISO)
100
AcDbLine
 10
302.7854592040735
 20
754.26332931647
 30
0.0
 11
301.4720937420465
 21
754.9470241013339
 31
0.0
  0
LINE
  5
2FC
330
37
100
AcDbEntity
  8
Sichtbar (ISO)
100
AcDbLine
 10
326.8587282800194
 20
754.26332931647
 30
0.0
 11
328.1720937420464
 21
754.9470241013339
 31
0.0
  0
LINE
  5
2FD
330
37
100
AcDbEntity
  8
Sichtbar (ISO)
100
AcDbLine
 10
326.8587282800194
 20
754.26332931647
 30
0.0
 11
328.130046825472
 21
753.6015227709521
 31
0.0
  0
LINE
  5
2FE
330
37
100
AcDbEntity
  8
Sichtbar (ISO)
100
AcDbLine
 10
302.7854592040735
 20
754.26332931647
 30
0.0
 11
301.5141406586209
 21
753.6015227709521
 31
0.0
  0
LINE
  5
2FF
330
37
100
AcDbEntity
  8
Sichtbar (ISO)
100
AcDbLine
 10
326.3962121977006
 20
739.4628146822691
 30
0.0
 11
326.9219087755374
 21
739.1891543652595
 31
0.0
  0
LINE
  5
300
330
37
100
AcDbEntity
  8
Sichtbar (ISO)
100
AcDbLine
 10
303.2479752863922
 20
739.4628146822691
 30
0.0
 11
302.7222787085555
 21
739.1891543652595
 31
0.0
  0
LINE
  5
301
330
37
100
AcDbEntity
  8
Sichtbar (ISO)
100
AcDbLine
 10
326.6720937420464
 20
738.947024101334
 30
0.0
 11
302.9720937420464
 21
738.947024101334
 31
0.0
  0
LINE
  5
302
330
37
100
AcDbEntity
  8
Sichtbar (ISO)
100
AcDbLine
 10
302.9720937420464
 20
738.947024101334
 30
0.0
 11
302.7222787085554
 21
739.1891543652595
 31
0.0
  0
LINE
  5
303
330
37
100
AcDbEntity
  8
Sichtbar (ISO)
100
AcDbLine
 10
326.6720937420464
 20
738.947024101334
 30
0.0
 11
326.9219087755374
 21
739.1891543652595
 31
0.0
  0
LINE
  5
304
330
37
100
AcDbEntity
  8
Sichtbar (ISO)
100
AcDbLine
 10
328.1720937420464
 20
763.6815538992703
 30
0.0
 11
328.1720937420464
 21
754.9470241013339
 31
0.0
  0
LINE
  5
305
330
37
100
AcDbEntity
  8
Sichtbar (ISO)
100
AcDbLine
 10
301.4720937420465
 20
763.6815538992703
 30
0.0
 11
301.4720937420465
 21
754.9470241013339
 31
0.0
  0
LINE
  5
306
330
37
100
AcDbEntity
  8
Sichtbar (ISO)
100
AcDbLine
 10
397.6022722485181
 20
1127.578019821691
 30
0.0
 11
397.4693687403878
 21
1129.478628535808
 31
0.0
  0
LINE
  5
307
330
37
100
AcDbEntity
  8
Sichtbar (ISO)
100
AcDbLine
 10
395.4742406398681
 20
1129.33911558832
 30
0.0
 11
395.6071441479983
 21
1127.438506874203
 31
0.0
  0
LINE
  5
308
330
37
100
AcDbEntity
  8
Sichtbar (ISO)
100
AcDbLine
 10
397.602272248518
 20
1127.578019821691
 30
0.0
 11
395.6071441479983
 21
1127.438506874203
 31
0.0
  0
LINE
  5
309
330
37
100
AcDbEntity
  8
Sichtbar (ISO)
100
AcDbLine
 10
397.4693687403877
 20
1129.478628535808
 30
0.0
 11
395.4742406398681
 21
1129.33911558832
 31
0.0
  0
LINE
  5
30A
330
37
100
AcDbEntity
  8
Sichtbar (ISO)
100
AcDbLine
 10
397.602272248518
 20
1127.578019821691
 30
0.0
 11
399.27312217783
 21
1103.683752617548
 31
0.0
  0
LINE
  5
30B
330
37
100
AcDbEntity
  8
Sichtbar (ISO)
100
AcDbLine
 10
397.2779940773103
 20
1103.544239670059
 30
0.0
 11
395.6071441479983
 21
1127.438506874203
 31
0.0
  0
LINE
  5
30C
330
37
100
AcDbEntity
  8
Sichtbar (ISO)
100
AcDbLine
 10
386.5188781145319
 20
1086.702858648336
 30
0.0
 11
394.8494493769398
 21
1096.286084642713
 31
0.0
  0
LINE
  5
30D
330
37
100
AcDbEntity
  8
Sichtbar (ISO)
100
AcDbLine
 10
388.9497855641148
 20
1055.370468589964
 30
0.0
 11
384.8880267919253
 21
1081.015404190121
 31
0.0
  0
LINE
  5
30E
330
37
100
AcDbEntity
  8
Sichtbar (ISO)
100
AcDbLine
 10
386.8634034731156
 20
1081.328273120202
 30
0.0
 11
390.9251622453051
 21
1055.683337520044
 31
0.0
  0
LINE
  5
30F
330
37
100
AcDbEntity
  8
Sichtbar (ISO)
100
AcDbLine
 10
396.3588685373853
 20
1094.973966584732
 30
0.0
 11
388.0282972749775
 21
1085.390740590355
 31
0.0
  0
ARC
  5
310
330
37
100
AcDbEntity
  8
Sichtbar (ISO)
100
AcDbCircle
 10
391.8018451760913
 20
1082.110445445402
 30
0.0
 40
7.000000000000001
100
AcDbArc
 50
138.9999999999996
 51
188.9999999999999
  0
LINE
  5
311
330
37
100
AcDbEntity
  8
Sichtbar (ISO)
100
AcDbLine
 10
388.9497855641148
 20
1055.370468589964
 30
0.0
 11
390.9251622453051
 21
1055.683337520044
 31
0.0
  0
LINE
  5
312
330
37
100
AcDbEntity
  8
Sichtbar (ISO)
100
AcDbLine
 10
391.9844180912303
 20
1048.995459318406
 30
0.0
 11
390.9251622453051
 21
1055.683337520044
 31
0.0
  0
LINE
  5
313
330
37
100
AcDbEntity
  8
Sichtbar (ISO)
100
AcDbLine
 10
388.9497855641148
 20
1055.370468589964
 30
0.0
 11
389.4161131099118
 21
1052.426192341354
 31
0.0
  0
LINE
  5
314
330
37
100
AcDbEntity
  8
Sichtbar (ISO)
100
AcDbLine
 10
391.9844180912303
 20
1048.995459318406
 30
0.0
 11
390.0841095555242
 21
1048.694480014534
 31
0.0
  0
ARC
  5
315
330
37
100
AcDbEntity
  8
Sichtbar (ISO)
100
AcDbCircle
 10
391.8018451760913
 20
1082.110445445402
 30
0.0
 40
5.000000000000008
100
AcDbArc
 50
138.9999999999996
 51
188.9999999999993
  0
ARC
  5
316
330
37
100
AcDbEntity
  8
Sichtbar (ISO)
100
AcDbCircle
 10
387.3023535747121
 20
1102.846674932618
 30
0.0
 40
12.00000000000001
100
AcDbArc
 50
318.9999999999998
 51
4.000000000000145
  0
ARC
  5
317
330
37
100
AcDbEntity
  8
Sichtbar (ISO)
100
AcDbCircle
 10
387.3023535747121
 20
1102.846674932618
 30
0.0
 40
10.0
100
AcDbArc
 50
318.9999999999996
 51
3.999999999999984
  0
LINE
  5
318
330
37
100
AcDbEntity
  8
Sichtbar (ISO)
100
AcDbLine
 10
328.1720937420464
 20
763.6815538992705
 30
0.0
 11
301.4720937420463
 21
763.6815538992705
 31
0.0
  0
LINE
  5
319
330
37
100
AcDbEntity
  8
Sichtbar (ISO)
100
AcDbLine
 10
300.7925909880904
 20
763.7533917377847
 30
0.0
 11
328.8515964960023
 21
763.7533917377847
 31
0.0
  0
ARC
  5
31A
330
37
100
AcDbEntity
  8
Sichtbar (ISO)
100
AcDbCircle
 10
301.5513467139953
 20
767.6807686930064
 30
0.0
 40
3.999999999999962
100
AcDbArc
 50
259.06536884274
 51
268.8647105110247
  0
ARC
  5
31B
330
37
100
AcDbEntity
  8
Sichtbar (ISO)
100
AcDbCircle
 10
328.0928407700975
 20
767.6807686930064
 30
0.0
 40
3.999999999999963
100
AcDbArc
 50
271.1352894889753
 51
280.9346311572597
  0
LINE
  5
31C
330
37
100
AcDbEntity
  8
Sichtbar (ISO)
100
AcDbLine
 10
300.7925909880904
 20
763.7533917377847
 30
0.0
 11
297.5513467139952
 21
767.6807686930064
 31
0.0
  0
LINE
  5
31D
330
37
100
AcDbEntity
  8
Sichtbar (ISO)
100
AcDbLine
 10
328.8515964960023
 20
763.7533917377847
 30
0.0
 11
332.0928407700975
 21
767.6807686930064
 31
0.0
  0
LINE
  5
31E
330
37
100
AcDbEntity
  8
Sichtbar (ISO)
100
AcDbLine
 10
301.4720937420464
 20
1143.412494303397
 30
0.0
 11
328.1720937420465
 21
1143.412494303397
 31
0.0
  0
LINE
  5
31F
330
37
100
AcDbEntity
  8
Sichtbar (ISO)
100
AcDbLine
 10
328.8515964960024
 20
1143.340656464883
 30
0.0
 11
300.7925909880905
 21
1143.340656464883
 31
0.0
  0
ARC
  5
320
330
37
100
AcDbEntity
  8
Sichtbar (ISO)
100
AcDbCircle
 10
328.0928407700975
 20
1139.413279509661
 30
0.0
 40
3.999999999999963
100
AcDbArc
 50
79.06536884273972
 51
88.86471051102466
  0
ARC
  5
321
330
37
100
AcDbEntity
  8
Sichtbar (ISO)
100
AcDbCircle
 10
301.5513467139953
 20
1139.413279509661
 30
0.0
 40
3.999999999999963
100
AcDbArc
 50
91.13528948897533
 51
100.9346311572596
  0
LINE
  5
322
330
37
100
AcDbEntity
  8
Sichtbar (ISO)
100
AcDbLine
 10
328.8515964960024
 20
1143.340656464883
 30
0.0
 11
332.0928407700975
 21
1139.413279509661
 31
0.0
  0
LINE
  5
323
330
37
100
AcDbEntity
  8
Sichtbar (ISO)
100
AcDbLine
 10
300.7925909880904
 20
1143.340656464883
 30
0.0
 11
297.5513467139953
 21
1139.413279509661
 31
0.0
  0
LINE
  5
324
330
37
100
AcDbEntity
  8
Sichtbar (ISO)
100
AcDbLine
 10
274.9222068528629
 20
773.9497850633148
 30
0.0
 11
274.922206852863
 21
1133.144263139353
 31
0.0
  0
LINE
  5
325
330
37
100
AcDbEntity
  8
Sichtbar (ISO)
100
AcDbLine
 10
274.922206852863
 20
1133.144263139353
 30
0.0
 11
276.8220937420464
 21
1135.064994958107
 31
0.0
  0
LINE
  5
326
330
37
100
AcDbEntity
  8
Sichtbar (ISO)
100
AcDbLine
 10
274.9222068528629
 20
773.9497850633148
 30
0.0
 11
276.8220937420463
 21
772.0290532445608
 31
0.0
  0
LINE
  5
327
330
37
100
AcDbEntity
  8
Sichtbar (ISO)
100
AcDbLine
 10
803.5780933476488
 20
1138.428888717786
 30
0.0
 11
767.0723248532005
 21
1138.428888717786
 31
0.0
  0
LINE
  5
328
330
37
100
AcDbEntity
  8
Sichtbar (ISO)
100
AcDbLine
 10
803.5780933476488
 20
1139.413279509661
 30
0.0
 11
767.0723248532005
 21
1139.413279509661
 31
0.0
  0
LINE
  5
329
330
37
100
AcDbEntity
  8
Sichtbar (ISO)
100
AcDbLine
 10
803.5780933476486
 20
1138.428888717786
 30
0.0
 11
806.1655722532126
 21
1133.947243789836
 31
0.0
  0
LINE
  5
32A
330
37
100
AcDbEntity
  8
Sichtbar (ISO)
100
AcDbLine
 10
767.0723248532005
 20
1138.428888717786
 30
0.0
 11
764.4848459476365
 21
1133.947243789836
 31
0.0
  0
LINE
  5
32B
330
37
100
AcDbEntity
  8
Sichtbar (ISO)
100
AcDbLine
 10
767.0723248532005
 20
1138.428888717786
 30
0.0
 11
767.0723248532005
 21
1139.413279509661
 31
0.0
  0
LINE
  5
32C
330
37
100
AcDbEntity
  8
Sichtbar (ISO)
100
AcDbLine
 10
803.5780933476486
 20
1138.428888717786
 30
0.0
 11
803.5780933476486
 21
1139.413279509661
 31
0.0
  0
LINE
  5
32D
330
37
100
AcDbEntity
  8
Sichtbar (ISO)
100
AcDbLine
 10
767.0723248532005
 20
768.665159484882
 30
0.0
 11
803.5780933476488
 21
768.665159484882
 31
0.0
  0
LINE
  5
32E
330
37
100
AcDbEntity
  8
Sichtbar (ISO)
100
AcDbLine
 10
767.0723248532005
 20
767.6807686930064
 30
0.0
 11
803.5780933476488
 21
767.6807686930064
 31
0.0
  0
LINE
  5
32F
330
37
100
AcDbEntity
  8
Sichtbar (ISO)
100
AcDbLine
 10
767.0723248532005
 20
768.665159484882
 30
0.0
 11
764.4848459476365
 21
773.1468044128315
 31
0.0
  0
LINE
  5
330
330
37
100
AcDbEntity
  8
Sichtbar (ISO)
100
AcDbLine
 10
803.5780933476488
 20
768.665159484882
 30
0.0
 11
806.1655722532126
 21
773.1468044128315
 31
0.0
  0
LINE
  5
331
330
37
100
AcDbEntity
  8
Sichtbar (ISO)
100
AcDbLine
 10
803.5780933476488
 20
768.665159484882
 30
0.0
 11
803.5780933476488
 21
767.6807686930064
 31
0.0
  0
LINE
  5
332
330
37
100
AcDbEntity
  8
Sichtbar (ISO)
100
AcDbLine
 10
767.0723248532005
 20
768.665159484882
 30
0.0
 11
767.0723248532005
 21
767.6807686930064
 31
0.0
  0
CIRCLE
  5
333
330
37
100
AcDbEntity
  8
Sichtbar (ISO)
100
AcDbCircle
 10
785.3252091004133
 20
953.5470241013339
 30
0.0
 40
181.6
  0
CIRCLE
  5
334
330
37
100
AcDbEntity
  8
Sichtbar (ISO)
100
AcDbCircle
 10
785.325209100387
 20
953.547024101334
 30
0.0
 40
12.30558662311653
  0
LINE
  5
335
330
37
100
AcDbEntity
  8
Sichtbar (ISO)
100
AcDbLine
 10
796.8993275560787
 20
1167.631233520399
 30
0.0
 11
773.7510906447704
 21
1167.631233520399
 31
0.0
  0
LINE
  5
336
330
37
100
AcDbEntity
  8
Sichtbar (ISO)
100
AcDbLine
 10
772.4377251827434
 20
1166.947538735535
 30
0.0
 11
798.2126930181057
 21
1166.947538735535
 31
0.0
  0
LINE
  5
337
330
37
100
AcDbEntity
  8
Sichtbar (ISO)
100
AcDbLine
 10
773.709043728196
 20
1166.285732190017
 30
0.0
 11
796.9413744726532
 21
1166.285732190017
 31
0.0
  0
LINE
  5
338
330
37
100
AcDbEntity
  8
Sichtbar (ISO)
100
AcDbLine
 10
772.395678266169
 20
1165.602037405153
 30
0.0
 11
798.2547399346802
 21
1165.602037405153
 31
0.0
  0
LINE
  5
339
330
37
100
AcDbEntity
  8
Sichtbar (ISO)
100
AcDbLine
 10
773.6669968116215
 20
1164.940230859635
 30
0.0
 11
796.9834213892277
 21
1164.940230859635
 31
0.0
  0
LINE
  5
33A
330
37
100
AcDbEntity
  8
Sichtbar (ISO)
100
AcDbLine
 10
772.3536313495945
 20
1164.256536074771
 30
0.0
 11
798.2967868512546
 21
1164.256536074771
 31
0.0
  0
LINE
  5
33B
330
37
100
AcDbEntity
  8
Sichtbar (ISO)
100
AcDbLine
 10
773.6249498950471
 20
1163.594729529253
 30
0.0
 11
797.025468305802
 21
1163.594729529253
 31
0.0
  0
LINE
  5
33C
330
37
100
AcDbEntity
  8
Sichtbar (ISO)
100
AcDbLine
 10
772.3115844330203
 20
1162.911034744389
 30
0.0
 11
798.338833767829
 21
1162.911034744389
 31
0.0
  0
LINE
  5
33D
330
37
100
AcDbEntity
  8
Sichtbar (ISO)
100
AcDbLine
 10
773.5829029784727
 20
1162.249228198871
 30
0.0
 11
797.0675152223765
 21
1162.249228198871
 31
0.0
  0
LINE
  5
33E
330
37
100
AcDbEntity
  8
Sichtbar (ISO)
100
AcDbLine
 10
772.2695375164457
 20
1161.565533414007
 30
0.0
 11
798.3808806844034
 21
1161.565533414007
 31
0.0
  0
LINE
  5
33F
330
37
100
AcDbEntity
  8
Sichtbar (ISO)
100
AcDbLine
 10
773.5408560618982
 20
1160.903726868489
 30
0.0
 11
797.1095621389509
 21
1160.903726868489
 31
0.0
  0
LINE
  5
340
330
37
100
AcDbEntity
  8
Sichtbar (ISO)
100
AcDbLine
 10
772.2274905998713
 20
1160.220032083625
 30
0.0
 11
798.4229276009779
 21
1160.220032083625
 31
0.0
  0
LINE
  5
341
330
37
100
AcDbEntity
  8
Sichtbar (ISO)
100
AcDbLine
 10
773.4988091453238
 20
1159.558225538107
 30
0.0
 11
797.1516090555255
 21
1159.558225538107
 31
0.0
  0
LINE
  5
342
330
37
100
AcDbEntity
  8
Sichtbar (ISO)
100
AcDbLine
 10
772.1854436832968
 20
1158.874530753243
 30
0.0
 11
798.4649745175524
 21
1158.874530753243
 31
0.0
  0
LINE
  5
343
330
37
100
AcDbEntity
  8
Sichtbar (ISO)
100
AcDbLine
 10
773.4567622287494
 20
1158.212724207725
 30
0.0
 11
797.1936559720997
 21
1158.212724207725
 31
0.0
  0
LINE
  5
344
330
37
100
AcDbEntity
  8
Sichtbar (ISO)
100
AcDbLine
 10
772.1433967667224
 20
1157.529029422861
 30
0.0
 11
798.5070214341267
 21
1157.529029422861
 31
0.0
  0
LINE
  5
345
330
37
100
AcDbEntity
  8
Sichtbar (ISO)
100
AcDbLine
 10
773.414715312175
 20
1156.867222877344
 30
0.0
 11
797.2357028886742
 21
1156.867222877344
 31
0.0
  0
LINE
  5
346
330
37
100
AcDbEntity
  8
Sichtbar (ISO)
100
AcDbLine
 10
772.101349850148
 20
1156.183528092479
 30
0.0
 11
798.5490683507012
 21
1156.183528092479
 31
0.0
  0
LINE
  5
347
330
37
100
AcDbEntity
  8
Sichtbar (ISO)
100
AcDbLine
 10
773.3726683956005
 20
1155.521721546961
 30
0.0
 11
797.2777498052487
 21
1155.521721546961
 31
0.0
  0
LINE
  5
348
330
37
100
AcDbEntity
  8
Sichtbar (ISO)
100
AcDbLine
 10
772.0593029335735
 20
1154.838026762098
 30
0.0
 11
798.5911152672756
 21
1154.838026762098
 31
0.0
  0
LINE
  5
349
330
37
100
AcDbEntity
  8
Sichtbar (ISO)
100
AcDbLine
 10
797.3197967218232
 20
1154.17622021658
 30
0.0
 11
773.3306214790261
 21
1154.17622021658
 31
0.0
  0
LINE
  5
34A
330
37
100
AcDbEntity
  8
Sichtbar (ISO)
100
AcDbLine
 10
772.0172560169991
 20
1153.492525431716
 30
0.0
 11
798.6331621838501
 21
1153.492525431716
 31
0.0
  0
LINE
  5
34B
330
37
100
AcDbEntity
  8
Sichtbar (ISO)
100
AcDbLine
 10
798.6752091004245
 20
1152.147024101334
 30
0.0
 11
771.9752091004247
 21
1152.147024101334
 31
0.0
  0
LINE
  5
34C
330
37
100
AcDbEntity
  8
Sichtbar (ISO)
100
AcDbLine
 10
797.3618436383975
 20
1152.830718886198
 30
0.0
 11
773.2885745624517
 21
1152.830718886198
 31
0.0
  0
LINE
  5
34D
330
37
100
AcDbEntity
  8
Sichtbar (ISO)
100
AcDbLine
 10
797.4250241339155
 20
1167.904893837408
 30
0.0
 11
773.2253940669338
 21
1167.904893837408
 31
0.0
  0
LINE
  5
34E
330
37
100
AcDbEntity
  8
Sichtbar (ISO)
100
AcDbLine
 10
796.8993275560787
 20
1167.631233520399
 30
0.0
 11
798.2126930181057
 21
1166.947538735535
 31
0.0
  0
LINE
  5
34F
330
37
100
AcDbEntity
  8
Sichtbar (ISO)
100
AcDbLine
 10
773.7510906447704
 20
1167.631233520399
 30
0.0
 11
772.4377251827434
 21
1166.947538735535
 31
0.0
  0
LINE
  5
350
330
37
100
AcDbEntity
  8
Sichtbar (ISO)
100
AcDbLine
 10
773.709043728196
 20
1166.285732190017
 30
0.0
 11
772.4377251827434
 21
1166.947538735535
 31
0.0
  0
LINE
  5
351
330
37
100
AcDbEntity
  8
Sichtbar (ISO)
100
AcDbLine
 10
796.9413744726532
 20
1166.285732190017
 30
0.0
 11
798.2126930181057
 21
1166.947538735535
 31
0.0
  0
LINE
  5
352
330
37
100
AcDbEntity
  8
Sichtbar (ISO)
100
AcDbLine
 10
796.9413744726532
 20
1166.285732190017
 30
0.0
 11
798.2547399346802
 21
1165.602037405153
 31
0.0
  0
LINE
  5
353
330
37
100
AcDbEntity
  8
Sichtbar (ISO)
100
AcDbLine
 10
773.709043728196
 20
1166.285732190017
 30
0.0
 11
772.395678266169
 21
1165.602037405153
 31
0.0
  0
LINE
  5
354
330
37
100
AcDbEntity
  8
Sichtbar (ISO)
100
AcDbLine
 10
773.6669968116216
 20
1164.940230859635
 30
0.0
 11
772.395678266169
 21
1165.602037405153
 31
0.0
  0
LINE
  5
355
330
37
100
AcDbEntity
  8
Sichtbar (ISO)
100
AcDbLine
 10
796.9834213892277
 20
1164.940230859635
 30
0.0
 11
798.2547399346802
 21
1165.602037405153
 31
0.0
  0
LINE
  5
356
330
37
100
AcDbEntity
  8
Sichtbar (ISO)
100
AcDbLine
 10
796.9834213892277
 20
1164.940230859635
 30
0.0
 11
798.2967868512546
 21
1164.256536074771
 31
0.0
  0
LINE
  5
357
330
37
100
AcDbEntity
  8
Sichtbar (ISO)
100
AcDbLine
 10
773.6669968116216
 20
1164.940230859635
 30
0.0
 11
772.3536313495947
 21
1164.256536074771
 31
0.0
  0
LINE
  5
358
330
37
100
AcDbEntity
  8
Sichtbar (ISO)
100
AcDbLine
 10
773.6249498950471
 20
1163.594729529253
 30
0.0
 11
772.3536313495945
 21
1164.256536074771
 31
0.0
  0
LINE
  5
359
330
37
100
AcDbEntity
  8
Sichtbar (ISO)
100
AcDbLine
 10
797.0254683058022
 20
1163.594729529253
 30
0.0
 11
798.2967868512546
 21
1164.256536074771
 31
0.0
  0
LINE
  5
35A
330
37
100
AcDbEntity
  8
Sichtbar (ISO)
100
AcDbLine
 10
797.025468305802
 20
1163.594729529253
 30
0.0
 11
798.338833767829
 21
1162.911034744389
 31
0.0
  0
LINE
  5
35B
330
37
100
AcDbEntity
  8
Sichtbar (ISO)
100
AcDbLine
 10
773.6249498950471
 20
1163.594729529253
 30
0.0
 11
772.3115844330203
 21
1162.911034744389
 31
0.0
  0
LINE
  5
35C
330
37
100
AcDbEntity
  8
Sichtbar (ISO)
100
AcDbLine
 10
773.5829029784727
 20
1162.249228198871
 30
0.0
 11
772.3115844330203
 21
1162.911034744389
 31
0.0
  0
LINE
  5
35D
330
37
100
AcDbEntity
  8
Sichtbar (ISO)
100
AcDbLine
 10
797.0675152223765
 20
1162.249228198871
 30
0.0
 11
798.3388337678291
 21
1162.911034744389
 31
0.0
  0
LINE
  5
35E
330
37
100
AcDbEntity
  8
Sichtbar (ISO)
100
AcDbLine
 10
797.0675152223765
 20
1162.249228198871
 30
0.0
 11
798.3808806844034
 21
1161.565533414007
 31
0.0
  0
LINE
  5
35F
330
37
100
AcDbEntity
  8
Sichtbar (ISO)
100
AcDbLine
 10
773.5829029784727
 20
1162.249228198871
 30
0.0
 11
772.2695375164457
 21
1161.565533414007
 31
0.0
  0
LINE
  5
360
330
37
100
AcDbEntity
  8
Sichtbar (ISO)
100
AcDbLine
 10
773.5408560618982
 20
1160.903726868489
 30
0.0
 11
772.2695375164457
 21
1161.565533414007
 31
0.0
  0
LINE
  5
361
330
37
100
AcDbEntity
  8
Sichtbar (ISO)
100
AcDbLine
 10
797.1095621389509
 20
1160.903726868489
 30
0.0
 11
798.3808806844034
 21
1161.565533414007
 31
0.0
  0
LINE
  5
362
330
37
100
AcDbEntity
  8
Sichtbar (ISO)
100
AcDbLine
 10
797.1095621389509
 20
1160.903726868489
 30
0.0
 11
798.4229276009779
 21
1160.220032083625
 31
0.0
  0
LINE
  5
363
330
37
100
AcDbEntity
  8
Sichtbar (ISO)
100
AcDbLine
 10
773.5408560618982
 20
1160.903726868489
 30
0.0
 11
772.2274905998713
 21
1160.220032083625
 31
0.0
  0
LINE
  5
364
330
37
100
AcDbEntity
  8
Sichtbar (ISO)
100
AcDbLine
 10
773.4988091453239
 20
1159.558225538107
 30
0.0
 11
772.2274905998713
 21
1160.220032083625
 31
0.0
  0
LINE
  5
365
330
37
100
AcDbEntity
  8
Sichtbar (ISO)
100
AcDbLine
 10
797.1516090555255
 20
1159.558225538107
 30
0.0
 11
798.4229276009779
 21
1160.220032083625
 31
0.0
  0
LINE
  5
366
330
37
100
AcDbEntity
  8
Sichtbar (ISO)
100
AcDbLine
 10
797.1516090555253
 20
1159.558225538107
 30
0.0
 11
798.4649745175524
 21
1158.874530753243
 31
0.0
  0
LINE
  5
367
330
37
100
AcDbEntity
  8
Sichtbar (ISO)
100
AcDbLine
 10
773.4988091453239
 20
1159.558225538107
 30
0.0
 11
772.185443683297
 21
1158.874530753243
 31
0.0
  0
LINE
  5
368
330
37
100
AcDbEntity
  8
Sichtbar (ISO)
100
AcDbLine
 10
773.4567622287494
 20
1158.212724207725
 30
0.0
 11
772.1854436832968
 21
1158.874530753243
 31
0.0
  0
LINE
  5
369
330
37
100
AcDbEntity
  8
Sichtbar (ISO)
100
AcDbLine
 10
797.1936559720997
 20
1158.212724207725
 30
0.0
 11
798.4649745175524
 21
1158.874530753243
 31
0.0
  0
LINE
  5
36A
330
37
100
AcDbEntity
  8
Sichtbar (ISO)
100
AcDbLine
 10
797.1936559720999
 20
1158.212724207725
 30
0.0
 11
798.5070214341267
 21
1157.529029422861
 31
0.0
  0
LINE
  5
36B
330
37
100
AcDbEntity
  8
Sichtbar (ISO)
100
AcDbLine
 10
773.4567622287494
 20
1158.212724207725
 30
0.0
 11
772.1433967667224
 21
1157.529029422861
 31
0.0
  0
LINE
  5
36C
330
37
100
AcDbEntity
  8
Sichtbar (ISO)
100
AcDbLine
 10
773.414715312175
 20
1156.867222877344
 30
0.0
 11
772.1433967667224
 21
1157.529029422861
 31
0.0
  0
LINE
  5
36D
330
37
100
AcDbEntity
  8
Sichtbar (ISO)
100
AcDbLine
 10
797.2357028886742
 20
1156.867222877344
 30
0.0
 11
798.5070214341268
 21
1157.529029422861
 31
0.0
  0
LINE
  5
36E
330
37
100
AcDbEntity
  8
Sichtbar (ISO)
100
AcDbLine
 10
797.2357028886742
 20
1156.867222877344
 30
0.0
 11
798.5490683507013
 21
1156.183528092479
 31
0.0
  0
LINE
  5
36F
330
37
100
AcDbEntity
  8
Sichtbar (ISO)
100
AcDbLine
 10
773.414715312175
 20
1156.867222877344
 30
0.0
 11
772.101349850148
 21
1156.183528092479
 31
0.0
  0
LINE
  5
370
330
37
100
AcDbEntity
  8
Sichtbar (ISO)
100
AcDbLine
 10
773.3726683956005
 20
1155.521721546961
 30
0.0
 11
772.101349850148
 21
1156.18352809248
 31
0.0
  0
LINE
  5
371
330
37
100
AcDbEntity
  8
Sichtbar (ISO)
100
AcDbLine
 10
797.2777498052487
 20
1155.521721546961
 30
0.0
 11
798.5490683507012
 21
1156.18352809248
 31
0.0
  0
LINE
  5
372
330
37
100
AcDbEntity
  8
Sichtbar (ISO)
100
AcDbLine
 10
797.2777498052487
 20
1155.521721546961
 30
0.0
 11
798.5911152672756
 21
1154.838026762098
 31
0.0
  0
LINE
  5
373
330
37
100
AcDbEntity
  8
Sichtbar (ISO)
100
AcDbLine
 10
773.3726683956005
 20
1155.521721546961
 30
0.0
 11
772.0593029335735
 21
1154.838026762098
 31
0.0
  0
LINE
  5
374
330
37
100
AcDbEntity
  8
Sichtbar (ISO)
100
AcDbLine
 10
773.3306214790261
 20
1154.17622021658
 30
0.0
 11
772.0593029335735
 21
1154.838026762098
 31
0.0
  0
LINE
  5
375
330
37
100
AcDbEntity
  8
Sichtbar (ISO)
100
AcDbLine
 10
797.3197967218232
 20
1154.17622021658
 30
0.0
 11
798.5911152672756
 21
1154.838026762098
 31
0.0
  0
LINE
  5
376
330
37
100
AcDbEntity
  8
Sichtbar (ISO)
100
AcDbLine
 10
797.3197967218232
 20
1154.17622021658
 30
0.0
 11
798.6331621838501
 21
1153.492525431716
 31
0.0
  0
LINE
  5
377
330
37
100
AcDbEntity
  8
Sichtbar (ISO)
100
AcDbLine
 10
773.3306214790261
 20
1154.17622021658
 30
0.0
 11
772.0172560169992
 21
1153.492525431716
 31
0.0
  0
LINE
  5
378
330
37
100
AcDbEntity
  8
Sichtbar (ISO)
100
AcDbLine
 10
797.3618436383977
 20
1152.830718886198
 30
0.0
 11
798.6752091004245
 21
1152.147024101334
 31
0.0
  0
LINE
  5
379
330
37
100
AcDbEntity
  8
Sichtbar (ISO)
100
AcDbLine
 10
773.2885745624517
 20
1152.830718886198
 30
0.0
 11
771.9752091004247
 21
1152.147024101334
 31
0.0
  0
LINE
  5
37A
330
37
100
AcDbEntity
  8
Sichtbar (ISO)
100
AcDbLine
 10
773.2885745624517
 20
1152.830718886198
 30
0.0
 11
772.0172560169991
 21
1153.492525431716
 31
0.0
  0
LINE
  5
37B
330
37
100
AcDbEntity
  8
Sichtbar (ISO)
100
AcDbLine
 10
797.3618436383975
 20
1152.830718886198
 30
0.0
 11
798.6331621838501
 21
1153.492525431716
 31
0.0
  0
LINE
  5
37C
330
37
100
AcDbEntity
  8
Sichtbar (ISO)
100
AcDbLine
 10
773.7510906447704
 20
1167.631233520399
 30
0.0
 11
773.2253940669338
 21
1167.904893837408
 31
0.0
  0
LINE
  5
37D
330
37
100
AcDbEntity
  8
Sichtbar (ISO)
100
AcDbLine
 10
796.8993275560787
 20
1167.631233520399
 30
0.0
 11
797.4250241339155
 21
1167.904893837408
 31
0.0
  0
LINE
  5
37E
330
37
100
AcDbEntity
  8
Sichtbar (ISO)
100
AcDbLine
 10
773.4752091004247
 20
1168.147024101334
 30
0.0
 11
797.1752091004246
 21
1168.147024101334
 31
0.0
  0
LINE
  5
37F
330
37
100
AcDbEntity
  8
Sichtbar (ISO)
100
AcDbLine
 10
797.1752091004246
 20
1168.147024101334
 30
0.0
 11
797.4250241339155
 21
1167.904893837408
 31
0.0
  0
LINE
  5
380
330
37
100
AcDbEntity
  8
Sichtbar (ISO)
100
AcDbLine
 10
773.4752091004247
 20
1168.147024101334
 30
0.0
 11
773.2253940669338
 21
1167.904893837408
 31
0.0
  0
LINE
  5
381
330
37
100
AcDbEntity
  8
Sichtbar (ISO)
100
AcDbLine
 10
771.9752091004247
 20
1143.412494303397
 30
0.0
 11
771.9752091004247
 21
1152.147024101334
 31
0.0
  0
LINE
  5
382
330
37
100
AcDbEntity
  8
Sichtbar (ISO)
100
AcDbLine
 10
798.6752091004245
 20
1143.412494303397
 30
0.0
 11
798.6752091004245
 21
1152.147024101334
 31
0.0
  0
LINE
  5
383
330
37
100
AcDbEntity
  8
Sichtbar (ISO)
100
AcDbLine
 10
773.7510906447704
 20
739.4628146822689
 30
0.0
 11
796.8993275560789
 21
739.4628146822689
 31
0.0
  0
LINE
  5
384
330
37
100
AcDbEntity
  8
Sichtbar (ISO)
100
AcDbLine
 10
798.2126930181058
 20
740.1465094671329
 30
0.0
 11
772.4377251827434
 21
740.1465094671329
 31
0.0
  0
LINE
  5
385
330
37
100
AcDbEntity
  8
Sichtbar (ISO)
100
AcDbLine
 10
796.9413744726532
 20
740.8083160126509
 30
0.0
 11
773.709043728196
 21
740.8083160126509
 31
0.0
  0
LINE
  5
386
330
37
100
AcDbEntity
  8
Sichtbar (ISO)
100
AcDbLine
 10
798.2547399346803
 20
741.4920107975148
 30
0.0
 11
772.3956782661689
 21
741.4920107975148
 31
0.0
  0
LINE
  5
387
330
37
100
AcDbEntity
  8
Sichtbar (ISO)
100
AcDbLine
 10
796.9834213892277
 20
742.1538173430327
 30
0.0
 11
773.6669968116215
 21
742.1538173430327
 31
0.0
  0
LINE
  5
388
330
37
100
AcDbEntity
  8
Sichtbar (ISO)
100
AcDbLine
 10
798.2967868512546
 20
742.8375121278967
 30
0.0
 11
772.3536313495945
 21
742.8375121278967
 31
0.0
  0
LINE
  5
389
330
37
100
AcDbEntity
  8
Sichtbar (ISO)
100
AcDbLine
 10
797.0254683058022
 20
743.4993186734146
 30
0.0
 11
773.6249498950471
 21
743.4993186734146
 31
0.0
  0
LINE
  5
38A
330
37
100
AcDbEntity
  8
Sichtbar (ISO)
100
AcDbLine
 10
798.3388337678291
 20
744.1830134582787
 30
0.0
 11
772.3115844330201
 21
744.1830134582787
 31
0.0
  0
LINE
  5
38B
330
37
100
AcDbEntity
  8
Sichtbar (ISO)
100
AcDbLine
 10
797.0675152223766
 20
744.8448200037965
 30
0.0
 11
773.5829029784727
 21
744.8448200037965
 31
0.0
  0
LINE
  5
38C
330
37
100
AcDbEntity
  8
Sichtbar (ISO)
100
AcDbLine
 10
798.3808806844035
 20
745.5285147886605
 30
0.0
 11
772.2695375164456
 21
745.5285147886605
 31
0.0
  0
LINE
  5
38D
330
37
100
AcDbEntity
  8
Sichtbar (ISO)
100
AcDbLine
 10
797.1095621389509
 20
746.1903213341784
 30
0.0
 11
773.5408560618982
 21
746.1903213341784
 31
0.0
  0
LINE
  5
38E
330
37
100
AcDbEntity
  8
Sichtbar (ISO)
100
AcDbLine
 10
798.422927600978
 20
746.8740161190424
 30
0.0
 11
772.2274905998712
 21
746.8740161190424
 31
0.0
  0
LINE
  5
38F
330
37
100
AcDbEntity
  8
Sichtbar (ISO)
100
AcDbLine
 10
797.1516090555255
 20
747.5358226645603
 30
0.0
 11
773.4988091453238
 21
747.5358226645603
 31
0.0
  0
LINE
  5
390
330
37
100
AcDbEntity
  8
Sichtbar (ISO)
100
AcDbLine
 10
798.4649745175524
 20
748.2195174494242
 30
0.0
 11
772.1854436832968
 21
748.2195174494242
 31
0.0
  0
LINE
  5
391
330
37
100
AcDbEntity
  8
Sichtbar (ISO)
100
AcDbLine
 10
797.1936559720999
 20
748.8813239949422
 30
0.0
 11
773.4567622287494
 21
748.8813239949422
 31
0.0
  0
LINE
  5
392
330
37
100
AcDbEntity
  8
Sichtbar (ISO)
100
AcDbLine
 10
798.5070214341268
 20
749.5650187798062
 30
0.0
 11
772.1433967667223
 21
749.5650187798062
 31
0.0
  0
LINE
  5
393
330
37
100
AcDbEntity
  8
Sichtbar (ISO)
100
AcDbLine
 10
797.2357028886744
 20
750.2268253253241
 30
0.0
 11
773.414715312175
 21
750.2268253253241
 31
0.0
  0
LINE
  5
394
330
37
100
AcDbEntity
  8
Sichtbar (ISO)
100
AcDbLine
 10
798.5490683507013
 20
750.910520110188
 30
0.0
 11
772.1013498501479
 21
750.910520110188
 31
0.0
  0
LINE
  5
395
330
37
100
AcDbEntity
  8
Sichtbar (ISO)
100
AcDbLine
 10
797.2777498052487
 20
751.5723266557061
 30
0.0
 11
773.3726683956005
 21
751.5723266557061
 31
0.0
  0
LINE
  5
396
330
37
100
AcDbEntity
  8
Sichtbar (ISO)
100
AcDbLine
 10
798.5911152672757
 20
752.2560214405699
 30
0.0
 11
772.0593029335734
 21
752.2560214405699
 31
0.0
  0
LINE
  5
397
330
37
100
AcDbEntity
  8
Sichtbar (ISO)
100
AcDbLine
 10
773.3306214790261
 20
752.9178279860879
 30
0.0
 11
797.3197967218232
 21
752.9178279860879
 31
0.0
  0
LINE
  5
398
330
37
100
AcDbEntity
  8
Sichtbar (ISO)
100
AcDbLine
 10
798.6331621838501
 20
753.6015227709518
 30
0.0
 11
772.0172560169991
 21
753.6015227709518
 31
0.0
  0
LINE
  5
399
330
37
100
AcDbEntity
  8
Sichtbar (ISO)
100
AcDbLine
 10
771.9752091004246
 20
754.9470241013338
 30
0.0
 11
798.6752091004245
 21
754.9470241013338
 31
0.0
  0
LINE
  5
39A
330
37
100
AcDbEntity
  8
Sichtbar (ISO)
100
AcDbLine
 10
773.2885745624517
 20
754.2633293164698
 30
0.0
 11
797.3618436383977
 21
754.2633293164698
 31
0.0
  0
LINE
  5
39B
330
37
100
AcDbEntity
  8
Sichtbar (ISO)
100
AcDbLine
 10
773.2253940669336
 20
739.1891543652593
 30
0.0
 11
797.4250241339156
 21
739.1891543652593
 31
0.0
  0
LINE
  5
39C
330
37
100
AcDbEntity
  8
Sichtbar (ISO)
100
AcDbLine
 10
773.7510906447704
 20
739.4628146822689
 30
0.0
 11
772.4377251827434
 21
740.1465094671329
 31
0.0
  0
LINE
  5
39D
330
37
100
AcDbEntity
  8
Sichtbar (ISO)
100
AcDbLine
 10
796.8993275560789
 20
739.4628146822689
 30
0.0
 11
798.2126930181058
 21
740.1465094671329
 31
0.0
  0
LINE
  5
39E
330
37
100
AcDbEntity
  8
Sichtbar (ISO)
100
AcDbLine
 10
796.9413744726532
 20
740.8083160126509
 30
0.0
 11
798.2126930181058
 21
740.1465094671329
 31
0.0
  0
LINE
  5
39F
330
37
100
AcDbEntity
  8
Sichtbar (ISO)
100
AcDbLine
 10
773.709043728196
 20
740.8083160126509
 30
0.0
 11
772.4377251827434
 21
740.1465094671329
 31
0.0
  0
LINE
  5
3A0
330
37
100
AcDbEntity
  8
Sichtbar (ISO)
100
AcDbLine
 10
773.709043728196
 20
740.8083160126509
 30
0.0
 11
772.3956782661689
 21
741.4920107975148
 31
0.0
  0
LINE
  5
3A1
330
37
100
AcDbEntity
  8
Sichtbar (ISO)
100
AcDbLine
 10
796.9413744726534
 20
740.8083160126509
 30
0.0
 11
798.2547399346803
 21
741.4920107975148
 31
0.0
  0
LINE
  5
3A2
330
37
100
AcDbEntity
  8
Sichtbar (ISO)
100
AcDbLine
 10
796.9834213892277
 20
742.1538173430327
 30
0.0
 11
798.2547399346803
 21
741.4920107975147
 31
0.0
  0
LINE
  5
3A3
330
37
100
AcDbEntity
  8
Sichtbar (ISO)
100
AcDbLine
 10
773.6669968116215
 20
742.1538173430327
 30
0.0
 11
772.3956782661689
 21
741.4920107975147
 31
0.0
  0
LINE
  5
3A4
330
37
100
AcDbEntity
  8
Sichtbar (ISO)
100
AcDbLine
 10
773.6669968116215
 20
742.1538173430327
 30
0.0
 11
772.3536313495945
 21
742.8375121278967
 31
0.0
  0
LINE
  5
3A5
330
37
100
AcDbEntity
  8
Sichtbar (ISO)
100
AcDbLine
 10
796.9834213892277
 20
742.1538173430327
 30
0.0
 11
798.2967868512546
 21
742.8375121278967
 31
0.0
  0
LINE
  5
3A6
330
37
100
AcDbEntity
  8
Sichtbar (ISO)
100
AcDbLine
 10
797.0254683058022
 20
743.4993186734146
 30
0.0
 11
798.2967868512547
 21
742.8375121278967
 31
0.0
  0
LINE
  5
3A7
330
37
100
AcDbEntity
  8
Sichtbar (ISO)
100
AcDbLine
 10
773.6249498950471
 20
743.4993186734146
 30
0.0
 11
772.3536313495945
 21
742.8375121278967
 31
0.0
  0
LINE
  5
3A8
330
37
100
AcDbEntity
  8
Sichtbar (ISO)
100
AcDbLine
 10
773.6249498950471
 20
743.4993186734146
 30
0.0
 11
772.3115844330201
 21
744.1830134582787
 31
0.0
  0
LINE
  5
3A9
330
37
100
AcDbEntity
  8
Sichtbar (ISO)
100
AcDbLine
 10
797.0254683058022
 20
743.4993186734146
 30
0.0
 11
798.3388337678291
 21
744.1830134582787
 31
0.0
  0
LINE
  5
3AA
330
37
100
AcDbEntity
  8
Sichtbar (ISO)
100
AcDbLine
 10
797.0675152223766
 20
744.8448200037965
 30
0.0
 11
798.3388337678291
 21
744.1830134582787
 31
0.0
  0
LINE
  5
3AB
330
37
100
AcDbEntity
  8
Sichtbar (ISO)
100
AcDbLine
 10
773.5829029784727
 20
744.8448200037965
 30
0.0
 11
772.3115844330201
 21
744.1830134582787
 31
0.0
  0
LINE
  5
3AC
330
37
100
AcDbEntity
  8
Sichtbar (ISO)
100
AcDbLine
 10
773.5829029784727
 20
744.8448200037965
 30
0.0
 11
772.2695375164456
 21
745.5285147886605
 31
0.0
  0
LINE
  5
3AD
330
37
100
AcDbEntity
  8
Sichtbar (ISO)
100
AcDbLine
 10
797.0675152223766
 20
744.8448200037965
 30
0.0
 11
798.3808806844035
 21
745.5285147886605
 31
0.0
  0
LINE
  5
3AE
330
37
100
AcDbEntity
  8
Sichtbar (ISO)
100
AcDbLine
 10
797.1095621389511
 20
746.1903213341784
 30
0.0
 11
798.3808806844035
 21
745.5285147886605
 31
0.0
  0
LINE
  5
3AF
330
37
100
AcDbEntity
  8
Sichtbar (ISO)
100
AcDbLine
 10
773.5408560618982
 20
746.1903213341784
 30
0.0
 11
772.2695375164456
 21
745.5285147886605
 31
0.0
  0
LINE
  5
3B0
330
37
100
AcDbEntity
  8
Sichtbar (ISO)
100
AcDbLine
 10
773.5408560618982
 20
746.1903213341784
 30
0.0
 11
772.2274905998712
 21
746.8740161190424
 31
0.0
  0
LINE
  5
3B1
330
37
100
AcDbEntity
  8
Sichtbar (ISO)
100
AcDbLine
 10
797.1095621389511
 20
746.1903213341784
 30
0.0
 11
798.422927600978
 21
746.8740161190424
 31
0.0
  0
LINE
  5
3B2
330
37
100
AcDbEntity
  8
Sichtbar (ISO)
100
AcDbLine
 10
797.1516090555255
 20
747.5358226645603
 30
0.0
 11
798.422927600978
 21
746.8740161190424
 31
0.0
  0
LINE
  5
3B3
330
37
100
AcDbEntity
  8
Sichtbar (ISO)
100
AcDbLine
 10
773.4988091453238
 20
747.5358226645603
 30
0.0
 11
772.2274905998712
 21
746.8740161190424
 31
0.0
  0
LINE
  5
3B4
330
37
100
AcDbEntity
  8
Sichtbar (ISO)
100
AcDbLine
 10
773.4988091453238
 20
747.5358226645603
 30
0.0
 11
772.1854436832968
 21
748.2195174494242
 31
0.0
  0
LINE
  5
3B5
330
37
100
AcDbEntity
  8
Sichtbar (ISO)
100
AcDbLine
 10
797.1516090555255
 20
747.5358226645603
 30
0.0
 11
798.4649745175524
 21
748.2195174494242
 31
0.0
  0
LINE
  5
3B6
330
37
100
AcDbEntity
  8
Sichtbar (ISO)
100
AcDbLine
 10
797.1936559720999
 20
748.8813239949422
 30
0.0
 11
798.4649745175524
 21
748.2195174494242
 31
0.0
  0
LINE
  5
3B7
330
37
100
AcDbEntity
  8
Sichtbar (ISO)
100
AcDbLine
 10
773.4567622287494
 20
748.8813239949422
 30
0.0
 11
772.1854436832968
 21
748.2195174494242
 31
0.0
  0
LINE
  5
3B8
330
37
100
AcDbEntity
  8
Sichtbar (ISO)
100
AcDbLine
 10
773.4567622287494
 20
748.8813239949422
 30
0.0
 11
772.1433967667223
 21
749.5650187798062
 31
0.0
  0
LINE
  5
3B9
330
37
100
AcDbEntity
  8
Sichtbar (ISO)
100
AcDbLine
 10
797.1936559720999
 20
748.8813239949422
 30
0.0
 11
798.5070214341268
 21
749.5650187798062
 31
0.0
  0
LINE
  5
3BA
330
37
100
AcDbEntity
  8
Sichtbar (ISO)
100
AcDbLine
 10
797.2357028886744
 20
750.2268253253241
 30
0.0
 11
798.5070214341268
 21
749.5650187798062
 31
0.0
  0
LINE
  5
3BB
330
37
100
AcDbEntity
  8
Sichtbar (ISO)
100
AcDbLine
 10
773.414715312175
 20
750.2268253253241
 30
0.0
 11
772.1433967667223
 21
749.5650187798062
 31
0.0
  0
LINE
  5
3BC
330
37
100
AcDbEntity
  8
Sichtbar (ISO)
100
AcDbLine
 10
773.414715312175
 20
750.2268253253241
 30
0.0
 11
772.1013498501479
 21
750.910520110188
 31
0.0
  0
LINE
  5
3BD
330
37
100
AcDbEntity
  8
Sichtbar (ISO)
100
AcDbLine
 10
797.2357028886744
 20
750.2268253253241
 30
0.0
 11
798.5490683507013
 21
750.910520110188
 31
0.0
  0
LINE
  5
3BE
330
37
100
AcDbEntity
  8
Sichtbar (ISO)
100
AcDbLine
 10
797.2777498052488
 20
751.5723266557061
 30
0.0
 11
798.5490683507013
 21
750.910520110188
 31
0.0
  0
LINE
  5
3BF
330
37
100
AcDbEntity
  8
Sichtbar (ISO)
100
AcDbLine
 10
773.3726683956005
 20
751.5723266557061
 30
0.0
 11
772.1013498501479
 21
750.910520110188
 31
0.0
  0
LINE
  5
3C0
330
37
100
AcDbEntity
  8
Sichtbar (ISO)
100
AcDbLine
 10
773.3726683956005
 20
751.5723266557061
 30
0.0
 11
772.0593029335735
 21
752.2560214405699
 31
0.0
  0
LINE
  5
3C1
330
37
100
AcDbEntity
  8
Sichtbar (ISO)
100
AcDbLine
 10
797.2777498052488
 20
751.5723266557061
 30
0.0
 11
798.5911152672757
 21
752.2560214405699
 31
0.0
  0
LINE
  5
3C2
330
37
100
AcDbEntity
  8
Sichtbar (ISO)
100
AcDbLine
 10
797.3197967218232
 20
752.9178279860879
 30
0.0
 11
798.5911152672757
 21
752.2560214405699
 31
0.0
  0
LINE
  5
3C3
330
37
100
AcDbEntity
  8
Sichtbar (ISO)
100
AcDbLine
 10
773.3306214790261
 20
752.9178279860879
 30
0.0
 11
772.0593029335734
 21
752.2560214405699
 31
0.0
  0
LINE
  5
3C4
330
37
100
AcDbEntity
  8
Sichtbar (ISO)
100
AcDbLine
 10
773.3306214790261
 20
752.9178279860879
 30
0.0
 11
772.0172560169991
 21
753.6015227709518
 31
0.0
  0
LINE
  5
3C5
330
37
100
AcDbEntity
  8
Sichtbar (ISO)
100
AcDbLine
 10
797.3197967218232
 20
752.9178279860879
 30
0.0
 11
798.6331621838501
 21
753.6015227709518
 31
0.0
  0
LINE
  5
3C6
330
37
100
AcDbEntity
  8
Sichtbar (ISO)
100
AcDbLine
 10
773.2885745624517
 20
754.2633293164698
 30
0.0
 11
771.9752091004246
 21
754.9470241013338
 31
0.0
  0
LINE
  5
3C7
330
37
100
AcDbEntity
  8
Sichtbar (ISO)
100
AcDbLine
 10
797.3618436383977
 20
754.2633293164698
 30
0.0
 11
798.6752091004245
 21
754.9470241013338
 31
0.0
  0
LINE
  5
3C8
330
37
100
AcDbEntity
  8
Sichtbar (ISO)
100
AcDbLine
 10
797.3618436383977
 20
754.2633293164698
 30
0.0
 11
798.6331621838502
 21
753.6015227709518
 31
0.0
  0
LINE
  5
3C9
330
37
100
AcDbEntity
  8
Sichtbar (ISO)
100
AcDbLine
 10
773.2885745624517
 20
754.2633293164698
 30
0.0
 11
772.0172560169991
 21
753.6015227709518
 31
0.0
  0
LINE
  5
3CA
330
37
100
AcDbEntity
  8
Sichtbar (ISO)
100
AcDbLine
 10
796.8993275560789
 20
739.4628146822689
 30
0.0
 11
797.4250241339156
 21
739.1891543652593
 31
0.0
  0
LINE
  5
3CB
330
37
100
AcDbEntity
  8
Sichtbar (ISO)
100
AcDbLine
 10
773.7510906447704
 20
739.4628146822689
 30
0.0
 11
773.2253940669336
 21
739.1891543652593
 31
0.0
  0
LINE
  5
3CC
330
37
100
AcDbEntity
  8
Sichtbar (ISO)
100
AcDbLine
 10
797.1752091004246
 20
738.9470241013338
 30
0.0
 11
773.4752091004247
 21
738.9470241013338
 31
0.0
  0
LINE
  5
3CD
330
37
100
AcDbEntity
  8
Sichtbar (ISO)
100
AcDbLine
 10
773.4752091004247
 20
738.9470241013338
 30
0.0
 11
773.2253940669336
 21
739.1891543652593
 31
0.0
  0
LINE
  5
3CE
330
37
100
AcDbEntity
  8
Sichtbar (ISO)
100
AcDbLine
 10
797.1752091004246
 20
738.9470241013338
 30
0.0
 11
797.4250241339156
 21
739.1891543652593
 31
0.0
  0
LINE
  5
3CF
330
37
100
AcDbEntity
  8
Sichtbar (ISO)
100
AcDbLine
 10
798.6752091004245
 20
763.6815538992701
 30
0.0
 11
798.6752091004245
 21
754.9470241013338
 31
0.0
  0
LINE
  5
3D0
330
37
100
AcDbEntity
  8
Sichtbar (ISO)
100
AcDbLine
 10
771.9752091004246
 20
763.6815538992701
 30
0.0
 11
771.9752091004246
 21
754.9470241013338
 31
0.0
  0
LINE
  5
3D1
330
37
100
AcDbEntity
  8
Sichtbar (ISO)
100
AcDbLine
 10
798.6752091004245
 20
763.6815538992703
 30
0.0
 11
771.9752091004246
 21
763.6815538992703
 31
0.0
  0
LINE
  5
3D2
330
37
100
AcDbEntity
  8
Sichtbar (ISO)
100
AcDbLine
 10
771.2957063464687
 20
763.7533917377846
 30
0.0
 11
799.3547118543805
 21
763.7533917377846
 31
0.0
  0
ARC
  5
3D3
330
37
100
AcDbEntity
  8
Sichtbar (ISO)
100
AcDbCircle
 10
772.0544620723734
 20
767.6807686930064
 30
0.0
 40
3.999999999999962
100
AcDbArc
 50
259.0653688427407
 51
268.8647105110253
  0
ARC
  5
3D4
330
37
100
AcDbEntity
  8
Sichtbar (ISO)
100
AcDbCircle
 10
798.5959561284758
 20
767.6807686930064
 30
0.0
 40
3.999999999999963
100
AcDbArc
 50
271.1352894889747
 51
280.9346311572602
  0
LINE
  5
3D5
330
37
100
AcDbEntity
  8
Sichtbar (ISO)
100
AcDbLine
 10
771.2957063464687
 20
763.7533917377846
 30
0.0
 11
768.0544620723734
 21
767.6807686930064
 31
0.0
  0
LINE
  5
3D6
330
37
100
AcDbEntity
  8
Sichtbar (ISO)
100
AcDbLine
 10
799.3547118543806
 20
763.7533917377846
 30
0.0
 11
802.5959561284757
 21
767.6807686930064
 31
0.0
  0
LINE
  5
3D7
330
37
100
AcDbEntity
  8
Sichtbar (ISO)
100
AcDbLine
 10
771.9752091004246
 20
1143.412494303397
 30
0.0
 11
798.6752091004245
 21
1143.412494303397
 31
0.0
  0
LINE
  5
3D8
330
37
100
AcDbEntity
  8
Sichtbar (ISO)
100
AcDbLine
 10
799.3547118543806
 20
1143.340656464883
 30
0.0
 11
771.2957063464686
 21
1143.340656464883
 31
0.0
  0
ARC
  5
3D9
330
37
100
AcDbEntity
  8
Sichtbar (ISO)
100
AcDbCircle
 10
798.5959561284758
 20
1139.413279509661
 30
0.0
 40
3.999999999999962
100
AcDbArc
 50
79.06536884274098
 51
88.86471051102528
  0
ARC
  5
3DA
330
37
100
AcDbEntity
  8
Sichtbar (ISO)
100
AcDbCircle
 10
772.0544620723734
 20
1139.413279509661
 30
0.0
 40
3.999999999999963
100
AcDbArc
 50
91.13528948897469
 51
100.9346311572602
  0
LINE
  5
3DB
330
37
100
AcDbEntity
  8
Sichtbar (ISO)
100
AcDbLine
 10
799.3547118543805
 20
1143.340656464883
 30
0.0
 11
802.5959561284757
 21
1139.413279509661
 31
0.0
  0
LINE
  5
3DC
330
37
100
AcDbEntity
  8
Sichtbar (ISO)
100
AcDbLine
 10
771.2957063464686
 20
1143.340656464883
 30
0.0
 11
768.0544620723734
 21
1139.413279509661
 31
0.0
  0
CIRCLE
  5
3DD
330
37
100
AcDbEntity
  8
Sichtbar (ISO)
100
AcDbCircle
 10
785.3252091004129
 20
953.5470241013339
 30
0.0
 40
179.5972390380192
  0
CIRCLE
  5
3DE
330
37
100
AcDbEntity
  8
Sichtbar (ISO)
100
AcDbCircle
 10
785.3252091004133
 20
953.5470241013339
 30
0.0
 40
181.5179708567732
  0
POLYLINE
  5
3DF
330
37
100
AcDbEntity
  8
Sichtbar (ISO)
100
AcDb2dPolyline
 66
     1
 10
0.0
 20
0.0
 30
0.0
 70
   128
  0
VERTEX
  5
3E0
330
3DF
100
AcDbEntity
  8
Sichtbar (ISO)
100
AcDbVertex
100
AcDb2dVertex
 10
338.9245813059606
 20
381.3465132788676
 30
0.0
  0
VERTEX
  5
3E1
330
3DF
100
AcDbEntity
  8
Sichtbar (ISO)
100
AcDbVertex
100
AcDb2dVertex
 10
338.7879674601354
 20
378.8072323278444
 30
0.0
  0
VERTEX
  5
3E3
330
3DF
100
AcDbEntity
  8
Sichtbar (ISO)
100
AcDbVertex
100
AcDb2dVertex
 10
338.3805577921666
 20
376.3020976857202
 30
0.0
  0
VERTEX
  5
3E4
330
3DF
100
AcDbEntity
  8
Sichtbar (ISO)
100
AcDbVertex
100
AcDb2dVertex
 10
337.7060191798009
 20
373.853900678541
 30
0.0
  0
VERTEX
  5
3E5
330
3DF
100
AcDbEntity
  8
Sichtbar (ISO)
100
AcDbVertex
100
AcDb2dVertex
 10
336.7693870234288
 20
371.488452203657
 30
0.0
  0
VERTEX
  5
3E6
330
3DF
100
AcDbEntity
  8
Sichtbar (ISO)
100
AcDbVertex
100
AcDb2dVertex
 10
335.584995048026
 20
369.2445757464426
 30
0.0
  0
VERTEX
  5
3E7
330
3DF
100
AcDbEntity
  8
Sichtbar (ISO)
100
AcDbVertex
100
AcDb2dVertex
 10
334.1649882960118
 20
367.145304925825
 30
0.0
  0
VERTEX
  5
3E8
330
3DF
100
AcDbEntity
  8
Sichtbar (ISO)
100
AcDbVertex
100
AcDb2dVertex
 10
332.5206010508336
 20
365.2109255866069
 30
0.0
  0
VERTEX
  5
3E9
330
3DF
100
AcDbEntity
  8
Sichtbar (ISO)
100
AcDbVertex
100
AcDb2dVertex
 10
330.672599570731
 20
363.4698727206248
 30
0.0
  0
VERTEX
  5
3EA
330
3DF
100
AcDbEntity
  8
Sichtbar (ISO)
100
AcDbVertex
100
AcDb2dVertex
 10
328.6495464014806
 20
361.9497218207378
 30
0.0
  0
VERTEX
  5
3EB
330
3DF
100
AcDbEntity
  8
Sichtbar (ISO)
100
AcDbVertex
100
AcDb2dVertex
 10
326.4699046778478
 20
360.6647219733257
 30
0.0
  0
VERTEX
  5
3EC
330
3DF
100
AcDbEntity
  8
Sichtbar (ISO)
100
AcDbVertex
100
AcDb2dVertex
 10
324.1542928385533
 20
359.6299114302655
 30
0.0
  0
VERTEX
  5
3ED
330
3DF
100
AcDbEntity
  8
Sichtbar (ISO)
100
AcDbVertex
100
AcDb2dVertex
 10
321.7447440790929
 20
358.8649835661909
 30
0.0
  0
VERTEX
  5
3EE
330
3DF
100
AcDbEntity
  8
Sichtbar (ISO)
100
AcDbVertex
100
AcDb2dVertex
 10
319.2694633173741
 20
358.3774104193708
 30
0.0
  0
VERTEX
  5
3EF
330
3DF
100
AcDbEntity
  8
Sichtbar (ISO)
100
AcDbVertex
100
AcDb2dVertex
 10
316.7511956858434
 20
358.1718554572127
 30
0.0
  0
VERTEX
  5
3F0
330
3DF
100
AcDbEntity
  8
Sichtbar (ISO)
100
AcDbVertex
100
AcDb2dVertex
 10
314.2255370783605
 20
358.2518878058456
 30
0.0
  0
VERTEX
  5
3F1
330
3DF
100
AcDbEntity
  8
Sichtbar (ISO)
100
AcDbVertex
100
AcDb2dVertex
 10
311.7333285975254
 20
358.6144366339707
 30
0.0
  0
VERTEX
  5
3F2
330
3DF
100
AcDbEntity
  8
Sichtbar (ISO)
100
AcDbVertex
100
AcDb2dVertex
 10
309.2972724604405
 20
359.2539849356675
 30
0.0
  0
VERTEX
  5
3F3
330
3DF
100
AcDbEntity
  8
Sichtbar (ISO)
100
AcDbVertex
100
AcDb2dVertex
 10
306.9417588877476
 20
360.1641907767321
 30
0.0
  0
VERTEX
  5
3F4
330
3DF
100
AcDbEntity
  8
Sichtbar (ISO)
100
AcDbVertex
100
AcDb2dVertex
 10
304.7065179514683
 20
361.3286271170642
 30
0.0
  0
VERTEX
  5
3F5
330
3DF
100
AcDbEntity
  8
Sichtbar (ISO)
100
AcDbVertex
100
AcDb2dVertex
 10
302.6152961420811
 20
362.7320375517872
 30
0.0
  0
VERTEX
  5
3F6
330
3DF
100
AcDbEntity
  8
Sichtbar (ISO)
100
AcDbVertex
100
AcDb2dVertex
 10
300.6868093180455
 20
364.3608179167775
 30
0.0
  0
VERTEX
  5
3F7
330
3DF
100
AcDbEntity
  8
Sichtbar (ISO)
100
AcDbVertex
100
AcDb2dVertex
 10
298.9453010725773
 20
366.1948504523306
 30
0.0
  0
VERTEX
  5
3F8
330
3DF
100
AcDbEntity
  8
Sichtbar (ISO)
100
AcDbVertex
100
AcDb2dVertex
 10
297.4168889689244
 20
368.2047953681021
 30
0.0
  0
VERTEX
  5
3F9
330
3DF
100
AcDbEntity
  8
Sichtbar (ISO)
100
AcDbVertex
100
AcDb2dVertex
 10
296.1144523787297
 20
370.3712644652396
 30
0.0
  0
VERTEX
  5
3FA
330
3DF
100
AcDbEntity
  8
Sichtbar (ISO)
100
AcDbVertex
100
AcDb2dVertex
 10
295.0507311987676
 20
372.6747205332786
 30
0.0
  0
VERTEX
  5
3FB
330
3DF
100
AcDbEntity
  8
Sichtbar (ISO)
100
AcDbVertex
100
AcDb2dVertex
 10
294.2429928946294
 20
375.0787493065865
 30
0.0
  0
VERTEX
  5
3FC
330
3DF
100
AcDbEntity
  8
Sichtbar (ISO)
100
AcDbVertex
100
AcDb2dVertex
 10
293.700023190955
 20
377.5531234816582
 30
0.0
  0
VERTEX
  5
3FD
330
3DF
100
AcDbEntity
  8
Sichtbar (ISO)
100
AcDbVertex
100
AcDb2dVertex
 10
293.4264164137639
 20
380.0756354109318
 30
0.0
  0
VERTEX
  5
3FE
330
3DF
100
AcDbEntity
  8
Sichtbar (ISO)
100
AcDbVertex
100
AcDb2dVertex
 10
293.4265332388676
 20
382.6196068004639
 30
0.0
  0
VERTEX
  5
3FF
330
3DF
100
AcDbEntity
  8
Sichtbar (ISO)
100
AcDbVertex
100
AcDb2dVertex
 10
293.7002604174413
 20
385.1413616017372
 30
0.0
  0
VERTEX
  5
400
330
3DF
100
AcDbEntity
  8
Sichtbar (ISO)
100
AcDbVertex
100
AcDb2dVertex
 10
294.2434268164433
 20
387.615838296798
 30
0.0
  0
VERTEX
  5
401
330
3DF
100
AcDbEntity
  8
Sichtbar (ISO)
100
AcDbVertex
100
AcDb2dVertex
 10
295.0517158674992
 20
390.0207802132636
 30
0.0
  0
VERTEX
  5
402
330
3DF
100
AcDbEntity
  8
Sichtbar (ISO)
100
AcDbVertex
100
AcDb2dVertex
 10
296.1153345274724
 20
392.3234322146445
 30
0.0
  0
VERTEX
  5
403
330
3DF
100
AcDbEntity
  8
Sichtbar (ISO)
100
AcDbVertex
100
AcDb2dVertex
 10
297.4178092646397
 20
394.4895913676291
 30
0.0
  0
VERTEX
  5
404
330
3DF
100
AcDbEntity
  8
Sichtbar (ISO)
100
AcDbVertex
100
AcDb2dVertex
 10
298.9468126463689
 20
396.4999487475423
 30
0.0
  0
VERTEX
  5
405
330
3DF
100
AcDbEntity
  8
Sichtbar (ISO)
100
AcDbVertex
100
AcDb2dVertex
 10
300.6890170740879
 20
398.3342900351552
 30
0.0
  0
VERTEX
  5
406
330
3DF
100
AcDbEntity
  8
Sichtbar (ISO)
100
AcDbVertex
100
AcDb2dVertex
 10
302.6169221567906
 20
399.9622144774463
 30
0.0
  0
VERTEX
  5
407
330
3DF
100
AcDbEntity
  8
Sichtbar (ISO)
100
AcDbVertex
100
AcDb2dVertex
 10
304.7083561587133
 20
401.3654913977648
 30
0.0
  0
VERTEX
  5
408
330
3DF
100
AcDbEntity
  8
Sichtbar (ISO)
100
AcDbVertex
100
AcDb2dVertex
 10
306.9448321032323
 20
402.530220992949
 30
0.0
  0
VERTEX
  5
409
330
3DF
100
AcDbEntity
  8
Sichtbar (ISO)
100
AcDbVertex
100
AcDb2dVertex
 10
309.2998616862095
 20
403.4398784712815
 30
0.0
  0
VERTEX
  5
40A
330
3DF
100
AcDbEntity
  8
Sichtbar (ISO)
100
AcDbVertex
100
AcDb2dVertex
 10
311.7355387377537
 20
404.0790405348801
 30
0.0
  0
VERTEX
  5
40B
330
3DF
100
AcDbEntity
  8
Sichtbar (ISO)
100
AcDbVertex
100
AcDb2dVertex
 10
314.22885109661
 20
404.441429622557
 30
0.0
  0
VERTEX
  5
40C
330
3DF
100
AcDbEntity
  8
Sichtbar (ISO)
100
AcDbVertex
100
AcDb2dVertex
 10
316.7559068369664
 20
404.5210542754194
 30
0.0
  0
VERTEX
  5
40D
330
3DF
100
AcDbEntity
  8
Sichtbar (ISO)
100
AcDbVertex
100
AcDb2dVertex
 10
319.2720358538426
 20
404.3152585104962
 30
0.0
  0
VERTEX
  5
40E
330
3DF
100
AcDbEntity
  8
Sichtbar (ISO)
100
AcDbVertex
100
AcDb2dVertex
 10
321.7469422983922
 20
403.8274803236981
 30
0.0
  0
VERTEX
  5
40F
330
3DF
100
AcDbEntity
  8
Sichtbar (ISO)
100
AcDbVertex
100
AcDb2dVertex
 10
324.1577594446935
 20
403.061791904356
 30
0.0
  0
VERTEX
  5
410
330
3DF
100
AcDbEntity
  8
Sichtbar (ISO)
100
AcDbVertex
100
AcDb2dVertex
 10
326.4724319147862
 20
402.0270028189678
 30
0.0
  0
VERTEX
  5
411
330
3DF
100
AcDbEntity
  8
Sichtbar (ISO)
100
AcDbVertex
100
AcDb2dVertex
 10
328.6511342692174
 20
400.7422449664134
 30
0.0
  0
VERTEX
  5
412
330
3DF
100
AcDbEntity
  8
Sichtbar (ISO)
100
AcDbVertex
100
AcDb2dVertex
 10
330.6745355295934
 20
399.2215242461223
 30
0.0
  0
VERTEX
  5
413
330
3DF
100
AcDbEntity
  8
Sichtbar (ISO)
100
AcDbVertex
100
AcDb2dVertex
 10
332.5232284235753
 20
397.4793376997966
 30
0.0
  0
VERTEX
  5
414
330
3DF
100
AcDbEntity
  8
Sichtbar (ISO)
100
AcDbVertex
100
AcDb2dVertex
 10
334.1663186716832
 20
395.545966871168
 30
0.0
  0
VERTEX
  5
415
330
3DF
100
AcDbEntity
  8
Sichtbar (ISO)
100
AcDbVertex
100
AcDb2dVertex
 10
335.5860154795445
 20
393.4467485026377
 30
0.0
  0
VERTEX
  5
416
330
3DF
100
AcDbEntity
  8
Sichtbar (ISO)
100
AcDbVertex
100
AcDb2dVertex
 10
336.7706887888707
 20
391.2017514781016
 30
0.0
  0
VERTEX
  5
417
330
3DF
100
AcDbEntity
  8
Sichtbar (ISO)
100
AcDbVertex
100
AcDb2dVertex
 10
337.7069013285435
 20
388.8364830092447
 30
0.0
  0
VERTEX
  5
418
330
3DF
100
AcDbEntity
  8
Sichtbar (ISO)
100
AcDbVertex
100
AcDb2dVertex
 10
338.3808200526036
 20
386.3897224740045
 30
0.0
  0
VERTEX
  5
419
330
3DF
100
AcDbEntity
  8
Sichtbar (ISO)
100
AcDbVertex
100
AcDb2dVertex
 10
338.7880008387364
 20
383.8854848817842
 30
0.0
  0
VERTEX
  5
41A
330
3DF
100
AcDbEntity
  8
Sichtbar (ISO)
100
AcDbVertex
100
AcDb2dVertex
 10
338.9245813059606
 20
381.3465132788676
 30
0.0
  0
SEQEND
  5
3E2
330
3DF
100
AcDbEntity
  8
Sichtbar (ISO)
  0
CIRCLE
  5
41B
330
37
100
AcDbEntity
  8
Sichtbar (ISO)
100
AcDbCircle
 10
314.8220937418736
 20
381.3465132788708
 30
0.0
 40
18.2528842472241
  0
LINE
  5
41C
330
37
100
AcDbEntity
  8
Sichtbar (ISO)
100
AcDbLine
 10
380.716983023148
 20
236.2628630615932
 30
0.0
 11
380.716983023148
 21
526.430163496038
 31
0.0
  0
LINE
  5
41D
330
37
100
AcDbEntity
  8
Sichtbar (ISO)
100
AcDbLine
 10
276.8220937418737
 20
199.7465132788157
 30
0.0
 11
276.8220937418737
 21
562.9465132788157
 31
0.0
  0
LINE
  5
41E
330
37
100
AcDbEntity
  8
Sichtbar (ISO)
100
AcDbLine
 10
284.8220937418736
 20
199.7465132788157
 30
0.0
 11
284.8220937418736
 21
562.9465132788157
 31
0.0
  0
LINE
  5
41F
330
37
100
AcDbEntity
  8
Sichtbar (ISO)
100
AcDbLine
 10
341.2597316581283
 20
206.9930040783283
 30
0.0
 11
341.2597316581283
 21
555.7000224793031
 31
0.0
  0
ARC
  5
420
330
37
100
AcDbEntity
  8
Sichtbar (ISO)
100
AcDbCircle
 10
-254.9360154277729
 20
381.3465132788157
 30
0.0
 40
652.0
100
AcDbArc
 50
347.1428570276888
 51
354.9295070209515
  0
ARC
  5
421
330
37
100
AcDbEntity
  8
Sichtbar (ISO)
100
AcDbCircle
 10
-254.9360154277729
 20
381.3465132788157
 30
0.0
 40
652.0
100
AcDbArc
 50
5.070492979048398
 51
12.85714297231129
  0
ARC
  5
422
330
37
100
AcDbEntity
  8
Sichtbar (ISO)
100
AcDbCircle
 10
366.6220937418797
 20
326.1965638186962
 30
0.0
 40
27.99999999999391
100
AcDbArc
 50
354.9295070209516
 51
0.0
  0
ARC
  5
423
330
37
100
AcDbEntity
  8
Sichtbar (ISO)
100
AcDbCircle
 10
366.6220937418797
 20
436.4964627389351
 30
0.0
 40
27.99999999999391
100
AcDbArc
 50
0.0
 51
5.070492979048398
  0
LINE
  5
424
330
37
100
AcDbEntity
  8
Sichtbar (ISO)
100
AcDbLine
 10
394.6220937418737
 20
396.3465132788314
 30
0.0
 11
394.6220937418737
 21
436.4964627389351
 31
0.0
  0
LINE
  5
425
330
37
100
AcDbEntity
  8
Sichtbar (ISO)
100
AcDbLine
 10
394.6220937418737
 20
326.1965638186962
 30
0.0
 11
394.6220937418737
 21
366.3465132788314
 31
0.0
  0
LINE
  5
426
330
37
100
AcDbEntity
  8
Sichtbar (ISO)
100
AcDbLine
 10
276.8220937418737
 20
562.9465132788157
 30
0.0
 11
284.8220937418736
 21
562.9465132788157
 31
0.0
  0
LINE
  5
427
330
37
100
AcDbEntity
  8
Sichtbar (ISO)
100
AcDbLine
 10
276.8220937418737
 20
199.7465132788157
 30
0.0
 11
284.8220937418736
 21
199.7465132788157
 31
0.0
  0
ARC
  5
428
330
37
100
AcDbEntity
  8
Sichtbar (ISO)
100
AcDbCircle
 10
279.8220937418737
 20
200.9812371756893
 30
0.0
 40
360.0
100
AcDbArc
 50
80.17379881807972
 51
89.20419969799857
  0
ARC
  5
429
330
37
100
AcDbEntity
  8
Sichtbar (ISO)
100
AcDbCircle
 10
279.8220937418737
 20
561.711789381942
 30
0.0
 40
360.0
100
AcDbArc
 50
270.7958003020014
 51
279.8262011819204
  0
ARC
  5
42A
330
37
100
AcDbEntity
  8
Sichtbar (ISO)
100
AcDbCircle
 10
333.6822533611443
 20
258.4379437970095
 30
0.0
 40
52.0
100
AcDbArc
 50
278.3790176620017
 51
334.7579106646938
  0
ARC
  5
42B
330
37
100
AcDbEntity
  8
Sichtbar (ISO)
100
AcDbCircle
 10
333.6822533611443
 20
504.2550827606218
 30
0.0
 40
52.00000000000001
100
AcDbArc
 50
25.24208933530621
 51
81.62098233799836
  0
ARC
  5
42C
330
37
100
AcDbEntity
  8
Sichtbar (ISO)
100
AcDbCircle
 10
196.0220937434171
 20
326.3161112693677
 30
0.0
 40
28.00000000000002
100
AcDbArc
 50
180.0
 51
185.056670652204
  0
ARC
  5
42D
330
37
100
AcDbEntity
  8
Sichtbar (ISO)
100
AcDbCircle
 10
196.0220937434171
 20
436.3769152882636
 30
0.0
 40
28.00000000000003
100
AcDbArc
 50
174.943329347796
 51
180.0
  0
LINE
  5
42E
330
37
100
AcDbEntity
  8
Sichtbar (ISO)
100
AcDbLine
 10
168.0220937434171
 20
436.3769152882636
 30
0.0
 11
168.0220937434171
 21
326.3161112693677
 31
0.0
  0
ARC
  5
42F
330
37
100
AcDbEntity
  8
Sichtbar (ISO)
100
AcDbCircle
 10
817.5934894816691
 20
381.3161112693681
 30
0.0
 40
651.9999999999996
100
AcDbArc
 50
185.0566706522041
 51
191.8926013736531
  0
ARC
  5
430
330
37
100
AcDbEntity
  8
Sichtbar (ISO)
100
AcDbCircle
 10
817.5934894816691
 20
381.3769152882635
 30
0.0
 40
651.9999999999996
100
AcDbArc
 50
168.1073986263469
 51
174.943329347796
  0
ARC
  5
431
330
37
100
AcDbEntity
  8
Sichtbar (ISO)
100
AcDbCircle
 10
230.4721269794252
 20
257.6694142107419
 30
0.0
 40
51.99999999999998
100
AcDbArc
 50
191.8926013736531
 51
260.8399162249298
  0
ARC
  5
432
330
37
100
AcDbEntity
  8
Sichtbar (ISO)
100
AcDbCircle
 10
230.4721269794252
 20
505.0236123468895
 30
0.0
 40
51.99999999999999
100
AcDbArc
 50
99.16008377507013
 51
168.1073986263468
  0
ARC
  5
433
330
37
100
AcDbEntity
  8
Sichtbar (ISO)
100
AcDbCircle
 10
279.8220937423894
 20
198.9769152882639
 30
0.0
 40
361.9999999999998
100
AcDbArc
 50
90.77555638722385
 51
99.16008377507013
  0
ARC
  5
434
330
37
100
AcDbEntity
  8
Sichtbar (ISO)
100
AcDbCircle
 10
279.8220937423894
 20
563.7161112693674
 30
0.0
 40
361.9999999999998
100
AcDbArc
 50
260.8399162249298
 51
269.2244436127761
  0
CIRCLE
  5
435
330
37
100
AcDbEntity
  8
Sichtbar (ISO)
100
AcDbCircle
 10
314.8220937418737
 20
381.346513278879
 30
0.0
 40
12.88748391768117
  0
CIRCLE
  5
436
330
37
100
AcDbEntity
  8
Sichtbar (ISO)
100
AcDbCircle
 10
314.8220937418737
 20
381.3465132788786
 30
0.0
 40
12.92953083425561
  0
CIRCLE
  5
437
330
37
100
AcDbEntity
  8
Sichtbar (ISO)
100
AcDbCircle
 10
314.8220937418737
 20
381.3465132788782
 30
0.0
 40
12.97157775083004
  0
CIRCLE
  5
438
330
37
100
AcDbEntity
  8
Sichtbar (ISO)
100
AcDbCircle
 10
314.8220937418737
 20
381.3465132788778
 30
0.0
 40
13.01362466740448
  0
CIRCLE
  5
439
330
37
100
AcDbEntity
  8
Sichtbar (ISO)
100
AcDbCircle
 10
314.8220937418737
 20
381.3465132788774
 30
0.0
 40
13.05567158397891
  0
CIRCLE
  5
43A
330
37
100
AcDbEntity
  8
Sichtbar (ISO)
100
AcDbCircle
 10
314.8220937418737
 20
381.346513278877
 30
0.0
 40
13.09771850055335
  0
CIRCLE
  5
43B
330
37
100
AcDbEntity
  8
Sichtbar (ISO)
100
AcDbCircle
 10
314.8220937418737
 20
381.3465132788766
 30
0.0
 40
13.13976541712778
  0
CIRCLE
  5
43C
330
37
100
AcDbEntity
  8
Sichtbar (ISO)
100
AcDbCircle
 10
314.8220937418737
 20
381.3465132788762
 30
0.0
 40
13.18181233370222
  0
CIRCLE
  5
43D
330
37
100
AcDbEntity
  8
Sichtbar (ISO)
100
AcDbCircle
 10
314.8220937418737
 20
381.3465132788758
 30
0.0
 40
13.22385925027665
  0
CIRCLE
  5
43E
330
37
100
AcDbEntity
  8
Sichtbar (ISO)
100
AcDbCircle
 10
314.8220937418737
 20
381.3465132788754
 30
0.0
 40
13.26590616685108
  0
CIRCLE
  5
43F
330
37
100
AcDbEntity
  8
Sichtbar (ISO)
100
AcDbCircle
 10
314.8220937418737
 20
381.346513278875
 30
0.0
 40
13.30795308342552
  0
CIRCLE
  5
440
330
37
100
AcDbEntity
  8
Sichtbar (ISO)
100
AcDbCircle
 10
314.8220937418737
 20
381.3465132788746
 30
0.0
 40
13.34999999999995
  0
CIRCLE
  5
441
330
37
100
AcDbEntity
  8
Sichtbar (ISO)
100
AcDbCircle
 10
314.8220937418737
 20
381.3465132788793
 30
0.0
 40
12.09981503349096
  0
CIRCLE
  5
442
330
37
100
AcDbEntity
  8
Sichtbar (ISO)
100
AcDbCircle
 10
314.8220937418737
 20
381.3465132788794
 30
0.0
 40
11.84999999999996
  0
CIRCLE
  5
443
330
37
100
AcDbEntity
  8
Sichtbar (ISO)
100
AcDbCircle
 10
314.8220937418737
 20
381.3465132788794
 30
0.0
 40
9.999999999999966
  0
ELLIPSE
  5
444
330
37
100
AcDbEntity
  8
Sichtbar (ISO)
100
AcDbEllipse
 10
398.4110811357607
 20
381.3465132788639
 30
0.0
 11
-0.000000000000003
 21
-3.500000000000012
 31
0.0
210
0.0
220
0.0
230
1.0
 40
0.0697564737441211
 41
3.141592653711362
 42
6.283185307301155
  0
LINE
  5
445
330
37
100
AcDbEntity
  8
Sichtbar (ISO)
100
AcDbLine
 10
398.8384513450444
 20
377.8465132788621
 30
0.0
 11
398.4110811357607
 21
377.8465132788638
 31
0.0
  0
POLYLINE
  5
446
330
37
100
AcDbEntity
  8
Sichtbar (ISO)
100
AcDb2dPolyline
 66
     1
 10
0.0
 20
0.0
 30
0.0
 70
   128
  0
VERTEX
  5
447
330
446
100
AcDbEntity
  8
Sichtbar (ISO)
100
AcDbVertex
100
AcDb2dVertex
 10
399.2731221113844
 20
387.190844066519
 30
0.0
  0
VERTEX
  5
448
330
446
100
AcDbEntity
  8
Sichtbar (ISO)
100
AcDbVertex
100
AcDb2dVertex
 10
399.3009431408554
 20
386.9987764433803
 30
0.0
  0
VERTEX
  5
44A
330
446
100
AcDbEntity
  8
Sichtbar (ISO)
100
AcDbVertex
100
AcDb2dVertex
 10
399.2937472576985
 20
386.7325749472558
 30
0.0
  0
VERTEX
  5
44B
330
446
100
AcDbEntity
  8
Sichtbar (ISO)
100
AcDbVertex
100
AcDb2dVertex
 10
399.2561646056847
 20
386.3981618956504
 30
0.0
  0
VERTEX
  5
44C
330
446
100
AcDbEntity
  8
Sichtbar (ISO)
100
AcDbVertex
100
AcDb2dVertex
 10
399.1957812506995
 20
386.0073890761313
 30
0.0
  0
VERTEX
  5
44D
330
446
100
AcDbEntity
  8
Sichtbar (ISO)
100
AcDbVertex
100
AcDb2dVertex
 10
399.1203366639654
 20
385.5724277571614
 30
0.0
  0
VERTEX
  5
44E
330
446
100
AcDbEntity
  8
Sichtbar (ISO)
100
AcDbVertex
100
AcDb2dVertex
 10
399.0341566208434
 20
385.0851264075214
 30
0.0
  0
VERTEX
  5
44F
330
446
100
AcDbEntity
  8
Sichtbar (ISO)
100
AcDbVertex
100
AcDb2dVertex
 10
398.9426385940445
 20
384.5408287123613
 30
0.0
  0
VERTEX
  5
450
330
446
100
AcDbEntity
  8
Sichtbar (ISO)
100
AcDbVertex
100
AcDb2dVertex
 10
398.8538053973548
 20
383.9493575171402
 30
0.0
  0
VERTEX
  5
451
330
446
100
AcDbEntity
  8
Sichtbar (ISO)
100
AcDbVertex
100
AcDb2dVertex
 10
398.7759228548164
 20
383.3206131533554
 30
0.0
  0
VERTEX
  5
452
330
446
100
AcDbEntity
  8
Sichtbar (ISO)
100
AcDbVertex
100
AcDb2dVertex
 10
398.7162920667896
 20
382.6670267657211
 30
0.0
  0
VERTEX
  5
453
330
446
100
AcDbEntity
  8
Sichtbar (ISO)
100
AcDbVertex
100
AcDb2dVertex
 10
398.6782943506777
 20
382.0038583353927
 30
0.0
  0
VERTEX
  5
454
330
446
100
AcDbEntity
  8
Sichtbar (ISO)
100
AcDbVertex
100
AcDb2dVertex
 10
398.6649558112649
 20
381.3465132788588
 30
0.0
  0
VERTEX
  5
455
330
446
100
AcDbEntity
  8
Sichtbar (ISO)
100
AcDbVertex
100
AcDb2dVertex
 10
398.6782943506777
 20
380.689168222325
 30
0.0
  0
VERTEX
  5
456
330
446
100
AcDbEntity
  8
Sichtbar (ISO)
100
AcDbVertex
100
AcDb2dVertex
 10
398.7162920667896
 20
380.0259997919967
 30
0.0
  0
VERTEX
  5
457
330
446
100
AcDbEntity
  8
Sichtbar (ISO)
100
AcDbVertex
100
AcDb2dVertex
 10
398.7759228548164
 20
379.3724134043625
 30
0.0
  0
VERTEX
  5
458
330
446
100
AcDbEntity
  8
Sichtbar (ISO)
100
AcDbVertex
100
AcDb2dVertex
 10
398.8538053973548
 20
378.7436690405777
 30
0.0
  0
VERTEX
  5
459
330
446
100
AcDbEntity
  8
Sichtbar (ISO)
100
AcDbVertex
100
AcDb2dVertex
 10
398.9426385940445
 20
378.1521978453569
 30
0.0
  0
VERTEX
  5
45A
330
446
100
AcDbEntity
  8
Sichtbar (ISO)
100
AcDbVertex
100
AcDb2dVertex
 10
399.0341566208434
 20
377.6079001501971
 30
0.0
  0
VERTEX
  5
45B
330
446
100
AcDbEntity
  8
Sichtbar (ISO)
100
AcDbVertex
100
AcDb2dVertex
 10
399.1203366639654
 20
377.1205988005573
 30
0.0
  0
VERTEX
  5
45C
330
446
100
AcDbEntity
  8
Sichtbar (ISO)
100
AcDbVertex
100
AcDb2dVertex
 10
399.1957812506995
 20
376.6856374815878
 30
0.0
  0
VERTEX
  5
45D
330
446
100
AcDbEntity
  8
Sichtbar (ISO)
100
AcDbVertex
100
AcDb2dVertex
 10
399.2561646056847
 20
376.294863469976
 30
0.0
  0
VERTEX
  5
45E
330
446
100
AcDbEntity
  8
Sichtbar (ISO)
100
AcDbVertex
100
AcDb2dVertex
 10
399.2937472576985
 20
375.9604516104638
 30
0.0
  0
VERTEX
  5
45F
330
446
100
AcDbEntity
  8
Sichtbar (ISO)
100
AcDbVertex
100
AcDb2dVertex
 10
399.3009431408554
 20
375.6942501143397
 30
0.0
  0
VERTEX
  5
460
330
446
100
AcDbEntity
  8
Sichtbar (ISO)
100
AcDbVertex
100
AcDb2dVertex
 10
399.2731221113844
 20
375.5021824912016
 30
0.0
  0
SEQEND
  5
449
330
446
100
AcDbEntity
  8
Sichtbar (ISO)
  0
ELLIPSE
  5
461
330
37
100
AcDbEntity
  8
Sichtbar (ISO)
100
AcDbEllipse
 10
399.178402346946
 20
381.3465132788607
 30
0.0
 11
-0.0000000000001194
 21
6.00000000000003
 31
0.0
210
0.0
220
0.0
230
1.0
 40
0.0697564737441211
 41
6.05489683904201
 42
7.231155048562224
  0
ELLIPSE
  5
462
330
37
100
AcDbEntity
  8
Sichtbar (ISO)
100
AcDbEllipse
 10
399.178402346946
 20
381.3465132788607
 30
0.0
 11
0.0000000000001194
 21
-6.000000000000023
 31
0.0
210
0.0
220
0.0
230
1.0
 40
0.0697564737441211
 41
5.335215565796429
 42
6.51147377531659
  0
LINE
  5
463
330
37
100
AcDbEntity
  8
Sichtbar (ISO)
100
AcDbLine
 10
398.4110811357607
 20
384.8465132788639
 30
0.0
 11
398.8384513450444
 21
384.8465132788621
 31
0.0
  0
LINE
  5
464
330
37
100
AcDbEntity
  8
Sichtbar (ISO)
100
AcDbLine
 10
399.2731221776572
 20
396.3465132788602
 30
0.0
 11
397.6022722483453
 21
396.3465132788673
 31
0.0
  0
LINE
  5
465
330
37
100
AcDbEntity
  8
Sichtbar (ISO)
100
AcDbLine
 10
397.6022722483453
 20
366.3465132788672
 30
0.0
 11
399.2731221776572
 21
366.3465132788602
 31
0.0
  0
LINE
  5
466
330
37
100
AcDbEntity
  8
Sichtbar (ISO)
100
AcDbLine
 10
386.5188781143591
 20
366.3465132788551
 30
0.0
 11
394.849449376767
 21
366.346513278858
 31
0.0
  0
LINE
  5
467
330
37
100
AcDbEntity
  8
Sichtbar (ISO)
100
AcDbLine
 10
394.849449376767
 20
396.3465132788581
 30
0.0
 11
386.5188781143592
 21
396.3465132788552
 31
0.0
  0
ELLIPSE
  5
468
330
37
100
AcDbEntity
  8
Sichtbar (ISO)
100
AcDbEllipse
 10
401.6547571648622
 20
381.3465132788501
 30
0.0
 11
0.0000000000011931
 21
-60.00000000000018
 31
0.0
210
0.0
220
0.0
230
1.0
 40
0.0697564737441211
 41
4.459708725242311
 42
4.965069235526465
  0
ELLIPSE
  5
469
330
37
100
AcDbEntity
  8
Sichtbar (ISO)
100
AcDbEllipse
 10
399.6596290643426
 20
381.3465132788501
 30
0.0
 11
-0.0000000000011951
 21
59.99999999999999
 31
0.0
210
0.0
220
0.0
230
1.0
 40
0.0697564737441211
 41
1.318116071652516
 42
1.823476581936676
  0
LINE
  5
46A
330
37
100
AcDbEntity
  8
Sichtbar (ISO)
100
AcDbLine
 10
397.6022722483453
 20
366.3465132788672
 30
0.0
 11
395.6071441478255
 21
366.3465132788672
 31
0.0
  0
LINE
  5
46B
330
37
100
AcDbEntity
  8
Sichtbar (ISO)
100
AcDbLine
 10
395.6071441478256
 20
396.3465132788673
 30
0.0
 11
397.6022722483453
 21
396.3465132788673
 31
0.0
  0
LINE
  5
46C
330
37
100
AcDbEntity
  8
Sichtbar (ISO)
100
AcDbLine
 10
384.8018451759185
 20
396.3465132788539
 30
0.0
 11
386.5188781143592
 21
396.3465132788552
 31
0.0
  0
LINE
  5
46D
330
37
100
AcDbEntity
  8
Sichtbar (ISO)
100
AcDbLine
 10
386.5188781143592
 20
366.3465132788552
 30
0.0
 11
384.8018451759185
 21
366.3465132788538
 31
0.0
  0
LINE
  5
46E
330
37
100
AcDbEntity
  8
Sichtbar (ISO)
100
AcDbLine
 10
384.8018451759186
 20
366.3465132788538
 30
0.0
 11
384.8018451759186
 21
396.3465132788539
 31
0.0
  0
LINE
  5
46F
330
37
100
AcDbEntity
  8
Sichtbar (ISO)
100
AcDbLine
 10
399.3023535745393
 20
366.3465132788599
 30
0.0
 11
399.2731221776572
 21
366.3465132788602
 31
0.0
  0
LINE
  5
470
330
37
100
AcDbEntity
  8
Sichtbar (ISO)
100
AcDbLine
 10
399.2731221776572
 20
396.3465132788603
 30
0.0
 11
399.3023535745393
 21
396.34651327886
 31
0.0
  0
LINE
  5
471
330
37
100
AcDbEntity
  8
Sichtbar (ISO)
100
AcDbLine
 10
399.3023535745393
 20
366.3465132788599
 30
0.0
 11
399.3023535745393
 21
375.7624082164546
 31
0.0
  0
LINE
  5
472
330
37
100
AcDbEntity
  8
Sichtbar (ISO)
100
AcDbLine
 10
399.3023535745393
 20
386.9306183412654
 30
0.0
 11
399.3023535745393
 21
396.34651327886
 31
0.0
  0
LINE
  5
473
330
37
100
AcDbEntity
  8
Sichtbar (ISO)
100
AcDbLine
 10
394.849449376767
 20
366.346513278858
 30
0.0
 11
395.6071441478255
 21
366.3465132788583
 31
0.0
  0
LINE
  5
474
330
37
100
AcDbEntity
  8
Sichtbar (ISO)
100
AcDbLine
 10
395.6071441478255
 20
396.3465132788584
 30
0.0
 11
394.849449376767
 21
396.3465132788581
 31
0.0
  0
CIRCLE
  5
475
330
37
100
AcDbEntity
  8
Sichtbar (ISO)
100
AcDbCircle
 10
314.8220937418737
 20
381.3465132788708
 30
0.0
 40
17.27074702805117
  0
CIRCLE
  5
476
330
37
100
AcDbEntity
  8
Sichtbar (ISO)
100
AcDbCircle
 10
314.8220937418737
 20
381.346513278872
 30
0.0
 40
14.02950275395596
  0
LINE
  5
477
330
37
100
AcDbEntity
  8
Sichtbar (ISO)
100
AcDbLine
 10
274.9222068526902
 20
201.7492742407964
 30
0.0
 11
274.9222068526902
 21
560.9437523168349
 31
0.0
  0
LINE
  5
478
330
37
100
AcDbEntity
  8
Sichtbar (ISO)
100
AcDbLine
 10
274.9222068526902
 20
560.9437523168349
 30
0.0
 11
276.8220937418736
 21
562.8644841355889
 31
0.0
  0
LINE
  5
479
330
37
100
AcDbEntity
  8
Sichtbar (ISO)
100
AcDbLine
 10
274.9222068526902
 20
201.7492742407964
 30
0.0
 11
276.8220937418736
 21
199.8285424220424
 31
0.0
  0
INSERT
  5
47A
330
37
100
AcDbEntity
  8
0
100
AcDbBlockReference
  2
P gross
 10
232.0069558863077
 20
382.0504546035823
 30
0.0
 41
2.0
 42
2.0
 43
2.0
  0
INSERT
  5
47B
330
37
100
AcDbEntity
  8
0
100
AcDbBlockReference
  2
P gross
 10
242.1604209982493
 20
953.7075012905141
 30
0.0
 41
2.0
 42
2.0
 43
2.0
  0
INSERT
  5
47C
330
37
100
AcDbEntity
  8
0
100
AcDbBlockReference
  2
P gross
 10
784.4398307980018
 20
812.2749551828901
 30
0.0
 41
2.0
 42
2.0
 43
2.0
  0
ENDSEC
  0
SECTION
  2
OBJECTS
  0
DICTIONARY
  5
C
330
0
100
AcDbDictionary
281
     1
  3
ACAD_COLOR
350
30
  3
ACAD_GROUP
350
D
  3
ACAD_LAYOUT
350
2F
  3
ACAD_MATERIAL
350
10
  3
ACAD_MLINESTYLE
350
2C
  3
ACAD_PLOTSETTINGS
350
2E
  3
ACAD_PLOTSTYLENAME
350
E
  3
ACAD_TABLESTYLE
350
31
  3
ACAD_VISUALSTYLE
350
14
  3
AcDbVariableDictionary
350
47D
  0
DICTIONARY
  5
30
102
{ACAD_REACTORS
330
C
102
}
330
C
100
AcDbDictionary
281
     1
  0
DICTIONARY
  5
D
102
{ACAD_REACTORS
330
C
102
}
330
C
100
AcDbDictionary
281
     1
  0
DICTIONARY
  5
2F
102
{ACAD_REACTORS
330
C
102
}
330
C
100
AcDbDictionary
281
     1
  3
Layout1
350
36
  3
Layout2
350
3E
  3
Model
350
3A
  0
DICTIONARY
  5
10
102
{ACAD_REACTORS
330
C
102
}
330
C
100
AcDbDictionary
281
     1
  3
ByBlock
350
12
  3
ByLayer
350
11
  3
Global
350
13
  0
DICTIONARY
  5
2C
102
{ACAD_REACTORS
330
C
102
}
330
C
100
AcDbDictionary
281
     1
  3
Standard
350
2D
  0
DICTIONARY
  5
2E
102
{ACAD_REACTORS
330
C
102
}
330
C
100
AcDbDictionary
281
     1
  0
ACDBDICTIONARYWDFLT
  5
E
102
{ACAD_REACTORS
330
C
102
}
330
C
100
AcDbDictionary
281
     1
  3
Normal
350
F
100
AcDbDictionaryWithDefault
340
F
  0
DICTIONARY
  5
31
102
{ACAD_REACTORS
330
C
102
}
330
C
100
AcDbDictionary
281
     1
  3
Standard
350
32
  0
DICTIONARY
  5
14
102
{ACAD_REACTORS
330
C
102
}
330
C
100
AcDbDictionary
281
     1
  3
2dWireframe
350
1A
  3
3D Hidden
350
1C
  3
3dWireframe
350
1B
  3
Basic
350
19
  3
Brighten
350
20
  3
ColorChange
350
24
  3
Conceptual
350
1D
  3
Dim
350
1F
  3
Facepattern
350
23
  3
Flat
350
15
  3
FlatWithEdges
350
16
  3
Gouraud
350
17
  3
GouraudWithEdges
350
18
  3
Linepattern
350
22
  3
Realistic
350
1E
  3
Thicken
350
21
  0
DICTIONARY
  5
47D
102
{ACAD_REACTORS
330
C
102
}
330
C
100
AcDbDictionary
281
     1
  3
CTABLESTYLE
350
47E
  0
LAYOUT
  5
36
102
{ACAD_REACTORS
330
2F
102
}
330
2F
100
AcDbPlotSettings
  1

  2

  4

  6

 40
0.0
 41
0.0
 42
0.0
 43
0.0
 44
0.0
 45
0.0
 46
0.0
 47
0.0
 48
0.0
 49
0.0
140
0.0
141
0.0
142
1.0
143
1.0
 70
   688
 72
     0
 73
     0
 74
     5
  7

 75
    16
147
1.0
 76
     0
 77
     2
 78
   300
148
0.0
149
0.0
100
AcDbLayout
  1
Layout1
 70
     1
 71
     1
 10
0.0
 20
0.0
 11
12.0
 21
9.0
 12
0.0
 22
0.0
 32
0.0
 14
0.0
 24
0.0
 34
0.0
 15
0.0
 25
0.0
 35
0.0
146
0.0
 13
0.0
 23
0.0
 33
0.0
 16
1.0
 26
0.0
 36
0.0
 17
0.0
 27
1.0
 37
0.0
 76
     0
330
33
  0
LAYOUT
  5
3E
102
{ACAD_REACTORS
330
2F
102
}
330
2F
100
AcDbPlotSettings
  1

  2

  4

  6

 40
0.0
 41
0.0
 42
0.0
 43
0.0
 44
0.0
 45
0.0
 46
0.0
 47
0.0
 48
0.0
 49
0.0
140
0.0
141
0.0
142
1.0
143
1.0
 70
   688
 72
     0
 73
     0
 74
     5
  7

 75
    16
147
1.0
 76
     0
 77
     2
 78
   300
148
0.0
149
0.0
100
AcDbLayout
  1
Layout2
 70
     1
 71
     2
 10
0.0
 20
0.0
 11
12.0
 21
9.0
 12
0.0
 22
0.0
 32
0.0
 14
0.0
 24
0.0
 34
0.0
 15
0.0
 25
0.0
 35
0.0
146
0.0
 13
0.0
 23
0.0
 33
0.0
 16
1.0
 26
0.0
 36
0.0
 17
0.0
 27
1.0
 37
0.0
 76
     0
330
3B
  0
LAYOUT
  5
3A
102
{ACAD_REACTORS
330
2F
102
}
330
2F
100
AcDbPlotSettings
  1

  2

  4

  6

 40
0.0
 41
0.0
 42
0.0
 43
0.0
 44
0.0
 45
0.0
 46
0.0
 47
0.0
 48
0.0
 49
0.0
140
0.0
141
0.0
142
1.0
143
1.0
 70
  1712
 72
     0
 73
     0
 74
     0
  7

 75
     0
147
1.0
 76
     0
 77
     2
 78
   300
148
0.0
149
0.0
100
AcDbLayout
  1
Model
 70
     1
 71
     0
 10
0.0
 20
0.0
 11
12.0
 21
9.0
 12
0.0
 22
0.0
 32
0.0
 14
0.0
 24
0.0
 34
0.0
 15
0.0
 25
0.0
 35
0.0
146
0.0
 13
0.0
 23
0.0
 33
0.0
 16
1.0
 26
0.0
 36
0.0
 17
0.0
 27
1.0
 37
0.0
 76
     0
330
37
  0
MATERIAL
  5
12
102
{ACAD_XDICTIONARY
360
481
102
}
102
{ACAD_REACTORS
330
10
102
}
330
10
100
AcDbMaterial
  1
ByBlock
  0
MATERIAL
  5
11
102
{ACAD_XDICTIONARY
360
47F
102
}
102
{ACAD_REACTORS
330
10
102
}
330
10
100
AcDbMaterial
  1
ByLayer
  0
MATERIAL
  5
13
102
{ACAD_XDICTIONARY
360
483
102
}
102
{ACAD_REACTORS
330
10
102
}
330
10
100
AcDbMaterial
  1
Global
  0
MLINESTYLE
  5
2D
102
{ACAD_REACTORS
330
2C
102
}
330
2C
100
AcDbMlineStyle
  2
STANDARD
 70
     0
  3

 62
   256
 51
90.0
 52
90.0
 71
     2
 49
0.5
 62
   256
  6
BYLAYER
 49
-0.5
 62
   256
  6
BYLAYER
  0
ACDBPLACEHOLDER
  5
F
102
{ACAD_REACTORS
330
E
102
}
330
E
  0
TABLESTYLE
  5
32
102
{ACAD_XDICTIONARY
360
485
102
}
102
{ACAD_REACTORS
330
31
102
}
330
31
100
AcDbTableStyle
  3
Standard
 70
     0
 71
     0
 40
0.06
 41
0.06
280
     0
281
     0
  7
Standard
140
0.18
170
     2
 62
     0
 63
     7
283
     0
274
    -2
284
     1
 64
     0
275
    -2
285
     1
 65
     0
276
    -2
286
     1
 66
     0
277
    -2
287
     1
 67
     0
278
    -2
288
     1
 68
     0
279
    -2
289
     1
 69
     0
  7
Standard
140
0.25
170
     5
 62
     0
 63
     7
283
     0
274
    -2
284
     1
 64
     0
275
    -2
285
     1
 65
     0
276
    -2
286
     1
 66
     0
277
    -2
287
     1
 67
     0
278
    -2
288
     1
 68
     0
279
    -2
289
     1
 69
     0
  7
Standard
140
0.18
170
     5
 62
     0
 63
     7
283
     0
274
    -2
284
     1
 64
     0
275
    -2
285
     1
 65
     0
276
    -2
286
     1
 66
     0
277
    -2
287
     1
 67
     0
278
    -2
288
     1
 68
     0
279
    -2
289
     1
 69
     0
  0
VISUALSTYLE
  5
1A
102
{ACAD_REACTORS
330
14
102
}
330
14
100
AcDbVisualStyle
  2
2dWireframe
 70
     4
 71
     0
 72
     2
 73
     0
 90
        0
 40
-0.6
 41
-30.0
 62
     5
 63
     7
421
 16777215
 74
     1
 91
        4
 64
     7
 65
   257
 75
     1
175
     1
 42
1.0
 92
        0
 66
   257
 43
1.0
 76
     1
 77
     6
 78
     2
 67
     7
 79
     5
170
     0
171
     0
290
     0
174
     0
 93
        1
 44
0.0
173
     0
291
     0
 45
0.0
1001
ACAD
1000
AcDbSavedByObjectVersion
1070
     0
  0
VISUALSTYLE
  5
1C
102
{ACAD_REACTORS
330
14
102
}
330
14
100
AcDbVisualStyle
  2
3D Hidden
 70
     6
 71
     1
 72
     2
 73
     2
 90
        0
 40
-0.6
 41
-30.0
 62
     5
 63
     7
421
 16777215
 74
     2
 91
        2
 64
     7
 65
   257
 75
     2
175
     1
 42
40.0
 92
        0
 66
   257
 43
1.0
 76
     1
 77
     6
 78
     2
 67
     7
 79
     3
170
     0
171
     0
290
     0
174
     0
 93
        1
 44
0.0
173
     0
291
     0
 45
0.0
1001
ACAD
1000
AcDbSavedByObjectVersion
1070
     0
  0
VISUALSTYLE
  5
1B
102
{ACAD_REACTORS
330
14
102
}
330
14
100
AcDbVisualStyle
  2
3dWireframe
 70
     5
 71
     0
 72
     2
 73
     0
 90
        0
 40
-0.6
 41
-30.0
 62
     5
 63
     7
421
 16777215
 74
     1
 91
        4
 64
     7
 65
   257
 75
     1
175
     1
 42
1.0
 92
        0
 66
   257
 43
1.0
 76
     1
 77
     6
 78
     2
 67
     7
 79
     5
170
     0
171
     0
290
     0
174
     0
 93
        1
 44
0.0
173
     0
291
     0
 45
0.0
1001
ACAD
1000
AcDbSavedByObjectVersion
1070
     0
  0
VISUALSTYLE
  5
19
102
{ACAD_REACTORS
330
14
102
}
330
14
100
AcDbVisualStyle
  2
Basic
 70
     7
 71
     1
 72
     0
 73
     1
 90
        0
 40
-0.6
 41
-30.0
 62
     5
 63
     7
421
 16777215
 74
     0
 91
        4
 64
     7
 65
   257
 75
     1
175
     1
 42
1.0
 92
        8
 66
     7
 43
1.0
 76
     1
 77
     6
 78
     2
 67
     7
 79
     5
170
     0
171
     0
290
     0
174
     0
 93
        1
 44
0.0
173
     0
291
     1
 45
0.0
1001
ACAD
1000
AcDbSavedByObjectVersion
1070
     0
  0
VISUALSTYLE
  5
20
102
{ACAD_REACTORS
330
14
102
}
330
14
100
AcDbVisualStyle
  2
Brighten
 70
    12
 71
     2
 72
     2
 73
     0
 90
        0
 40
-0.6
 41
-30.0
 62
     5
 63
     7
421
 16777215
 74
     1
 91
        4
 64
     7
 65
   257
 75
     1
175
     1
 42
1.0
 92
        8
 66
     7
 43
1.0
 76
     1
 77
     6
 78
     2
 67
     7
 79
     5
170
     0
171
     0
290
     0
174
     0
 93
        1
 44
50.0
173
     0
291
     1
 45
0.0
1001
ACAD
1000
AcDbSavedByObjectVersion
1070
     0
  0
VISUALSTYLE
  5
24
102
{ACAD_REACTORS
330
14
102
}
330
14
100
AcDbVisualStyle
  2
ColorChange
 70
    16
 71
     2
 72
     2
 73
     3
 90
        0
 40
-0.6
 41
-30.0
 62
     5
 63
     8
421
  8421504
 74
     1
 91
        4
 64
     7
 65
   257
 75
     1
175
     1
 42
1.0
 92
        8
 66
     8
424
  8421504
 43
1.0
 76
     1
 77
     6
 78
     2
 67
     7
 79
     5
170
     0
171
     0
290
     0
174
     0
 93
        1
 44
0.0
173
     0
291
     1
 45
0.0
1001
ACAD
1000
AcDbSavedByObjectVersion
1070
     0
  0
VISUALSTYLE
  5
1D
102
{ACAD_REACTORS
330
14
102
}
330
14
100
AcDbVisualStyle
  2
Conceptual
 70
     9
 71
     3
 72
     2
 73
     0
 90
        0
 40
-0.6
 41
-30.0
 62
     5
 63
     7
421
 16777215
 74
     2
 91
        2
 64
     7
 65
   257
 75
     1
175
     1
 42
40.0
 92
        8
 66
     7
 43
1.0
 76
     1
 77
     6
 78
     2
 67
     7
 79
     3
170
     0
171
     0
290
     0
174
     0
 93
        1
 44
0.0
173
     0
291
     0
 45
0.0
1001
ACAD
1000
AcDbSavedByObjectVersion
1070
     0
  0
VISUALSTYLE
  5
1F
102
{ACAD_REACTORS
330
14
102
}
330
14
100
AcDbVisualStyle
  2
Dim
 70
    11
 71
     2
 72
     2
 73
     0
 90
        0
 40
-0.6
 41
-30.0
 62
     5
 63
     7
421
 16777215
 74
     1
 91
        4
 64
     7
 65
   257
 75
     1
175
     1
 42
1.0
 92
        8
 66
     7
 43
1.0
 76
     1
 77
     6
 78
     2
 67
     7
 79
     5
170
     0
171
     0
290
     0
174
     0
 93
        1
 44
-50.0
173
     0
291
     1
 45
0.0
1001
ACAD
1000
AcDbSavedByObjectVersion
1070
     0
  0
VISUALSTYLE
  5
23
102
{ACAD_REACTORS
330
14
102
}
330
14
100
AcDbVisualStyle
  2
Facepattern
 70
    15
 71
     2
 72
     2
 73
     0
 90
        0
 40
-0.6
 41
-30.0
 62
     5
 63
     7
421
 16777215
 74
     1
 91
        4
 64
     7
 65
   257
 75
     1
175
     1
 42
1.0
 92
        8
 66
     7
 43
1.0
 76
     1
 77
     6
 78
     2
 67
     7
 79
     5
170
     0
171
     0
290
     0
174
     0
 93
        1
 44
0.0
173
     0
291
     1
 45
0.0
1001
ACAD
1000
AcDbSavedByObjectVersion
1070
     0
  0
VISUALSTYLE
  5
15
102
{ACAD_REACTORS
330
14
102
}
330
14
100
AcDbVisualStyle
  2
Flat
 70
     0
 71
     2
 72
     1
 73
     1
 90
        2
 40
-0.6
 41
30.0
 62
     5
 63
     7
421
 16777215
 74
     0
 91
        4
 64
     7
 65
   257
 75
     1
175
     1
 42
1.0
 92
        8
 66
     7
 43
1.0
 76
     1
 77
     6
 78
     2
 67
     7
 79
     5
170
     0
171
     0
290
     0
174
     0
 93
       13
 44
0.0
173
     0
291
     1
 45
0.0
1001
ACAD
1000
AcDbSavedByObjectVersion
1070
     0
  0
VISUALSTYLE
  5
16
102
{ACAD_REACTORS
330
14
102
}
330
14
100
AcDbVisualStyle
  2
FlatWithEdges
 70
     1
 71
     2
 72
     1
 73
     1
 90
        2
 40
-0.6
 41
30.0
 62
     5
 63
     7
421
 16777215
 74
     1
 91
        4
 64
     7
 65
   257
 75
     1
175
     1
 42
1.0
 92
        0
 66
   257
 43
1.0
 76
     1
 77
     6
 78
     2
 67
     7
 79
     5
170
     0
171
     0
290
     0
174
     0
 93
       13
 44
0.0
173
     0
291
     1
 45
0.0
1001
ACAD
1000
AcDbSavedByObjectVersion
1070
     0
  0
VISUALSTYLE
  5
17
102
{ACAD_REACTORS
330
14
102
}
330
14
100
AcDbVisualStyle
  2
Gouraud
 70
     2
 71
     2
 72
     2
 73
     1
 90
        2
 40
-0.6
 41
30.0
 62
     5
 63
     7
421
 16777215
 74
     0
 91
        4
 64
     7
 65
   257
 75
     1
175
     1
 42
1.0
 92
        0
 66
     7
 43
1.0
 76
     1
 77
     6
 78
     2
 67
     7
 79
     5
170
     0
171
     0
290
     0
174
     0
 93
       13
 44
0.0
173
     0
291
     1
 45
0.0
1001
ACAD
1000
AcDbSavedByObjectVersion
1070
     0
  0
VISUALSTYLE
  5
18
102
{ACAD_REACTORS
330
14
102
}
330
14
100
AcDbVisualStyle
  2
GouraudWithEdges
 70
     3
 71
     2
 72
     2
 73
     1
 90
        2
 40
-0.6
 41
30.0
 62
     5
 63
     7
421
 16777215
 74
     1
 91
        4
 64
     7
 65
   257
 75
     1
175
     1
 42
1.0
 92
        0
 66
   257
 43
1.0
 76
     1
 77
     6
 78
     2
 67
     7
 79
     5
170
     0
171
     0
290
     0
174
     0
 93
       13
 44
0.0
173
     0
291
     1
 45
0.0
1001
ACAD
1000
AcDbSavedByObjectVersion
1070
     0
  0
VISUALSTYLE
  5
22
102
{ACAD_REACTORS
330
14
102
}
330
14
100
AcDbVisualStyle
  2
Linepattern
 70
    14
 71
     2
 72
     2
 73
     0
 90
        0
 40
-0.6
 41
-30.0
 62
     5
 63
     7
421
 16777215
 74
     1
 91
        4
 64
     7
 65
   257
 75
     7
175
     7
 42
1.0
 92
        8
 66
     7
 43
1.0
 76
     1
 77
     6
 78
     2
 67
     7
 79
     5
170
     0
171
     0
290
     0
174
     0
 93
        1
 44
0.0
173
     0
291
     1
 45
0.0
1001
ACAD
1000
AcDbSavedByObjectVersion
1070
     0
  0
VISUALSTYLE
  5
1E
102
{ACAD_REACTORS
330
14
102
}
330
14
100
AcDbVisualStyle
  2
Realistic
 70
     8
 71
     2
 72
     2
 73
     0
 90
        0
 40
-0.6
 41
-30.0
 62
     5
 63
     7
421
 16777215
 74
     1
 91
        0
 64
     7
 65
   257
 75
     1
175
     1
 42
1.0
 92
        8
 66
     8
424
  7895160
 43
1.0
 76
     1
 77
     6
 78
     2
 67
     7
 79
     5
170
     0
171
     0
290
     0
174
     0
 93
       13
 44
0.0
173
     0
291
     0
 45
0.0
1001
ACAD
1000
AcDbSavedByObjectVersion
1070
     0
  0
VISUALSTYLE
  5
21
102
{ACAD_REACTORS
330
14
102
}
330
14
100
AcDbVisualStyle
  2
Thicken
 70
    13
 71
     2
 72
     2
 73
     0
 90
        0
 40
-0.6
 41
-30.0
 62
     5
 63
     7
421
 16777215
 74
     1
 91
        4
 64
     7
 65
   257
 75
     1
175
     1
 42
1.0
 92
       12
 66
     7
 43
1.0
 76
     1
 77
     6
 78
     2
 67
     7
 79
     5
170
     0
171
     0
290
     0
174
     0
 93
        1
 44
0.0
173
     0
291
     1
 45
0.0
1001
ACAD
1000
AcDbSavedByObjectVersion
1070
     0
  0
DICTIONARYVAR
  5
47E
102
{ACAD_REACTORS
330
47D
102
}
330
47D
100
DictionaryVariables
280
     0
  1
STANDARD
  0
DICTIONARY
  5
481
330
12
100
AcDbDictionary
280
     1
281
     1
  3
ACAD_XREC_ROUNDTRIP
360
482
  0
DICTIONARY
  5
47F
330
11
100
AcDbDictionary
280
     1
281
     1
  3
ACAD_XREC_ROUNDTRIP
360
480
  0
DICTIONARY
  5
483
330
13
100
AcDbDictionary
280
     1
281
     1
  3
ACAD_XREC_ROUNDTRIP
360
484
  0
DICTIONARY
  5
485
330
32
100
AcDbDictionary
280
     1
281
     1
  3
ACAD_XREC_ROUNDTRIP
360
486
  0
XRECORD
  5
482
102
{ACAD_REACTORS
330
481
102
}
330
481
100
AcDbXrecord
280
     1
102
MATERIAL
148
0.0
149
0.0
149
0.0
 93
        0
 94
       63
282
     0
 72
     1
 77
     1
171
     1
175
     1
179
     1
273
     0
  0
XRECORD
  5
480
102
{ACAD_REACTORS
330
47F
102
}
330
47F
100
AcDbXrecord
280
     1
102
MATERIAL
148
0.0
149
0.0
149
0.0
 93
        0
 94
       63
282
     0
 72
     1
 77
     1
171
     1
175
     1
179
     1
273
     0
  0
XRECORD
  5
484
102
{ACAD_REACTORS
330
483
102
}
330
483
100
AcDbXrecord
280
     1
102
MATERIAL
148
0.0
149
0.0
149
0.0
 93
        0
 94
       63
282
     0
 72
     1
 77
     1
171
     1
175
     1
179
     1
273
     0
  0
XRECORD
  5
486
102
{ACAD_REACTORS
330
485
102
}
330
485
100
AcDbXrecord
280
     1
102
ACAD_ROUNDTRIP_PRE2007_TABLESTYLE
 90
      512
 91
        0
  1

 92
      512
 93
        0
  2

 94
      512
 95
        0
  3

  0
ENDSEC
  0
EOF
