  0
SECTION
  2
HEADER
  9
$ACADVER
  1
AC1014
  9
$ACADMAINTVER
 70
         0
  9
$DWGCODEPAGE
  3
ANSI_1252
  9
$INSBASE
 10
0.0
 20
0.0
 30
0.0
  9
$EXTMIN
 10
0.0
 20
0.0
 30
0.0
  9
$EXTMAX
 10
420.0
 20
297.0
 30
0.0
  9
$LIMMIN
 10
0.0
 20
0.0
  9
$LIMMAX
 10
420.0
 20
297.0
  9
$ORTHOMODE
 70
         0
  9
$REGENMODE
 70
         1
  9
$FILLMODE
 70
         1
  9
$QTEXTMODE
 70
         0
  9
$MIRRTEXT
 70
         1
  9
$DRAGMODE
 70
         2
  9
$LTSCALE
 40
25.4
  9
$OSMODE
 70
         0
  9
$ATTMODE
 70
         1
  9
$TEXTSIZE
 40
0.2
  9
$TRACEWID
 40
0.05
  9
$TEXTSTYLE
  7
Standard
  9
$CLAYER
  8
0
  9
$CELTYPE
  6
CONTINUOUS
  9
$CECOLOR
 62
       256
  9
$CELTSCALE
 40
1.0
  9
$DELOBJ
 70
         1
  9
$DISPSILH
 70
         0
  9
$DIMSCALE
 40
1.0
  9
$DIMASZ
 40
0.18
  9
$DIMEXO
 40
0.0625
  9
$DIMDLI
 40
0.38
  9
$DIMRND
 40
0.0
  9
$DIMDLE
 40
0.0
  9
$DIMEXE
 40
0.18
  9
$DIMTP
 40
0.0
  9
$DIMTM
 40
0.0
  9
$DIMTXT
 40
0.18
  9
$DIMCEN
 40
0.09
  9
$DIMTSZ
 40
0.0
  9
$DIMTOL
 70
         0
  9
$DIMLIM
 70
         0
  9
$DIMTIH
 70
         1
  9
$DIMTOH
 70
         1
  9
$DIMSE1
 70
         0
  9
$DIMSE2
 70
         0
  9
$DIMTAD
 70
         0
  9
$DIMZIN
 70
         0
  9
$DIMBLK
  1

  9
$DIMASO
 70
         1
  9
$DIMSHO
 70
         1
  9
$DIMPOST
  1

  9
$DIMAPOST
  1

  9
$DIMALT
 70
         0
  9
$DIMALTD
 70
         2
  9
$DIMALTF
 40
25.4
  9
$DIMLFAC
 40
1.0
  9
$DIMTOFL
 70
         0
  9
$DIMTVP
 40
0.0
  9
$DIMTIX
 70
         0
  9
$DIMSOXD
 70
         0
  9
$DIMSAH
 70
         0
  9
$DIMBLK1
  1

  9
$DIMBLK2
  1

  9
$DIMSTYLE
  2
Standard
  9
$DIMCLRD
 70
         0
  9
$DIMCLRE
 70
         0
  9
$DIMCLRT
 70
         0
  9
$DIMTFAC
 40
1.0
  9
$DIMGAP
 40
0.09
  9
$DIMJUST
 70
         0
  9
$DIMSD1
 70
         0
  9
$DIMSD2
 70
         0
  9
$DIMTOLJ
 70
         1
  9
$DIMTZIN
 70
         0
  9
$DIMALTZ
 70
         0
  9
$DIMALTTZ
 70
         0
  9
$DIMFIT
 70
         3
  9
$DIMUPT
 70
         0
  9
$DIMUNIT
 70
         2
  9
$DIMDEC
 70
         4
  9
$DIMTDEC
 70
         4
  9
$DIMALTU
 70
         2
  9
$DIMALTTD
 70
         2
  9
$DIMTXSTY
  7
Standard
  9
$DIMAUNIT
 70
         0
  9
$LUNITS
 70
         2
  9
$LUPREC
 70
         4
  9
$SKETCHINC
 40
0.1
  9
$FILLETRAD
 40
0.0
  9
$AUNITS
 70
         0
  9
$AUPREC
 70
         0
  9
$MENU
  1
acad
  9
$ELEVATION
 40
0.0
  9
$PELEVATION
 40
0.0
  9
$THICKNESS
 40
0.0
  9
$LIMCHECK
 70
         0
  9
$BLIPMODE
 70
         1
  9
$CHAMFERA
 40
0.0
  9
$CHAMFERB
 40
0.0
  9
$CHAMFERC
 40
0.0
  9
$CHAMFERD
 40
0.0
  9
$SKPOLY
 70
         0
  9
$TDCREATE
 40
0.000000000
  9
$TDUPDATE
 40
0.000000000
  9
$TDINDWG
 40
0.0000000000
  9
$TDUSRTIMER
 40
0.0000000000
  9
$USRTIMER
 70
         1
  9
$ANGBASE
 50
0.0
  9
$ANGDIR
 70
         0
  9
$PDMODE
 70
         0
  9
$PDSIZE
 40
0.0
  9
$PLINEWID
 40
0.0
  9
$COORDS
 70
         0
  9
$SPLFRAME
 70
         0
  9
$SPLINETYPE
 70
         6
  9
$SPLINESEGS
 70
         8
  9
$ATTDIA
 70
         0
  9
$ATTREQ
 70
         1
  9
$HANDLING
 70
         1
  9
$HANDSEED
  5
288
  9
$SURFTAB1
 70
         6
  9
$SURFTAB2
 70
         6
  9
$SURFTYPE
 70
         6
  9
$SURFU
 70
         6
  9
$SURFV
 70
         6
  9
$UCSNAME
  2

  9
$UCSORG
 10
0.0
 20
0.0
 30
0.0
  9
$UCSXDIR
 10
1.0
 20
0.0
 30
0.0
  9
$UCSYDIR
 10
0.0
 20
1.0
 30
0.0
  9
$PUCSNAME
  2

  9
$PUCSORG
 10
0.0
 20
0.0
 30
0.0
  9
$PUCSXDIR
 10
1.0
 20
0.0
 30
0.0
  9
$PUCSYDIR
 10
0.0
 20
1.0
 30
0.0
  9
$USERI1
 70
         0
  9
$USERI2
 70
         0
  9
$USERI3
 70
         0
  9
$USERI4
 70
         0
  9
$USERI5
 70
         0
  9
$USERR1
 40
0.0
  9
$USERR2
 40
0.0
  9
$USERR3
 40
0.0
  9
$USERR4
 40
0.0
  9
$USERR5
 40
0.0
  9
$WORLDVIEW
 70
         1
  9
$SHADEDGE
 70
         3
  9
$SHADEDIF
 70
        70
  9
$TILEMODE
 70
         1
  9
$MAXACTVP
 70
        16
  9
$PINSBASE
 10
0.0
 20
0.0
 30
0.0
  9
$PLIMCHECK
 70
         0
  9
$PEXTMIN
 10
1.0000000000E+20
 20
1.0000000000E+20
 30
1.0000000000E+20
  9
$PEXTMAX
 10
-1.0000000000E+20
 20
-1.0000000000E+20
 30
-1.0000000000E+20
  9
$PLIMMIN
 10
0.0
 20
0.0
  9
$PLIMMAX
 10
12.0
 20
9.0
  9
$UNITMODE
 70
         0
  9
$VISRETAIN
 70
         0
  9
$PLINEGEN
 70
         1
  9
$PSLTSCALE
 70
         0
  9
$TREEDEPTH
 70
      3020
  9
$PICKSTYLE
 70
         1
  9
$CMLSTYLE
  2
Standard
  9
$CMLJUST
 70
         0
  9
$CMLSCALE
 40
1.0
  9
$PROXYGRAPHICS
 70
         0
  9
$MEASUREMENT
 70
         0
  0
ENDSEC
  0
SECTION
  2
CLASSES
  0
CLASS
  1
LWPOLYLINE
  2
AcDbPolyline
  3
"AutoCAD"
 90
        0
280
         0
281
         1
  0
CLASS
  1
IMAGE
  2
AcDbRasterImage
  3
ISM
 90
      127
280
         0
281
         1
  0
CLASS
  1
OLE2FRAME
  2
AcDbOle2Frame
  3
""
 90
        0
280
         0
281
         1
  0
CLASS
  1
HATCH
  2
AcDbHatch
  3
"ACAD_SEDONA"
 90
        0
280
         0
281
         1
  0
CLASS
  1
DICTIONARYVAR
  2
AcDbDictionaryVar
  3
"AutoCAD"
 90
        0
280
         0
281
         0
  0
CLASS
  1
RASTERVARIABLES
  2
AcDbRasterVariables
  3
ISM
 90
        0
280
         0
281
         0
  0
CLASS
  1
IMAGEDEF
  2
AcDbRasterImageDef
  3
ISM
 90
        0
280
         0
281
         0
  0
CLASS
  1
IMAGEDEF_REACTOR
  2
AcDbRasterImageDefReactor
  3
ISM
 90
        1
280
         0
281
         0
  0
CLASS
  1
IDBUFFER
  2
AcDbIdBuffer
  3
"Acad"
 90
        0
280
         0
281
         0
  0
CLASS
  1
SPATIAL_FILTER
  2
AcDbSpatialFilter
  3
"Acad"
 90
        0
280
         0
281
         0
  0
CLASS
  1
XRECORD
  2
AcDbXrecord
  3
"<Built In>"
 90
        0
280
         0
281
         0
  0
CLASS
  1
SORTENTSTABLE
  2
AcDbSortentsTable
  3
"AutoCAD"
 90
        0
280
         0
281
         0
  0
CLASS
  1
LAYER_INDEX
  2
AcDbLayerIndex
  3
"Acad"
 90
        0
280
         0
281
         0
  0
CLASS
  1
SPATIAL_INDEX
  2
AcDbSpatialIndex
  3
"Acad"
 90
        0
280
         0
281
         0
  0
CLASS
  1
OBJECT_PTR
  2
CAseDLPNTableRecord
  3
"ASE-LPNTableRecord"
 90
        1
280
         0
281
         0
  0
CLASS
  1
LAYOUT
  2
AcDbLayout
  3
"AutoCAD 2000"
 90
        1
280
         0
281
         0
  0
CLASS
  1
PLOTSETTINGS
  2
AcDbPlotSettings
  3
"AutoCAD 2000"
 90
        1
280
         0
281
         0
  0
CLASS
  1
ACDBDICTIONARYWDFLT
  2
AcDbDictionaryWithDefault
  3
"AutoCAD 2000"
 90
        1
280
         0
281
         0
  0
CLASS
  1
ACDBPLACEHOLDER
  2
AcDbPlaceHolder
  3
"AutoCAD 2000"
 90
        1
280
         0
281
         0
  0
CLASS
  1
VBA_PROJECT
  2
AcDbVbaProject
  3
"acadvba"
 90
        1
280
         0
281
         0
  0
CLASS
  1
WIPEOUT
  2
AcDbWipeout
  3
WipeOut|AutoCAD Express Tool|expresstools@autodesk.com
 90
      127
280
         0
281
         1
  0
CLASS
  1
WIPEOUTVARIABLES
  2
AcDbWipeoutVariables
  3
WipeOut|AutoCAD Express Tool|expresstools@autodesk.com
 90
        0
280
         0
281
         0
  0
CLASS
  1
RTEXT
  2
RText
  3
RText|AutoCAD Express Tool|expresstools@autodesk.com
 90
        0
280
         0
281
         1
  0
CLASS
  1
ARCALIGNEDTEXT
  2
AcDbArcAlignedText
  3
ATEXT|AutoCAD Express Tool|expresstools@autodesk.com
 90
        0
280
         0
281
         1
  0
ENDSEC
  0
SECTION
  2
TABLES
  0
TABLE
  2
VPORT
  5
7
100
AcDbSymbolTable
 70
         1
  0
VPORT
  5
15
100
AcDbSymbolTableRecord
100
AcDbViewportTableRecord
  2
*ACTIVE
 70
         0
 10
0.0
 20
0.0
 11
1.0
 21
1.0
 12
210.0
 22
148.5
 13
0.0
 23
0.0
 14
1.0
 24
1.0
 15
0.0
 25
0.0
 16
0.0
 26
0.0
 36
1.0
 17
0.0
 27
0.0
 37
0.0
 40
297.0
 41
1.604229
 42
50.0
 43
0.0
 44
0.0
 50
0.0
 51
0.0
 71
         0
 72
       100
 73
         1
 74
         1
 75
         0
 76
         0
 77
         0
 78
         0
  0
ENDTAB
  0
TABLE
  2
LTYPE
  5
4
100
AcDbSymbolTable
 70
         7
  0
LTYPE
  5
11
100
AcDbSymbolTableRecord
100
AcDbLinetypeTableRecord
  2
ByBlock
 70
        64
  3

 72
        65
 73
         0
 40
0.0
  0
LTYPE
  5
12
100
AcDbSymbolTableRecord
100
AcDbLinetypeTableRecord
  2
ByLayer
 70
        64
  3

 72
        65
 73
         0
 40
0.0
  0
LTYPE
  5
13
100
AcDbSymbolTableRecord
100
AcDbLinetypeTableRecord
  2
CONTINUOUS
 70
         0
  3
Solid line
 72
        65
 73
         0
 40
0.0
  0
LTYPE
  5
28
100
AcDbSymbolTableRecord
100
AcDbLinetypeTableRecord
  2
HIDDEN2
 70
        64
  3
_ _ _ _ _ _ _ _ _ _ _ _ _ _ _ _ _ _ _ _ _ _ _ _
 72
        65
 73
         2
 40
0.1875
 49
0.125
 74
         0
 49
-0.0625
 74
         0
  0
LTYPE
  5
29
100
AcDbSymbolTableRecord
100
AcDbLinetypeTableRecord
  2
CENTER2
 70
        64
  3
___ _ ___ _ ___ _ ___ _ ___ _ ___ _ ___ _ ___ _
 72
        65
 73
         4
 40
1.125
 49
0.75
 74
         0
 49
-0.125
 74
         0
 49
0.125
 74
         0
 49
-0.125
 74
         0
  0
LTYPE
  5
2A
100
AcDbSymbolTableRecord
100
AcDbLinetypeTableRecord
  2
PHANTOM2
 70
        64
  3
___ _ _ ___ _ _ ___ _ _ ___ _ _ ___ _ _ ___ _ _
 72
        65
 73
         6
 40
1.25
 49
0.625
 74
         0
 49
-0.125
 74
         0
 49
0.125
 74
         0
 49
-0.125
 74
         0
 49
0.125
 74
         0
 49
-0.125
 74
         0
  0
LTYPE
  5
2B
100
AcDbSymbolTableRecord
100
AcDbLinetypeTableRecord
  2
DOT2
 70
        64
  3
...............................................
 72
        65
 73
         2
 40
0.125
 49
0.0
 74
         0
 49
-0.125
 74
         0
  0
ENDTAB
  0
TABLE
  2
LAYER
  5
2
100
AcDbSymbolTable
 70
         3
  0
LAYER
  5
14
100
AcDbSymbolTableRecord
100
AcDbLayerTableRecord
  2
0
 70
         0
 62
         7
  6
CONTINUOUS
  0
LAYER
  5
2D
100
AcDbSymbolTableRecord
100
AcDbLayerTableRecord
  2
DEFAULT
 70
         0
 62
         7
  6
CONTINUOUS
  0
LAYER
  5
37
100
AcDbSymbolTableRecord
100
AcDbLayerTableRecord
  2
52720015
 70
         0
 62
         7
  6
CONTINUOUS
  0
ENDTAB
  0
TABLE
  2
STYLE
  5
3
100
AcDbSymbolTable
 70
         1
  0
STYLE
  5
17
100
AcDbSymbolTableRecord
100
AcDbTextStyleTableRecord
  2
Standard
 70
         0
 40
0.0
 41
1.0
 50
0.0
 71
         0
 42
0.2
  3
txt
  4

  0
ENDTAB
  0
TABLE
  2
VIEW
  5
5
100
AcDbSymbolTable
 70
         0
  0
ENDTAB
  0
TABLE
  2
UCS
  5
6
100
AcDbSymbolTable
 70
         0
  0
ENDTAB
  0
TABLE
  2
APPID
  5
8
100
AcDbSymbolTable
 70
         1
  0
APPID
  5
16
100
AcDbSymbolTableRecord
100
AcDbRegAppTableRecord
  2
ACAD
 70
         0
  0
ENDTAB
  0
TABLE
  2
DIMSTYLE
  5
9
100
AcDbSymbolTable
 70
         1
  0
DIMSTYLE
105
18
100
AcDbSymbolTableRecord
100
AcDbDimStyleTableRecord
  2
Standard
 70
         0
  3

  4

  5

  6

  7

 40
1.0
 41
0.18
 42
0.0625
 43
0.38
 44
0.18
 45
0.0
 46
0.0
 47
0.0
 48
0.0
 71
         0
 72
         0
 73
         1
 74
         1
 75
         0
 76
         0
 77
         0
 78
         0
140
0.18
141
0.09
142
0.0
143
25.4
144
1.0
145
0.0
146
1.0
147
0.09
170
         0
171
         2
172
         0
173
         0
174
         0
175
         0
176
         0
177
         0
178
         0
270
         2
271
         4
272
         4
273
         2
274
         2
275
         0
280
         0
281
         0
282
         0
283
         1
284
         0
285
         0
286
         0
287
         0
288
         0
340
17
  0
ENDTAB
  0
TABLE
  2
BLOCK_RECORD
  5
1
100
AcDbSymbolTable
 70
         8
  0
BLOCK_RECORD
  5
A
100
AcDbSymbolTableRecord
100
AcDbBlockTableRecord
  2
*MODEL_SPACE
  0
BLOCK_RECORD
  5
B
100
AcDbSymbolTableRecord
100
AcDbBlockTableRecord
  2
*PAPER_SPACE
  0
BLOCK_RECORD
  5
38
100
AcDbSymbolTableRecord
100
AcDbBlockTableRecord
  2
SE0
  0
BLOCK_RECORD
  5
39
100
AcDbSymbolTableRecord
100
AcDbBlockTableRecord
  2
SE1
  0
BLOCK_RECORD
  5
3F
100
AcDbSymbolTableRecord
100
AcDbBlockTableRecord
  2
SE2
  0
BLOCK_RECORD
  5
40
100
AcDbSymbolTableRecord
100
AcDbBlockTableRecord
  2
SE3
  0
BLOCK_RECORD
  5
46
100
AcDbSymbolTableRecord
100
AcDbBlockTableRecord
  2
SE4
  0
BLOCK_RECORD
  5
47
100
AcDbSymbolTableRecord
100
AcDbBlockTableRecord
  2
SE5
  0
BLOCK_RECORD
  5
4D
100
AcDbSymbolTableRecord
100
AcDbBlockTableRecord
  2
SE6
  0
BLOCK_RECORD
  5
4E
100
AcDbSymbolTableRecord
100
AcDbBlockTableRecord
  2
SE7
  0
ENDTAB
  0
ENDSEC
  0
SECTION
  2
BLOCKS
  0
BLOCK
  5
D
100
AcDbEntity
  8
0
100
AcDbBlockBegin
  2
*MODEL_SPACE
 70
         0
 10
0.0
 20
0.0
 30
0.0
  3
*MODEL_SPACE
  1

  0
ENDBLK
  5
E
100
AcDbEntity
  8
0
100
AcDbBlockEnd
  0
BLOCK
  5
F
100
AcDbEntity
 67
         1
  8
0
100
AcDbBlockBegin
  2
*PAPER_SPACE
 70
         0
 10
0.0
 20
0.0
 30
0.0
  3
*PAPER_SPACE
  1

  0
ENDBLK
  5
10
100
AcDbEntity
 67
         1
  8
0
100
AcDbBlockEnd
  0
BLOCK
  5
D6
100
AcDbEntity
  8
0
 62
         1
 48
0.0
100
AcDbBlockBegin
  2
SE0
 70
         0
 10
0.0
 20
0.0
 30
0.0
  3
SE0
  1

  0
ENDBLK
  5
D7
100
AcDbEntity
  8
0
 62
         1
 48
0.0
100
AcDbBlockEnd
  0
BLOCK
  5
54
100
AcDbEntity
  8
0
 62
         1
 48
0.0
100
AcDbBlockBegin
  2
SE1
 70
         0
 10
0.0
 20
0.0
 30
0.0
  3
SE1
  1

  0
LINE
  5
55
100
AcDbEntity
  8
52720015
  6
CONTINUOUS
 62
         7
100
AcDbLine
 10
96.7395487702
 20
65.999688682
 30
0.0
 11
95.9895491155
 21
64.7006511744
 31
0.0
  0
LINE
  5
56
100
AcDbEntity
  8
52720015
  6
CONTINUOUS
 62
         7
100
AcDbLine
 10
99.733427077
 20
62.5391222255
 30
0.0
 11
102.1308443301
 21
61.154972729
 31
0.0
  0
LINE
  5
57
100
AcDbEntity
  8
52720015
  6
CONTINUOUS
 62
         7
100
AcDbLine
 10
95.9468351809
 20
64.725312076
 30
0.0
 11
95.9895491155
 21
64.7006511744
 31
0.0
  0
LINE
  5
58
100
AcDbEntity
  8
52720015
  6
CONTINUOUS
 62
         7
100
AcDbLine
 10
95.9895491155
 20
64.7006511744
 30
0.0
 11
99.733427077
 21
62.5391222255
 31
0.0
  0
LINE
  5
59
100
AcDbEntity
  8
52720015
  6
CONTINUOUS
 62
         7
100
AcDbLine
 10
101.233427077
 20
65.1371984368
 30
0.0
 11
103.6308443301
 21
63.7530489404
 31
0.0
  0
LINE
  5
5A
100
AcDbEntity
  8
52720015
  6
CONTINUOUS
 62
         7
100
AcDbLine
 10
97.4468351809
 20
67.3233882873
 30
0.0
 11
97.4895491155
 21
67.2987273857
 31
0.0
  0
LINE
  5
5B
100
AcDbEntity
  8
52720015
  6
CONTINUOUS
 62
         7
100
AcDbLine
 10
97.4895491155
 20
67.2987273857
 30
0.0
 11
101.233427077
 21
65.1371984368
 31
0.0
  0
LINE
  5
5C
100
AcDbEntity
  8
52720015
  6
CONTINUOUS
 62
         7
100
AcDbLine
 10
97.4895491155
 20
67.2987273857
 30
0.0
 11
96.7395487702
 21
65.999688682
 31
0.0
  0
LINE
  5
5D
100
AcDbEntity
  8
52720015
  6
CONTINUOUS
 62
         7
100
AcDbLine
 10
96.7395487702
 20
65.999688682
 30
0.0
 11
97.4468351809
 21
67.3233882873
 31
0.0
  0
SPLINE
  5
5E
100
AcDbEntity
  8
52720015
  6
CONTINUOUS
 62
         7
100
AcDbSpline
210
0.0
220
0.0
230
1.0
 70
         8
 71
         3
 72
        22
 73
        18
 74
         0
 42
0.0
 43
0.0
 40
0.0
 40
0.0
 40
0.0
 40
0.0
 40
0.125
 40
0.125
 40
0.25
 40
0.25
 40
0.375
 40
0.375
 40
0.5
 40
0.5
 40
0.625
 40
0.625
 40
0.75
 40
0.75
 40
0.875
 40
0.875
 40
1.0
 40
1.0
 40
1.0
 40
1.0
 10
83.54746416685164
 20
102.70808175757502
 30
0.0
 10
83.964329000623508
 20
103.28753829751928
 30
0.0
 10
84.410488015487729
 20
103.84386170352437
 30
0.0
 10
85.230147317331856
 20
104.80401238201236
 30
0.0
 10
85.600316237785222
 20
105.20847630676327
 30
0.0
 10
86.053511602766477
 20
105.84183175563761
 30
0.0
 10
86.128351370550916
 20
106.07043078288868
 30
0.0
 10
85.992330884510864
 20
106.46675903369605
 30
0.0
 10
85.788015390878414
 20
106.64265672662458
 30
0.0
 10
85.176260574547669
 20
106.99599582770738
 30
0.0
 10
84.768161060863989
 20
107.1746590927808
 30
0.0
 10
83.760519408400768
 20
107.44007035112637
 30
0.0
 10
83.146328487716929
 20
107.52157657261846
 30
0.0
 10
81.834462114574293
 20
107.38726700068301
 30
0.0
 10
81.152342519219403
 20
107.16681609046053
 30
0.0
 10
79.95882426442239
 20
106.41942368801412
 30
0.0
 10
79.446589665901485
 20
105.89677848594766
 30
0.0
 10
79.084847009512629
 20
105.28457497465493
 30
0.0
  0
SPLINE
  5
5F
100
AcDbEntity
  8
52720015
  6
CONTINUOUS
 62
         7
100
AcDbSpline
210
0.0
220
0.0
230
1.0
 70
         8
 71
         3
 72
        18
 73
        14
 74
         0
 42
0.0
 43
0.0
 40
0.0
 40
0.0
 40
0.0
 40
0.0
 40
0.03125
 40
0.03125
 40
0.0624999999999999
 40
0.0624999999999999
 40
0.1249999999999999
 40
0.1249999999999999
 40
0.2499999999999999
 40
0.2499999999999999
 40
0.4999999999999998
 40
0.4999999999999998
 40
1.0
 40
1.0
 40
1.0
 40
1.0
 10
67.487680990842378
 20
82.888263216110602
 30
0.0
 10
67.607539196868757
 20
82.81906304859632
 30
0.0
 10
67.820493992894228
 20
82.926306414292824
 30
0.0
 10
68.20456253755961
 20
83.188808382951976
 30
0.0
 10
68.397680686520076
 20
83.354835624649809
 30
0.0
 10
68.960201015871093
 20
83.871664379686308
 30
0.0
 10
69.323024585376942
 20
84.252468794560997
 30
0.0
 10
70.400517997297939
 20
85.427392687334205
 30
0.0
 10
71.094828612114512
 20
86.251212371694535
 30
0.0
 10
73.147118837407376
 20
88.748567193782037
 30
0.0
 10
74.477446807697277
 20
90.462301998930457
 30
0.0
 10
78.430110497159916
 20
95.650489512263817
 30
0.0
 10
81.000946600892718
 20
99.168334246788746
 30
0.0
 10
83.54746416685164
 20
102.70808175757502
 30
0.0
  0
SPLINE
  5
60
100
AcDbEntity
  8
52720015
  6
CONTINUOUS
 62
         7
100
AcDbSpline
210
0.0
220
0.0
230
1.0
 70
         8
 71
         3
 72
        22
 73
        18
 74
         0
 42
0.0
 43
0.0
 40
0.0
 40
0.0
 40
0.0
 40
0.0
 40
0.125
 40
0.125
 40
0.25
 40
0.25
 40
0.375
 40
0.375
 40
0.5
 40
0.5
 40
0.625
 40
0.625
 40
0.75
 40
0.75
 40
0.875
 40
0.875
 40
1.0
 40
1.0
 40
1.0
 40
1.0
 10
109.11383599286694
 20
87.94733010162301
 30
0.0
 10
109.46275612801601
 20
88.566014531607152
 30
0.0
 10
109.65841119289739
 20
89.2669664605679
 30
0.0
 10
109.71090289604778
 20
90.670041558675237
 30
0.0
 10
109.56186628883309
 20
91.374268934590077
 30
0.0
 10
109.02207988772902
 20
92.580922673414165
 30
0.0
 10
108.64674742627103
 20
93.069428758400051
 30
0.0
 10
107.91355627144512
 20
93.810533655583072
 30
0.0
 10
107.55138765755451
 20
94.077567889985133
 30
0.0
 10
106.93929287440346
 20
94.431103271003096
 30
0.0
 10
106.68677497810414
 20
94.519941447398736
 30
0.0
 10
106.27457521953599
 20
94.441574168017169
 30
0.0
 10
106.11281366192041
 20
94.26187017495252
 30
0.0
 10
105.79159428485097
 20
93.555610293162317
 30
0.0
 10
105.62741012875975
 20
93.036129217658186
 30
0.0
 10
105.20499840800981
 20
91.843538250205839
 30
0.0
 10
104.94494039551111
 20
91.175298828316073
 30
0.0
 10
104.65121883552789
 20
90.523823318702952
 30
0.0
  0
SPLINE
  5
61
100
AcDbEntity
  8
52720015
  6
CONTINUOUS
 62
         7
100
AcDbSpline
210
0.0
220
0.0
230
1.0
 70
         8
 71
         3
 72
        16
 73
        12
 74
         0
 42
0.0
 43
0.0
 40
0.0
 40
0.0
 40
0.0
 40
0.0
 40
0.25
 40
0.25
 40
0.375
 40
0.375
 40
0.5
 40
0.5
 40
0.75
 40
0.75
 40
1.0
 40
1.0
 40
1.0
 40
1.0
 10
62.652404072611382
 20
20.554801281866027
 30
0.0
 10
60.558144960449866
 20
20.840830581628055
 30
0.0
 10
58.487091609777856
 20
21.231871797725997
 30
0.0
 10
55.462947459430787
 20
22.227332436366154
 30
0.0
 10
54.467646207822625
 20
22.632461910858943
 30
0.0
 10
52.572142505823564
 20
23.576090953291747
 30
0.0
 10
51.663728235030156
 20
24.116041231845124
 30
0.0
 10
49.03016004574625
 20
25.895965162662023
 30
0.0
 10
47.395961651848324
 20
27.288971487496152
 30
0.0
 10
44.416383394045923
 20
30.023911312020559
 30
0.0
 10
43.042269815011757
 20
31.39612182764289
 30
0.0
 10
41.951920986457559
 20
32.506230764012237
 30
0.0
  0
ARC
  5
62
100
AcDbEntity
  8
52720015
  6
CONTINUOUS
 62
         7
100
AcDbCircle
 10
18.5033282301
 20
28.840609103
 30
0.0
 40
23.7333791192
100
AcDbArc
 50
8.8849025283
 51
13.8519074382
  0
ARC
  5
63
100
AcDbEntity
  8
52720015
  6
CONTINUOUS
 62
         7
100
AcDbCircle
 10
-20.889436858
 20
24.2211149462
 30
0.0
 40
40.0848954902
100
AcDbArc
 50
348.9560221645
 51
11.0439778355
  0
ARC
  5
64
100
AcDbEntity
  8
52720015
  6
CONTINUOUS
 62
         7
100
AcDbCircle
 10
50.6937619171
 20
24.2211149462
 30
0.0
 40
40.0848954902
100
AcDbArc
 50
168.9560221645
 51
191.0439778355
  0
ARC
  5
65
100
AcDbEntity
  8
52720015
  6
CONTINUOUS
 62
         7
100
AcDbCircle
 10
8.8677107468
 20
12.7029770758
 30
0.0
 40
10.3257249233
100
AcDbArc
 50
338.1716867869
 51
21.8283132131
  0
ARC
  5
66
100
AcDbEntity
  8
52720015
  6
CONTINUOUS
 62
         7
100
AcDbCircle
 10
97.9366143122
 20
12.7029770758
 30
0.0
 40
10.3257249233
100
AcDbArc
 50
158.1716867869
 51
201.8283132131
  0
ARC
  5
67
100
AcDbEntity
  8
52720015
  6
CONTINUOUS
 62
         7
100
AcDbCircle
 10
127.6937619171
 20
24.2211149462
 30
0.0
 40
40.0848954902
100
AcDbArc
 50
168.9560221645
 51
191.0439778355
  0
ARC
  5
68
100
AcDbEntity
  8
52720015
  6
CONTINUOUS
 62
         7
100
AcDbCircle
 10
97.9366143122
 20
35.7392528165
 30
0.0
 40
10.3257249233
100
AcDbArc
 50
158.1716867869
 51
201.8283132131
  0
LINE
  5
69
100
AcDbEntity
  8
52720015
  6
CONTINUOUS
 62
         7
100
AcDbLine
 10
88.3512211613
 20
8.8635977857
 30
0.0
 11
95.4531038978
 21
8.8635977857
 31
0.0
  0
LINE
  5
6A
100
AcDbEntity
  8
52720015
  6
CONTINUOUS
 62
         7
100
AcDbLine
 10
88.3512211613
 20
39.5786321066
 30
0.0
 11
95.4531038978
 21
39.5786321066
 31
0.0
  0
LINE
  5
6B
100
AcDbEntity
  8
52720015
  6
CONTINUOUS
 62
         7
100
AcDbLine
 10
88.3512211613
 20
31.8998735264
 30
0.0
 11
95.4531038978
 21
31.8998735264
 31
0.0
  0
LINE
  5
6C
100
AcDbEntity
  8
52720015
  6
CONTINUOUS
 62
         7
100
AcDbLine
 10
11.3512211613
 20
8.8635977857
 30
0.0
 11
18.4531038978
 21
8.8635977857
 31
0.0
  0
LINE
  5
6D
100
AcDbEntity
  8
52720015
  6
CONTINUOUS
 62
         7
100
AcDbLine
 10
11.3512211613
 20
39.5786321066
 30
0.0
 11
18.4531038978
 21
39.5786321066
 31
0.0
  0
LINE
  5
6E
100
AcDbEntity
  8
52720015
  6
CONTINUOUS
 62
         7
100
AcDbLine
 10
11.3512211613
 20
31.8998735264
 30
0.0
 11
18.4531038978
 21
31.8998735264
 31
0.0
  0
ARC
  5
6F
100
AcDbEntity
  8
52720015
  6
CONTINUOUS
 62
         7
100
AcDbCircle
 10
8.8677107468
 20
35.7392528165
 30
0.0
 40
10.3257249233
100
AcDbArc
 50
338.1716867869
 51
21.8283132131
  0
ARC
  5
70
100
AcDbEntity
  8
52720015
  6
CONTINUOUS
 62
         7
100
AcDbCircle
 10
85.8677107468
 20
35.7392528165
 30
0.0
 40
10.3257249233
100
AcDbArc
 50
338.1716867869
 51
21.8283132131
  0
ARC
  5
71
100
AcDbEntity
  8
52720015
  6
CONTINUOUS
 62
         7
100
AcDbCircle
 10
56.110563142
 20
24.2211149462
 30
0.0
 40
40.0848954902
100
AcDbArc
 50
348.9560221645
 51
11.0439778355
  0
ARC
  5
72
100
AcDbEntity
  8
52720015
  6
CONTINUOUS
 62
         7
100
AcDbCircle
 10
85.8677107468
 20
12.7029770758
 30
0.0
 40
10.3257249233
100
AcDbArc
 50
338.1716867869
 51
21.8283132131
  0
LINE
  5
73
100
AcDbEntity
  8
52720015
  6
CONTINUOUS
 62
         7
100
AcDbLine
 10
88.3512211613
 20
16.542356366
 30
0.0
 11
95.4531038978
 21
16.542356366
 31
0.0
  0
LINE
  5
74
100
AcDbEntity
  8
52720015
  6
CONTINUOUS
 62
         7
100
AcDbLine
 10
11.3512211613
 20
16.542356366
 30
0.0
 11
18.4531038978
 21
16.542356366
 31
0.0
  0
LINE
  5
75
100
AcDbEntity
  8
52720015
  6
CONTINUOUS
 62
         7
100
AcDbLine
 10
10.4021625295
 20
36.9711149462
 30
0.0
 11
10.4021625295
 21
11.4711149462
 31
0.0
  0
ARC
  5
76
100
AcDbEntity
  8
52720015
  6
CONTINUOUS
 62
         7
100
AcDbCircle
 10
20.9366143122
 20
12.7029770758
 30
0.0
 40
10.3257249233
100
AcDbArc
 50
158.1716867869
 51
201.8283132131
  0
ARC
  5
77
100
AcDbEntity
  8
52720015
  6
CONTINUOUS
 62
         7
100
AcDbCircle
 10
20.9366143122
 20
35.7392528165
 30
0.0
 40
10.3257249233
100
AcDbArc
 50
158.1716867869
 51
201.8283132131
  0
LINE
  5
78
100
AcDbEntity
  8
52720015
  6
CONTINUOUS
 62
         7
100
AcDbLine
 10
27.2590844677
 20
13.8711149462
 30
0.0
 11
27.2590844677
 21
29.3331423415
 31
0.0
  0
LINE
  5
79
100
AcDbEntity
  8
52720015
  6
CONTINUOUS
 62
         7
100
AcDbLine
 10
23.1021625295
 20
11.4711149462
 30
0.0
 11
23.1021625295
 21
35.36348902
 31
0.0
  0
LINE
  5
7A
100
AcDbEntity
  8
52720015
  6
CONTINUOUS
 62
         7
100
AcDbLine
 10
79.5452405914
 20
34.5711149462
 30
0.0
 11
79.5452405914
 21
13.8711149462
 31
0.0
  0
LINE
  5
7B
100
AcDbEntity
  8
52720015
  6
CONTINUOUS
 62
         7
100
AcDbLine
 10
83.7021625295
 20
36.9711149462
 30
0.0
 11
83.7021625295
 21
11.4711149462
 31
0.0
  0
LINE
  5
7C
100
AcDbEntity
  8
52720015
  6
CONTINUOUS
 62
         7
100
AcDbLine
 10
19.4021625295
 20
36.9711149462
 30
0.0
 11
19.4021625295
 21
11.4711149462
 31
0.0
  0
LINE
  5
7D
100
AcDbEntity
  8
52720015
  6
CONTINUOUS
 62
         7
100
AcDbLine
 10
87.4021625295
 20
36.9711149462
 30
0.0
 11
87.4021625295
 21
11.4711149462
 31
0.0
  0
LINE
  5
7E
100
AcDbEntity
  8
52720015
  6
CONTINUOUS
 62
         7
100
AcDbLine
 10
96.4021625295
 20
36.9711149462
 30
0.0
 11
96.4021625295
 21
11.4711149462
 31
0.0
  0
ARC
  5
7F
100
AcDbEntity
  8
52720015
  6
CONTINUOUS
 62
         7
100
AcDbCircle
 10
47.23832924
 20
72.3437420887
 30
0.0
 40
44.1598648153
100
AcDbArc
 50
233.226956921
 51
236.868432884
  0
SPLINE
  5
80
100
AcDbEntity
  8
52720015
  6
CONTINUOUS
 62
         7
100
AcDbSpline
210
0.0
220
0.0
230
1.0
 70
         8
 71
         3
 72
        18
 73
        14
 74
         0
 42
0.0
 43
0.0
 40
0.0
 40
0.0
 40
0.0
 40
0.0
 40
0.1249999999999999
 40
0.1249999999999999
 40
0.2499999999999998
 40
0.2499999999999998
 40
0.3749999999999998
 40
0.3749999999999998
 40
0.4999999999999997
 40
0.4999999999999997
 40
0.7499999999999998
 40
0.7499999999999998
 40
1.0
 40
1.0
 40
1.0
 40
1.0
 10
27.259084467699772
 20
29.333142341494423
 30
0.0
 10
27.908140729079328
 20
28.946773349866582
 30
0.0
 10
28.611192262562181
 20
28.601234212817864
 30
0.0
 10
30.127270490298983
 20
28.265450685405192
 30
0.0
 10
30.938048225989416
 20
28.317657013921263
 30
0.0
 10
32.422548612172456
 20
28.789850376609859
 30
0.0
 10
33.090482280854474
 20
29.16232253526081
 30
0.0
 10
34.342312117608103
 20
29.962509732885067
 30
0.0
 10
34.917090450234888
 20
30.390009377300071
 30
0.0
 10
36.548947959384229
 20
31.666625228401955
 30
0.0
 10
37.512803190351619
 20
32.512285111568957
 30
0.0
 10
39.040438105265302
 20
33.870344138681709
 30
0.0
 10
39.587372038972177
 20
34.374116593283034
 30
0.0
 10
39.749384343380058
 20
34.522692495276623
 30
0.0
  0
ARC
  5
81
100
AcDbEntity
  8
52720015
  6
CONTINUOUS
 62
         7
100
AcDbCircle
 10
-20.5768135113
 20
0.8061666331
 30
0.0
 40
55.6961531753
100
AcDbArc
 50
30.8097706538
 51
38.3498482648
  0
LINE
  5
82
100
AcDbEntity
  8
52720015
  6
CONTINUOUS
 62
         7
100
AcDbLine
 10
62.6524040726
 20
20.5548012819
 30
0.0
 11
41.9519209865
 21
32.506230764
 31
0.0
  0
LINE
  5
83
100
AcDbEntity
  8
52720015
  6
CONTINUOUS
 62
         7
100
AcDbLine
 10
39.7493843434
 20
46.2211149462
 30
0.0
 11
48.3005753632
 21
46.2211149462
 31
0.0
  0
LINE
  5
84
100
AcDbEntity
  8
52720015
  6
CONTINUOUS
 62
         7
100
AcDbLine
 10
41.5464880121
 20
34.5226924953
 30
0.0
 11
48.3005753632
 21
46.2211149462
 31
0.0
  0
LINE
  5
85
100
AcDbEntity
  8
52720015
  6
CONTINUOUS
 62
         7
100
AcDbLine
 10
79.4021625295
 20
42.2287395483
 30
0.0
 11
79.4021625295
 21
34.5226924953
 31
0.0
  0
LINE
  5
86
100
AcDbEntity
  8
52720015
  6
CONTINUOUS
 62
         7
100
AcDbLine
 10
39.8021625295
 20
49.2211149462
 30
0.0
 11
20.8021625295
 21
49.2211149462
 31
0.0
  0
LINE
  5
87
100
AcDbEntity
  8
52720015
  6
CONTINUOUS
 62
         7
100
AcDbLine
 10
39.7493843434
 20
34.5226924953
 30
0.0
 11
39.7493843434
 21
46.2211149462
 31
0.0
  0
LINE
  5
88
100
AcDbEntity
  8
52720015
  6
CONTINUOUS
 62
         7
100
AcDbLine
 10
95.9468351809
 20
64.725312076
 30
0.0
 11
96.7395487702
 21
65.999688682
 31
0.0
  0
LINE
  5
89
100
AcDbEntity
  8
52720015
  6
CONTINUOUS
 62
         7
100
AcDbLine
 10
61.0962612927
 20
42.2378504256
 30
0.0
 11
62.9059285706
 21
45.3722860958
 31
0.0
  0
LINE
  5
8A
100
AcDbEntity
  8
52720015
  6
CONTINUOUS
 62
         7
100
AcDbLine
 10
64.6524175029
 20
45.9582053722
 30
0.0
 11
61.706297548
 21
47.6591485213
 31
0.0
  0
LINE
  5
8B
100
AcDbEntity
  8
52720015
  6
CONTINUOUS
 62
         7
100
AcDbLine
 10
63.6058731267
 20
44.9681729179
 30
0.0
 11
64.6524175029
 21
45.9582053722
 31
0.0
  0
LINE
  5
8C
100
AcDbEntity
  8
52720015
  6
CONTINUOUS
 62
         7
100
AcDbLine
 10
61.6160793643
 20
46.1169808823
 30
0.0
 11
59.8064120864
 21
42.9825452121
 31
0.0
  0
LINE
  5
8D
100
AcDbEntity
  8
52720015
  6
CONTINUOUS
 62
         7
100
AcDbLine
 10
62.9059285706
 20
45.3722860958
 30
0.0
 11
63.6058731267
 21
44.9681729179
 31
0.0
  0
LINE
  5
8E
100
AcDbEntity
  8
52720015
  6
CONTINUOUS
 62
         7
100
AcDbLine
 10
61.706297548
 20
47.6591485213
 30
0.0
 11
60.6654253318
 21
46.6658412438
 31
0.0
  0
LINE
  5
8F
100
AcDbEntity
  8
52720015
  6
CONTINUOUS
 62
         7
100
AcDbLine
 10
60.6654253319
 20
46.6658412438
 30
0.0
 11
61.6160793643
 21
46.1169808823
 31
0.0
  0
LINE
  5
90
100
AcDbEntity
  8
52720015
  6
CONTINUOUS
 62
         7
100
AcDbLine
 10
59.8064120864
 20
42.9825452121
 30
0.0
 11
61.0962612927
 21
42.2378504256
 31
0.0
  0
LINE
  5
91
100
AcDbEntity
  8
52720015
  6
CONTINUOUS
 62
         7
100
AcDbLine
 10
66.736369123
 20
44.7550353434
 30
0.0
 11
65.5205461692
 21
39.6834883612
 31
0.0
  0
LINE
  5
92
100
AcDbEntity
  8
52720015
  6
CONTINUOUS
 62
         7
100
AcDbLine
 10
61.228989839
 20
42.1612195637
 30
0.0
 11
65.0131668852
 21
45.7499266193
 31
0.0
  0
LINE
  5
93
100
AcDbEntity
  8
52720015
  6
CONTINUOUS
 62
         7
100
AcDbLine
 10
63.3753352201
 20
40.9220264801
 30
0.0
 11
61.228989839
 21
42.1612195637
 31
0.0
  0
LINE
  5
94
100
AcDbEntity
  8
52720015
  6
CONTINUOUS
 62
         7
100
AcDbLine
 10
64.3596705564
 20
41.8436075945
 30
0.0
 11
63.3753352201
 21
40.9220264801
 31
0.0
  0
LINE
  5
95
100
AcDbEntity
  8
52720015
  6
CONTINUOUS
 62
         7
100
AcDbLine
 10
63.5145187018
 20
42.3315562453
 30
0.0
 11
64.3596705564
 21
41.8436075945
 31
0.0
  0
LINE
  5
96
100
AcDbEntity
  8
52720015
  6
CONTINUOUS
 62
         7
100
AcDbLine
 10
65.2557386783
 20
44.1789808084
 30
0.0
 11
63.5145187018
 21
42.3315562453
 31
0.0
  0
LINE
  5
97
100
AcDbEntity
  8
52720015
  6
CONTINUOUS
 62
         7
100
AcDbLine
 10
64.1535555856
 20
40.4727207426
 30
0.0
 11
65.2557386783
 21
44.1789808084
 31
0.0
  0
LINE
  5
98
100
AcDbEntity
  8
52720015
  6
CONTINUOUS
 62
         7
100
AcDbLine
 10
65.5205461692
 20
39.6834883611
 30
0.0
 11
64.1535555856
 21
40.4727207426
 31
0.0
  0
LINE
  5
99
100
AcDbEntity
  8
52720015
  6
CONTINUOUS
 62
         7
100
AcDbLine
 10
65.0131668852
 20
45.7499266193
 30
0.0
 11
66.736369123
 21
44.7550353434
 31
0.0
  0
LINE
  5
9A
100
AcDbEntity
  8
52720015
  6
CONTINUOUS
 62
         7
100
AcDbLine
 10
75.1382346809
 20
24.2205909745
 30
0.0
 11
73.1395470168
 21
26.2205909745
 31
0.0
  0
LINE
  5
9B
100
AcDbEntity
  8
52720015
  6
CONTINUOUS
 62
         7
100
AcDbLine
 10
73.1395470168
 20
22.2205909745
 30
0.0
 11
75.1382346809
 21
24.2205909745
 31
0.0
  0
LINE
  5
9C
100
AcDbEntity
  8
52720015
  6
CONTINUOUS
 62
         7
100
AcDbLine
 10
73.1395470168
 20
26.2205909745
 30
0.0
 11
72.1690737163
 21
26.2205909745
 31
0.0
  0
LINE
  5
9D
100
AcDbEntity
  8
52720015
  6
CONTINUOUS
 62
         7
100
AcDbLine
 10
72.1690737163
 20
26.2205909745
 30
0.0
 11
72.1690737163
 21
24.8194906339
 31
0.0
  0
LINE
  5
9E
100
AcDbEntity
  8
52720015
  6
CONTINUOUS
 62
         7
100
AcDbLine
 10
72.1690737163
 20
24.8194906339
 30
0.0
 11
68.3021625295
 21
24.8194906339
 31
0.0
  0
LINE
  5
9F
100
AcDbEntity
  8
52720015
  6
CONTINUOUS
 62
         7
100
AcDbLine
 10
68.3021625295
 20
24.8194906339
 30
0.0
 11
68.3021625295
 21
23.6227392585
 31
0.0
  0
LINE
  5
A0
100
AcDbEntity
  8
52720015
  6
CONTINUOUS
 62
         7
100
AcDbLine
 10
68.3021625295
 20
23.6227392585
 30
0.0
 11
72.1690737163
 21
23.6227392585
 31
0.0
  0
LINE
  5
A1
100
AcDbEntity
  8
52720015
  6
CONTINUOUS
 62
         7
100
AcDbLine
 10
72.1690737163
 20
23.6227392585
 30
0.0
 11
72.1690737163
 21
22.2205909745
 31
0.0
  0
LINE
  5
A2
100
AcDbEntity
  8
52720015
  6
CONTINUOUS
 62
         7
100
AcDbLine
 10
72.1690737163
 20
22.2205909745
 30
0.0
 11
73.1395470168
 21
22.2205909745
 31
0.0
  0
LINE
  5
A3
100
AcDbEntity
  8
52720015
  6
CONTINUOUS
 62
         7
100
AcDbLine
 10
79.4021625295
 20
42.2287395483
 30
0.0
 11
74.9530741891
 21
34.5226924953
 31
0.0
  0
LINE
  5
A4
100
AcDbEntity
  8
52720015
  6
CONTINUOUS
 62
         7
100
AcDbLine
 10
47.3021625295
 20
58.2211149462
 30
0.0
 11
13.3021625295
 21
58.2211149462
 31
0.0
  0
LINE
  5
A5
100
AcDbEntity
  8
52720015
  6
CONTINUOUS
 62
         7
100
AcDbLine
 10
47.3021625295
 20
51.2211149462
 30
0.0
 11
13.3021625295
 21
51.2211149462
 31
0.0
  0
LINE
  5
A6
100
AcDbEntity
  8
52720015
  6
CONTINUOUS
 62
         7
100
AcDbLine
 10
96.7395491155
 20
65.99968928
 30
0.0
 11
95.5166440501
 21
66.7057338487
 31
0.0
  0
LINE
  5
A7
100
AcDbEntity
  8
52720015
  6
CONTINUOUS
 62
         7
100
AcDbLine
 10
95.5166440682
 20
66.7057338383
 30
0.0
 11
81.5021625295
 21
74.7969985272
 31
0.0
  0
LINE
  5
A8
100
AcDbEntity
  8
52720015
  6
CONTINUOUS
 62
         7
100
AcDbLine
 10
81.5021625295
 20
74.7969985272
 30
0.0
 11
67.4876809908
 21
82.8882632161
 31
0.0
  0
LINE
  5
A9
100
AcDbEntity
  8
52720015
  6
CONTINUOUS
 62
         7
100
AcDbLine
 10
88.7871525679
 20
51.2149714063
 30
0.0
 11
57.4370329509
 21
69.3149714063
 31
0.0
  0
LINE
  5
AA
100
AcDbEntity
  8
52720015
  6
CONTINUOUS
 62
         7
100
AcDbLine
 10
65.3196331517
 20
84.1399862197
 30
0.0
 11
67.4876809908
 21
82.8882632161
 31
0.0
  0
SPLINE
  5
AB
100
AcDbEntity
  8
52720015
  6
CONTINUOUS
 62
         7
100
AcDbSpline
210
0.0
220
0.0
230
1.0
 70
         8
 71
         3
 72
        18
 73
        14
 74
         0
 42
0.0
 43
0.0
 40
0.0
 40
0.0
 40
0.0
 40
0.0
 40
0.03125
 40
0.03125
 40
0.0625
 40
0.0625
 40
0.1249999999999999
 40
0.1249999999999999
 40
0.2499999999999999
 40
0.2499999999999999
 40
0.5000000000000001
 40
0.5000000000000001
 40
1.0
 40
1.0
 40
1.0
 40
1.0
 10
95.516644068226526
 20
66.705733838276785
 30
0.0
 10
95.636502274252919
 20
66.636533670762503
 30
0.0
 10
95.829610977617079
 20
66.755235183399435
 30
0.0
 10
96.171952410771169
 20
67.041828311122103
 30
0.0
 10
96.341165415781532
 20
67.221657194114542
 30
0.0
 10
96.831229091052151
 20
67.780318817888897
 30
0.0
 10
97.143278997147576
 20
68.190437421001377
 30
0.0
 10
98.066362973555869
 20
69.45450964293326
 30
0.0
 10
98.655654592512292
 20
70.338962072823477
 30
0.0
 10
100.39288851709755
 20
73.018214734934361
 30
0.0
 10
101.51180026111692
 20
74.854010755231158
 30
0.0
 10
104.83129507782435
 20
80.40775848769222
 30
0.0
 10
106.98237471023916
 20
84.167949733926662
 30
0.0
 10
109.11383599286694
 20
87.94733010162301
 30
0.0
  0
LINE
  5
AC
100
AcDbEntity
  8
52720015
  6
CONTINUOUS
 62
         7
100
AcDbLine
 10
107.6051982512
 20
94.3903528616
 30
0.0
 11
85.4189872677
 21
107.1995677452
 31
0.0
  0
SPLINE
  5
AD
100
AcDbEntity
  8
52720015
  6
CONTINUOUS
 62
         7
100
AcDbSpline
210
0.0
220
0.0
230
1.0
 70
         8
 71
         3
 72
        18
 73
        14
 74
         0
 42
0.0
 43
0.0
 40
0.0
 40
0.0
 40
0.0
 40
0.0
 40
0.4999999999999997
 40
0.4999999999999997
 40
0.7499999999999991
 40
0.7499999999999991
 40
0.8749999999999992
 40
0.8749999999999992
 40
0.9374999999999996
 40
0.9374999999999996
 40
0.9687499999999998
 40
0.9687499999999998
 40
1.0
 40
1.0
 40
1.0
 40
1.0
 10
104.65121883552789
 20
90.523823318702952
 30
0.0
 10
102.85910968110701
 20
86.548918566306398
 30
0.0
 10
101.09831764060957
 20
82.564287291366128
 30
0.0
 10
98.582626490509725
 20
76.549846497559557
 30
0.0
 10
97.761819524495721
 20
74.536318698137819
 30
0.0
 10
96.626001617184343
 20
71.512528429421579
 30
0.0
 10
96.261293408703352
 20
70.503718129946506
 30
0.0
 10
95.783114419430078
 20
68.986326130614174
 30
0.0
 10
95.632652858739377
 20
68.475729048432882
 30
0.0
 10
95.465016419580095
 20
67.723861946140048
 30
0.0
 10
95.418237195224137
 20
67.475890509845698
 30
0.0
 10
95.383135734502716
 20
67.010050246429202
 30
0.0
 10
95.396913377715194
 20
66.77486038467346
 30
0.0
 10
95.516644068226526
 20
66.705733838276785
 30
0.0
  0
SPLINE
  5
AE
100
AcDbEntity
  8
52720015
  6
CONTINUOUS
 62
         7
100
AcDbSpline
210
0.0
220
0.0
230
1.0
 70
         8
 71
         3
 72
        18
 73
        14
 74
         0
 42
0.0
 43
0.0
 40
0.0
 40
0.0
 40
0.0
 40
0.0
 40
0.03125
 40
0.03125
 40
0.0625000000000001
 40
0.0625000000000001
 40
0.1250000000000005
 40
0.1250000000000005
 40
0.2500000000000007
 40
0.2500000000000007
 40
0.5000000000000004
 40
0.5000000000000004
 40
1.0
 40
1.0
 40
1.0
 40
1.0
 10
81.502162529534445
 20
74.796998527193708
 30
0.0
 10
81.741878941587387
 20
74.658598192165442
 30
0.0
 10
82.048266002430395
 20
74.711898414618602
 30
0.0
 10
82.564992157382406
 20
74.897810476268674
 30
0.0
 10
82.807151869597817
 20
75.035523558219765
 30
0.0
 10
83.495312376247767
 20
75.479813923071674
 30
0.0
 10
83.914586810895173
 20
75.828026415760917
 30
0.0
 10
85.137033876916746
 20
76.919261277319094
 30
0.0
 10
85.890334069588761
 20
77.709023313025199
 30
0.0
 10
88.085399304048025
 20
80.123946945136964
 30
0.0
 10
89.459988087480752
 20
81.812127757902815
 30
0.0
 10
93.497429578213215
 20
86.951368784851724
 30
0.0
 10
96.05336483509366
 20
90.477816527318012
 30
0.0
 10
98.561958658528809
 20
94.039459321059027
 30
0.0
  0
SPLINE
  5
AF
100
AcDbEntity
  8
52720015
  6
CONTINUOUS
 62
         7
100
AcDbSpline
210
0.0
220
0.0
230
1.0
 70
         8
 71
         3
 72
        18
 73
        14
 74
         0
 42
0.0
 43
0.0
 40
0.0
 40
0.0
 40
0.0
 40
0.0
 40
0.4999999999999998
 40
0.4999999999999998
 40
0.7499999999999999
 40
0.7499999999999999
 40
0.8749999999999996
 40
0.8749999999999996
 40
0.9374999999999997
 40
0.9374999999999997
 40
0.9687499999999998
 40
0.9687499999999998
 40
1.0
 40
1.0
 40
1.0
 40
1.0
 10
89.636724343850744
 20
99.192445755218898
 30
0.0
 10
87.806694479742362
 20
95.239434534768279
 30
0.0
 10
86.031022302800551
 20
91.263394310609755
 30
0.0
 10
83.600012949152202
 20
85.200062458826437
 30
0.0
 10
82.823589248623875
 20
83.160909969129065
 30
0.0
 10
81.830421691187453
 20
80.054760482512535
 30
0.0
 10
81.524446304318772
 20
79.012040772669351
 30
0.0
 10
81.190580003719617
 20
77.411329803683529
 30
0.0
 10
81.096976321746055
 20
76.867905809919321
 30
0.0
 10
81.056116663808126
 20
76.042844098861309
 30
0.0
 10
81.05794173344492
 20
75.76681096034649
 30
0.0
 10
81.156341271636762
 20
75.223893859270362
 30
0.0
 10
81.262701148511923
 20
74.935251619987326
 30
0.0
 10
81.502162529534445
 20
74.796998527193708
 30
0.0
  0
SPLINE
  5
B0
100
AcDbEntity
  8
52720015
  6
CONTINUOUS
 62
         7
100
AcDbSpline
210
0.0
220
0.0
230
1.0
 70
         8
 71
         3
 72
        22
 73
        18
 74
         0
 42
0.0
 43
0.0
 40
0.0
 40
0.0
 40
0.0
 40
0.0
 40
0.125
 40
0.125
 40
0.25
 40
0.25
 40
0.375
 40
0.375
 40
0.5
 40
0.5
 40
0.625
 40
0.625
 40
0.75
 40
0.75
 40
0.875
 40
0.875
 40
1.0
 40
1.0
 40
1.0
 40
1.0
 10
98.561958658528809
 20
94.039459321059027
 30
0.0
 10
98.972615377016396
 20
94.622500118033841
 30
0.0
 10
99.261994601885789
 20
95.269340377995917
 30
0.0
 10
99.513473341903563
 20
96.557530256802679
 30
0.0
 10
99.466925408154552
 20
97.202585769503202
 30
0.0
 10
98.992784576611186
 20
98.371339021070327
 30
0.0
 10
98.574595658551601
 20
98.884588292811628
 30
0.0
 10
97.567773972477312
 20
99.783673850869405
 30
0.0
 10
96.9762028030908
 20
100.1831537124398
 30
0.0
 10
95.752291588847669
 20
100.88992147464342
 30
0.0
 10
95.11633559414723
 20
101.20013774036849
 30
0.0
 10
93.833478150142838
 20
101.62444491004555
 30
0.0
 10
93.175780172825085
 20
101.7310699423969
 30
0.0
 10
91.928818766532444
 20
101.55928747037888
 30
0.0
 10
91.348502958195084
 20
101.28006011631729
 30
0.0
 10
90.354582949904454
 20
100.41742961252066
 30
0.0
 10
89.936660999592831
 20
99.84033297762258
 30
0.0
 10
89.636724343850744
 20
99.192445755218898
 30
0.0
  0
SPLINE
  5
B1
100
AcDbEntity
  8
52720015
  6
CONTINUOUS
 62
         7
100
AcDbSpline
210
0.0
220
0.0
230
1.0
 70
         8
 71
         3
 72
        18
 73
        14
 74
         0
 42
0.0
 43
0.0
 40
0.0
 40
0.0
 40
0.0
 40
0.0
 40
0.5000000000000004
 40
0.5000000000000004
 40
0.7500000000000006
 40
0.7500000000000006
 40
0.8750000000000006
 40
0.8750000000000006
 40
0.9375000000000002
 40
0.9375000000000002
 40
0.9687500000000002
 40
0.9687500000000002
 40
1.0
 40
1.0
 40
1.0
 40
1.0
 10
79.084847009512629
 20
105.28457497465493
 30
0.0
 10
76.877714764620436
 20
101.54928391526185
 30
0.0
 10
74.697240663645601
 20
97.806956190912288
 30
0.0
 10
71.548670414075147
 20
92.157908315549562
 30
0.0
 10
70.515968825294621
 20
90.266717933621905
 30
0.0
 10
69.065325104129499
 20
87.42469243328199
 30
0.0
 10
68.5960532001492
 20
86.476252011550898
 30
0.0
 10
67.963771132044442
 20
85.047831466264881
 30
0.0
 10
67.76191859845531
 20
84.566904976120384
 30
0.0
 10
67.521218264459151
 20
83.857221333179666
 30
0.0
 10
67.450752970740979
 20
83.622925055407606
 30
0.0
 10
67.373763853361723
 20
83.18126864183823
 30
0.0
 10
67.367950300331017
 20
82.957389762507276
 30
0.0
 10
67.487680990842378
 20
82.888263216110602
 30
0.0
  0
LINE
  5
B2
100
AcDbEntity
  8
52720015
  6
CONTINUOUS
 62
         7
100
AcDbLine
 10
79.4021625295
 20
34.5226924953
 30
0.0
 11
74.9530741891
 21
34.5226924953
 31
0.0
  0
LINE
  5
B3
100
AcDbEntity
  8
52720015
  6
CONTINUOUS
 62
         7
100
AcDbLine
 10
41.5464880121
 20
34.5226924953
 30
0.0
 11
39.7493843434
 21
34.5226924953
 31
0.0
  0
LINE
  5
B4
100
AcDbEntity
  8
52720015
  6
CONTINUOUS
 62
         7
100
AcDbLine
 10
79.5452405914
 20
34.5711149462
 30
0.0
 11
79.4021625295
 21
34.5711149462
 31
0.0
  0
SPLINE
  5
B5
100
AcDbEntity
  8
52720015
  6
CONTINUOUS
 62
         7
100
AcDbSpline
210
0.0
220
0.0
230
1.0
 70
         8
 71
         3
 72
        18
 73
        14
 74
         0
 42
0.0
 43
0.0
 40
0.0
 40
0.0
 40
0.0
 40
0.0
 40
0.1249999999999999
 40
0.1249999999999999
 40
0.2499999999999998
 40
0.2499999999999998
 40
0.4999999999999999
 40
0.4999999999999999
 40
0.75
 40
0.75
 40
0.875
 40
0.875
 40
1.0
 40
1.0
 40
1.0
 40
1.0
 10
74.953074189073646
 20
34.522692495276743
 30
0.0
 10
74.824390747019265
 20
34.430754037503192
 30
0.0
 10
74.510516160862551
 20
34.206486589535182
 30
0.0
 10
73.673120084230987
 20
33.597066526233654
 30
0.0
 10
73.144015938762436
 20
33.207550603550814
 30
0.0
 10
71.435002764802064
 20
31.914133113178519
 30
0.0
 10
70.098846080315781
 20
30.8636008933419
 30
0.0
 10
67.472927709520818
 20
28.530252837815972
 30
0.0
 10
66.12757481829108
 20
27.211887476534219
 30
0.0
 10
64.426629948114751
 20
24.919304659615531
 30
0.0
 10
63.912193491172914
 20
24.091178822051354
 30
0.0
 10
63.109033280958833
 20
22.363553337669607
 30
0.0
 10
62.81791098154936
 20
21.448267898928925
 30
0.0
 10
62.652404072611382
 20
20.554801281866027
 30
0.0
  0
LINE
  5
B6
100
AcDbEntity
  8
52720015
  6
CONTINUOUS
 62
         7
100
AcDbLine
 10
79.4021625295
 20
42.1596918313
 30
0.0
 11
85.6694611143
 21
53.0149714063
 31
0.0
  0
LINE
  5
B7
100
AcDbEntity
  8
52720015
  6
CONTINUOUS
 62
         7
100
AcDbLine
 10
11.3512211613
 20
39.5786321066
 30
0.0
 11
10.4021625295
 21
36.9711149462
 31
0.0
  0
LINE
  5
B8
100
AcDbEntity
  8
52720015
  6
CONTINUOUS
 62
         7
100
AcDbLine
 10
88.3512211613
 20
39.5786321066
 30
0.0
 11
87.4021625295
 21
36.9711149462
 31
0.0
  0
LINE
  5
B9
100
AcDbEntity
  8
52720015
  6
CONTINUOUS
 62
         7
100
AcDbLine
 10
20.8021625295
 20
49.2211149462
 30
0.0
 11
20.8021625295
 21
36.95214652
 31
0.0
  0
LINE
  5
BA
100
AcDbEntity
  8
52720015
  6
CONTINUOUS
 62
         7
100
AcDbLine
 10
83.7021625295
 20
36.9711149462
 30
0.0
 11
79.5452405914
 21
34.5711149462
 31
0.0
  0
LINE
  5
BB
100
AcDbEntity
  8
52720015
  6
CONTINUOUS
 62
         7
100
AcDbLine
 10
87.4021625295
 20
36.9711149462
 30
0.0
 11
83.7021625295
 21
36.9711149462
 31
0.0
  0
LINE
  5
BC
100
AcDbEntity
  8
52720015
  6
CONTINUOUS
 62
         7
100
AcDbLine
 10
23.1021625295
 20
11.4711149462
 30
0.0
 11
27.2590844677
 21
13.8711149462
 31
0.0
  0
LINE
  5
BD
100
AcDbEntity
  8
52720015
  6
CONTINUOUS
 62
         7
100
AcDbLine
 10
20.8275184085
 20
36.9711149462
 30
0.0
 11
19.4021625295
 21
36.9711149462
 31
0.0
  0
LINE
  5
BE
100
AcDbEntity
  8
52720015
  6
CONTINUOUS
 62
         7
100
AcDbLine
 10
98.3893284971
 20
66.7792395175
 30
0.0
 11
109.5199362155
 21
87.7128680288
 31
0.0
  0
LINE
  5
BF
100
AcDbEntity
  8
52720015
  6
CONTINUOUS
 62
         7
100
AcDbLine
 10
65.3196331517
 20
84.1399862197
 30
0.0
 11
57.4370329509
 21
69.3149714063
 31
0.0
  0
LINE
  5
C0
100
AcDbEntity
  8
52720015
  6
CONTINUOUS
 62
         7
100
AcDbLine
 10
78.6787467869
 20
105.5190370475
 30
0.0
 11
65.3196331517
 21
84.1399862197
 31
0.0
  0
ARC
  5
C1
100
AcDbEntity
  8
52720015
  6
CONTINUOUS
 62
         7
100
AcDbCircle
 10
105.1051982512
 20
90.0602258427
 30
0.0
 40
5.0
100
AcDbArc
 50
332.0
 51
60.0
  0
LINE
  5
C2
100
AcDbEntity
  8
52720015
  6
CONTINUOUS
 62
         7
100
AcDbLine
 10
102.1308443301
 20
61.154972729
 30
0.0
 11
103.6308443301
 21
63.7530489404
 31
0.0
  0
LINE
  5
C3
100
AcDbEntity
  8
52720015
  6
CONTINUOUS
 62
         7
100
AcDbLine
 10
37.7521625295
 20
49.2211149462
 30
0.0
 11
37.7521625295
 21
51.2211149462
 31
0.0
  0
LINE
  5
C4
100
AcDbEntity
  8
52720015
  6
CONTINUOUS
 62
         7
100
AcDbLine
 10
47.3021625295
 20
51.2211149462
 30
0.0
 11
47.3021625295
 21
58.2211149462
 31
0.0
  0
LINE
  5
C5
100
AcDbEntity
  8
52720015
  6
CONTINUOUS
 62
         7
100
AcDbLine
 10
18.4531038978
 20
8.8635977857
 30
0.0
 11
19.4021625295
 21
11.4711149462
 31
0.0
  0
LINE
  5
C6
100
AcDbEntity
  8
52720015
  6
CONTINUOUS
 62
         7
100
AcDbLine
 10
95.4531038978
 20
8.8635977857
 30
0.0
 11
96.4021625295
 21
11.4711149462
 31
0.0
  0
LINE
  5
C7
100
AcDbEntity
  8
52720015
  6
CONTINUOUS
 62
         7
100
AcDbLine
 10
27.2590844677
 20
13.8711149462
 30
0.0
 11
79.5452405914
 21
13.8711149462
 31
0.0
  0
LINE
  5
C8
100
AcDbEntity
  8
52720015
  6
CONTINUOUS
 62
         7
100
AcDbLine
 10
60.5547244046
 20
67.5149714063
 30
0.0
 11
48.2607106452
 21
46.2211149462
 31
0.0
  0
LINE
  5
C9
100
AcDbEntity
  8
52720015
  6
CONTINUOUS
 62
         7
100
AcDbLine
 10
10.4021625295
 20
11.4711149462
 30
0.0
 11
11.3512211613
 21
8.8635977857
 31
0.0
  0
LINE
  5
CA
100
AcDbEntity
  8
52720015
  6
CONTINUOUS
 62
         7
100
AcDbLine
 10
87.4021625295
 20
11.4711149462
 30
0.0
 11
88.3512211613
 21
8.8635977857
 31
0.0
  0
LINE
  5
CB
100
AcDbEntity
  8
52720015
  6
CONTINUOUS
 62
         7
100
AcDbLine
 10
39.8021625295
 20
46.2211149462
 30
0.0
 11
39.8021625295
 21
49.2211149462
 31
0.0
  0
LINE
  5
CC
100
AcDbEntity
  8
52720015
  6
CONTINUOUS
 62
         7
100
AcDbLine
 10
79.5452405914
 20
13.8711149462
 30
0.0
 11
83.7021625295
 21
11.4711149462
 31
0.0
  0
LINE
  5
CD
100
AcDbEntity
  8
52720015
  6
CONTINUOUS
 62
         7
100
AcDbLine
 10
83.7021625295
 20
11.4711149462
 30
0.0
 11
87.4021625295
 21
11.4711149462
 31
0.0
  0
LINE
  5
CE
100
AcDbEntity
  8
52720015
  6
CONTINUOUS
 62
         7
100
AcDbLine
 10
19.4021625295
 20
11.4711149462
 30
0.0
 11
23.1021625295
 21
11.4711149462
 31
0.0
  0
LINE
  5
CF
100
AcDbEntity
  8
52720015
  6
CONTINUOUS
 62
         7
100
AcDbLine
 10
88.7871525679
 20
51.2149714063
 30
0.0
 11
96.8893284971
 21
64.1811633062
 31
0.0
  0
ARC
  5
D0
100
AcDbEntity
  8
52720015
  6
CONTINUOUS
 62
         7
100
AcDbCircle
 10
82.9189872677
 20
102.8694407263
 30
0.0
 40
5.0
100
AcDbArc
 50
60.0
 51
148.0
  0
LINE
  5
D1
100
AcDbEntity
  8
52720015
  6
CONTINUOUS
 62
         7
100
AcDbLine
 10
22.8521625295
 20
51.2211149462
 30
0.0
 11
22.8521625295
 21
49.2211149462
 31
0.0
  0
LINE
  5
D2
100
AcDbEntity
  8
52720015
  6
CONTINUOUS
 62
         7
100
AcDbLine
 10
13.3021625295
 20
58.2211149462
 30
0.0
 11
13.3021625295
 21
51.2211149462
 31
0.0
  0
LINE
  5
D3
100
AcDbEntity
  8
52720015
  6
CONTINUOUS
 62
         7
100
AcDbLine
 10
19.4021625295
 20
36.9711149462
 30
0.0
 11
18.4531038978
 21
39.5786321066
 31
0.0
  0
LINE
  5
D4
100
AcDbEntity
  8
52720015
  6
CONTINUOUS
 62
         7
100
AcDbLine
 10
96.4021625295
 20
36.9711149462
 30
0.0
 11
95.4531038978
 21
39.5786321066
 31
0.0
  0
ENDBLK
  5
D5
100
AcDbEntity
  8
52720015
  6
CONTINUOUS
 62
         7
100
AcDbBlockEnd
  0
BLOCK
  5
194
100
AcDbEntity
  8
0
 62
         1
 48
0.0
100
AcDbBlockBegin
  2
SE2
 70
         0
 10
0.0
 20
0.0
 30
0.0
  3
SE2
  1

  0
ENDBLK
  5
195
100
AcDbEntity
  8
0
 62
         1
 48
0.0
100
AcDbBlockEnd
  0
BLOCK
  5
D8
100
AcDbEntity
  8
0
 62
         1
 48
0.0
100
AcDbBlockBegin
  2
SE3
 70
         0
 10
0.0
 20
0.0
 30
0.0
  3
SE3
  1

  0
LINE
  5
D9
100
AcDbEntity
  8
52720015
  6
CONTINUOUS
 62
         7
100
AcDbLine
 10
96.7395487702
 20
174.518685101
 30
0.0
 11
96.4021625295
 21
174.518685101
 31
0.0
  0
ELLIPSE
  5
DA
100
AcDbEntity
  8
52720015
  6
CONTINUOUS
 62
         7
100
AcDbEllipse
 10
100.066774488
 20
160.2500223488
 30
0.0
 11
0.0000000000000278
 21
4.9999999999742695
 31
0.0
210
0.0
220
0.0
230
1.0
 40
0.8660254038
 41
0.0770595434456243
 42
1.009011863485588
  0
ELLIPSE
  5
DB
100
AcDbEntity
  8
52720015
  6
CONTINUOUS
 62
         7
100
AcDbEllipse
 10
99.5327681187
 20
168.2262233232
 30
0.0
 11
-0.0000000000000069
 21
3.0000000000257341
 31
0.0
210
0.0
220
0.0
230
1.0
 40
0.8660254038
 41
3.2189032903696115
 42
6.2058746476189448
  0
ELLIPSE
  5
DC
100
AcDbEntity
  8
52720015
  6
CONTINUOUS
 62
         7
100
AcDbEllipse
 10
100.066774488
 20
176.2024242976
 30
0.0
 11
-0.0000000000000694
 21
-5.0000000000177973
 31
0.0
210
0.0
220
0.0
230
1.0
 40
0.8660254038
 41
5.2741734436922227
 42
6.2061257773946501
  0
LINE
  5
DD
100
AcDbEntity
  8
52720015
  6
CONTINUOUS
 62
         7
100
AcDbLine
 10
97.4895491155
 20
161.9337615454
 30
0.0
 11
96.7395487701
 21
161.9337615454
 31
0.0
  0
ELLIPSE
  5
DE
100
AcDbEntity
  8
52720015
  6
CONTINUOUS
 62
         7
100
AcDbEllipse
 10
101.566774488
 20
160.2500223488
 30
0.0
 11
-0.0000000000000555
 21
4.9999999999742792
 31
0.0
210
0.0
220
0.0
230
1.0
 40
0.8660254038
 41
0.0770595434456344
 42
1.2273354572672845
  0
ELLIPSE
  5
DF
100
AcDbEntity
  8
52720015
  6
CONTINUOUS
 62
         7
100
AcDbEllipse
 10
101.566774488
 20
176.2024242976
 30
0.0
 11
0.0000000000000069
 21
-5.0000000000178018
 31
0.0
210
0.0
220
0.0
230
1.0
 40
0.8660254038
 41
5.055849849912299
 42
6.2061257773946226
  0
ELLIPSE
  5
E0
100
AcDbEntity
  8
52720015
  6
CONTINUOUS
 62
         7
100
AcDbEllipse
 10
101.0327681187
 20
168.2262233232
 30
0.0
 11
0.0000000000000139
 21
3.0000000000257443
 31
0.0
210
0.0
220
0.0
230
1.0
 40
0.8660254038
 41
3.2189032903695423
 42
6.2058746476189066
  0
LINE
  5
E1
100
AcDbEntity
  8
52720015
  6
CONTINUOUS
 62
         7
100
AcDbLine
 10
97.4895491155
 20
174.518685101
 30
0.0
 11
96.7395487702
 21
174.518685101
 31
0.0
  0
SPLINE
  5
E2
100
AcDbEntity
  8
52720015
  6
CONTINUOUS
 62
         7
100
AcDbSpline
210
0.0
220
0.0
230
1.0
 70
         8
 71
         3
 72
         8
 73
         4
 74
         0
 42
0.0
 43
0.0
 40
0.9614600026400354
 40
0.9614600026400354
 40
0.9614600026400354
 40
0.9614600026400354
 40
1.0
 40
1.0
 40
1.0
 40
1.0
 10
98.906586734439216
 20
151.25793985908217
 30
0.0
 10
98.804034954338093
 20
151.22160915221266
 30
0.0
 10
98.688714695134379
 20
151.19595694783706
 30
0.0
 10
98.561958658528852
 20
151.18197543916563
 30
0.0
  0
SPLINE
  5
E3
100
AcDbEntity
  8
52720015
  6
CONTINUOUS
 62
         7
100
AcDbSpline
210
0.0
220
0.0
230
1.0
 70
         8
 71
         3
 72
        22
 73
        18
 74
         0
 42
0.0
 43
0.0
 40
0.0
 40
0.0
 40
0.0
 40
0.0
 40
0.125
 40
0.125
 40
0.25
 40
0.25
 40
0.375
 40
0.375
 40
0.5
 40
0.5
 40
0.625
 40
0.625
 40
0.75
 40
0.75
 40
0.875
 40
0.875
 40
1.0
 40
1.0
 40
1.0
 40
1.0
 10
109.11383599286694
 20
172.28573010784189
 30
0.0
 10
109.46275612801601
 20
172.20755340691335
 30
0.0
 10
109.65841119289739
 20
172.18710772025921
 30
0.0
 10
109.71090289604778
 20
172.30057871232029
 30
0.0
 10
109.56186628883309
 20
172.44173838383429
 30
0.0
 10
109.02207988772902
 20
172.97243508876977
 30
0.0
 10
108.64674742627103
 20
173.35826282146789
 30
0.0
 10
107.91355627144512
 20
174.30363766315517
 30
0.0
 10
107.55138765755451
 20
174.86767818765247
 30
0.0
 10
106.93929287440346
 20
176.0915376943835
 30
0.0
 10
106.68677497810414
 20
176.75469281292948
 30
0.0
 10
106.27457521953599
 20
178.09904692120523
 30
0.0
 10
106.11281366192041
 20
178.78930018523079
 30
0.0
 10
105.79159428485097
 20
179.98035291296173
 30
0.0
 10
105.62741012875976
 20
180.46732592461157
 30
0.0
 10
105.20499840800984
 20
181.09627147699499
 30
0.0
 10
104.94494039551111
 20
181.24388162860595
 30
0.0
 10
104.65121883552789
 20
181.21096442251991
 30
0.0
  0
SPLINE
  5
E4
100
AcDbEntity
  8
52720015
  6
CONTINUOUS
 62
         7
100
AcDbSpline
210
0.0
220
0.0
230
1.0
 70
         8
 71
         3
 72
        22
 73
        18
 74
         0
 42
0.0
 43
0.0
 40
0.0
 40
0.0
 40
0.0
 40
0.0
 40
0.125
 40
0.125
 40
0.25
 40
0.25
 40
0.375
 40
0.375
 40
0.5
 40
0.5
 40
0.625
 40
0.625
 40
0.75
 40
0.75
 40
0.875
 40
0.875
 40
1.0
 40
1.0
 40
1.0
 40
1.0
 10
104.65121883552793
 20
155.2414822238317
 30
0.0
 10
104.94461050262277
 20
155.20860198865171
 30
0.0
 10
105.20332119751097
 20
155.35515893531945
 30
0.0
 10
105.62500642562036
 20
155.98007499317634
 30
0.0
 10
105.79019799914232
 20
156.4673716831357
 30
0.0
 10
106.11210222500219
 20
157.66005623212806
 30
0.0
 10
106.2726549059898
 20
158.34599878432115
 30
0.0
 10
106.68389548244645
 20
159.68948740519903
 30
0.0
 10
106.93838509980586
 20
160.35876334320176
 30
0.0
 10
107.55026314565927
 20
161.58284949447966
 30
0.0
 10
107.90903982877778
 20
162.1422835347694
 30
0.0
 10
108.64271354718704
 20
163.08967638044842
 30
0.0
 10
109.02039546590758
 20
163.47831006909513
 30
0.0
 10
109.56001315121139
 20
164.00893146611062
 30
0.0
 10
109.71015686034876
 20
164.150614184918
 30
0.0
 10
109.65965518063321
 20
164.26548871460335
 30
0.0
 10
109.46314845773809
 20
164.24498114219955
 30
0.0
 10
109.11383599286695
 20
164.16671653850975
 30
0.0
  0
SPLINE
  5
E5
100
AcDbEntity
  8
52720015
  6
CONTINUOUS
 62
         7
100
AcDbSpline
210
0.0
220
0.0
230
1.0
 70
         8
 71
         3
 72
        12
 73
         8
 74
         0
 42
0.0
 43
0.0
 40
0.0
 40
0.0
 40
0.0
 40
0.0
 40
0.25
 40
0.25
 40
0.375
 40
0.375
 40
0.4642360575149886
 40
0.4642360575149886
 40
0.4642360575149886
 40
0.4642360575149886
 10
62.652404072611382
 20
177.90509950354121
 30
0.0
 10
60.558144960449866
 20
178.01344608330632
 30
0.0
 10
58.487091609777856
 20
178.15853233624418
 30
0.0
 10
55.462947459430787
 20
178.3880780031281
 30
0.0
 10
54.467646207822625
 20
178.46457832086926
 30
0.0
 10
52.843305247337248
 20
178.55234853867626
 30
0.0
 10
52.186764013731135
 20
178.57591617310177
 30
0.0
 10
51.547076511487724
 20
178.57621544005238
 30
0.0
  0
SPLINE
  5
E6
100
AcDbEntity
  8
52720015
  6
CONTINUOUS
 62
         7
100
AcDbSpline
210
0.0
220
0.0
230
1.0
 70
         8
 71
         3
 72
        12
 73
         8
 74
         0
 42
0.0
 43
0.0
 40
0.5368740332358989
 40
0.5368740332358989
 40
0.5368740332358989
 40
0.5368740332358989
 40
0.625
 40
0.625
 40
0.75
 40
0.75
 40
1.0
 40
1.0
 40
1.0
 40
1.0
 10
51.542801252801588
 20
157.87636185700765
 30
0.0
 10
52.179065067850274
 20
157.87666657559703
 30
0.0
 10
52.835922596001865
 20
157.89986234069048
 30
0.0
 10
54.456709335424065
 20
157.98704995610245
 30
0.0
 10
55.434012218045446
 20
158.06217871557064
 30
0.0
 10
58.440875977366034
 20
158.29039386954688
 30
0.0
 10
60.546061104813099
 20
158.43837540428572
 30
0.0
 10
62.652404072611382
 20
158.54734714281034
 30
0.0
  0
SPLINE
  5
E7
100
AcDbEntity
  8
52720015
  6
CONTINUOUS
 62
         7
100
AcDbSpline
210
0.0
220
0.0
230
1.0
 70
         8
 71
         3
 72
        10
 73
         6
 74
         0
 42
0.0
 43
0.0
 40
0.0
 40
0.0
 40
0.0
 40
0.0
 40
0.125
 40
0.125
 40
0.1743746027647655
 40
0.1743746027647655
 40
0.1743746027647655
 40
0.1743746027647655
 10
62.652404072611382
 20
158.54734714281034
 30
0.0
 10
62.81802500259581
 20
158.20867294951287
 30
0.0
 10
63.098655538141621
 20
158.01108510139525
 30
0.0
 10
63.66384484678796
 20
157.89164604641056
 30
0.0
 10
63.839727260664212
 20
157.87580339688074
 30
0.0
 10
64.029161660097799
 20
157.87574812678008
 30
0.0
  0
ARC
  5
E8
100
AcDbEntity
  8
52720015
  6
CONTINUOUS
 62
         7
100
AcDbCircle
 10
-10.9703163082
 20
161.5762233232
 30
0.0
 40
30.1655458531
100
AcDbArc
 50
347.2645244266
 51
12.7354755734
  0
ARC
  5
E9
100
AcDbEntity
  8
52720015
  6
CONTINUOUS
 62
         7
100
AcDbCircle
 10
117.7746413672
 20
161.5762233232
 30
0.0
 40
30.1655458531
100
AcDbArc
 50
167.2645244266
 51
192.7354755734
  0
ARC
  5
EA
100
AcDbEntity
  8
52720015
  6
CONTINUOUS
 62
         7
100
AcDbCircle
 10
40.7746413672
 20
161.5762233232
 30
0.0
 40
30.1655458531
100
AcDbArc
 50
167.2645244266
 51
192.7354755734
  0
LINE
  5
EB
100
AcDbEntity
  8
52720015
  6
CONTINUOUS
 62
         7
100
AcDbLine
 10
19.2019775242
 20
181.5262233232
 30
0.0
 11
18.4531038978
 21
181.5262233232
 31
0.0
  0
LINE
  5
EC
100
AcDbEntity
  8
52720015
  6
CONTINUOUS
 62
         7
100
AcDbLine
 10
10.6023475349
 20
181.5262233232
 30
0.0
 11
11.3512211613
 21
181.5262233232
 31
0.0
  0
ARC
  5
ED
100
AcDbEntity
  8
52720015
  6
CONTINUOUS
 62
         7
100
AcDbCircle
 10
-10.9703163082
 20
174.8762233232
 30
0.0
 40
30.1655458531
100
AcDbArc
 50
347.2645244266
 51
12.7354755734
  0
LINE
  5
EE
100
AcDbEntity
  8
52720015
  6
CONTINUOUS
 62
         7
100
AcDbLine
 10
87.6023475349
 20
181.5262233232
 30
0.0
 11
88.3512211613
 21
181.5262233232
 31
0.0
  0
LINE
  5
EF
100
AcDbEntity
  8
52720015
  6
CONTINUOUS
 62
         7
100
AcDbLine
 10
87.6023475349
 20
154.9262233232
 30
0.0
 11
88.3512211613
 21
154.9262233232
 31
0.0
  0
ARC
  5
F0
100
AcDbEntity
  8
52720015
  6
CONTINUOUS
 62
         7
100
AcDbCircle
 10
117.7746413672
 20
174.8762233232
 30
0.0
 40
30.1655458531
100
AcDbArc
 50
167.2645244266
 51
192.7354755734
  0
LINE
  5
F1
100
AcDbEntity
  8
52720015
  6
CONTINUOUS
 62
         7
100
AcDbLine
 10
88.3512211613
 20
154.9262233232
 30
0.0
 11
95.4531038978
 21
154.9262233232
 31
0.0
  0
LINE
  5
F2
100
AcDbEntity
  8
52720015
  6
CONTINUOUS
 62
         7
100
AcDbLine
 10
11.3512211613
 20
168.2262233232
 30
0.0
 11
18.4531038978
 21
168.2262233232
 31
0.0
  0
LINE
  5
F3
100
AcDbEntity
  8
52720015
  6
CONTINUOUS
 62
         7
100
AcDbLine
 10
88.3512211613
 20
168.2262233232
 30
0.0
 11
95.4531038978
 21
168.2262233232
 31
0.0
  0
LINE
  5
F4
100
AcDbEntity
  8
52720015
  6
CONTINUOUS
 62
         7
100
AcDbLine
 10
19.2019775242
 20
154.9262233232
 30
0.0
 11
18.4531038978
 21
154.9262233232
 31
0.0
  0
LINE
  5
F5
100
AcDbEntity
  8
52720015
  6
CONTINUOUS
 62
         7
100
AcDbLine
 10
96.2019775242
 20
181.5262233232
 30
0.0
 11
95.4531038978
 21
181.5262233232
 31
0.0
  0
ARC
  5
F6
100
AcDbEntity
  8
52720015
  6
CONTINUOUS
 62
         7
100
AcDbCircle
 10
66.0296836918
 20
174.8762233232
 30
0.0
 40
30.1655458531
100
AcDbArc
 50
347.2645244266
 51
12.7354755734
  0
LINE
  5
F7
100
AcDbEntity
  8
52720015
  6
CONTINUOUS
 62
         7
100
AcDbLine
 10
11.3512211613
 20
181.5262233232
 30
0.0
 11
18.4531038978
 21
181.5262233232
 31
0.0
  0
LINE
  5
F8
100
AcDbEntity
  8
52720015
  6
CONTINUOUS
 62
         7
100
AcDbLine
 10
88.3512211613
 20
181.5262233232
 30
0.0
 11
95.4531038978
 21
181.5262233232
 31
0.0
  0
LINE
  5
F9
100
AcDbEntity
  8
52720015
  6
CONTINUOUS
 62
         7
100
AcDbLine
 10
11.3512211613
 20
154.9262233232
 30
0.0
 11
18.4531038978
 21
154.9262233232
 31
0.0
  0
ARC
  5
FA
100
AcDbEntity
  8
52720015
  6
CONTINUOUS
 62
         7
100
AcDbCircle
 10
40.7746413672
 20
174.8762233232
 30
0.0
 40
30.1655458531
100
AcDbArc
 50
167.2645244266
 51
192.7354755734
  0
LINE
  5
FB
100
AcDbEntity
  8
52720015
  6
CONTINUOUS
 62
         7
100
AcDbLine
 10
10.6023475349
 20
154.9262233232
 30
0.0
 11
11.3512211613
 21
154.9262233232
 31
0.0
  0
LINE
  5
FC
100
AcDbEntity
  8
52720015
  6
CONTINUOUS
 62
         7
100
AcDbLine
 10
10.4021625295
 20
155.4762233232
 30
0.0
 11
10.4021625295
 21
180.9762233232
 31
0.0
  0
LINE
  5
FD
100
AcDbEntity
  8
52720015
  6
CONTINUOUS
 62
         7
100
AcDbLine
 10
62.3021625295
 20
182.7262233232
 30
0.0
 11
53.3021625295
 21
182.7262233232
 31
0.0
  0
ELLIPSE
  5
FE
100
AcDbEntity
  8
52720015
  6
CONTINUOUS
 62
         7
100
AcDbEllipse
 10
53.3021625295
 20
168.2262233232
 30
0.0
 11
0.0000000000000659
 21
14.500000000001403
 31
0.0
210
0.0
220
0.0
230
1.0
 40
0.8660254038
 41
2.365695656506126
 42
3.9815310435132769
  0
LINE
  5
FF
100
AcDbEntity
  8
52720015
  6
CONTINUOUS
 62
         7
100
AcDbLine
 10
79.5452405914
 20
178.5762233232
 30
0.0
 11
75.137711053
 21
178.5762233232
 31
0.0
  0
LINE
  5
100
100
AcDbEntity
  8
52720015
  6
CONTINUOUS
 62
         7
100
AcDbLine
 10
23.1021625295
 20
180.9762233232
 30
0.0
 11
23.1021625295
 21
155.4762233232
 31
0.0
  0
LINE
  5
101
100
AcDbEntity
  8
52720015
  6
CONTINUOUS
 62
         7
100
AcDbLine
 10
27.2590844677
 20
178.5762233232
 30
0.0
 11
27.2590844677
 21
157.8762233232
 31
0.0
  0
LINE
  5
102
100
AcDbEntity
  8
52720015
  6
CONTINUOUS
 62
         7
100
AcDbLine
 10
79.5452405914
 20
157.8762233232
 30
0.0
 11
79.5452405914
 21
178.5762233232
 31
0.0
  0
LINE
  5
103
100
AcDbEntity
  8
52720015
  6
CONTINUOUS
 62
         7
100
AcDbLine
 10
83.7021625295
 20
155.4762233232
 30
0.0
 11
83.7021625295
 21
180.9762233232
 31
0.0
  0
LINE
  5
104
100
AcDbEntity
  8
52720015
  6
CONTINUOUS
 62
         7
100
AcDbLine
 10
19.4021625295
 20
155.4762233232
 30
0.0
 11
19.4021625295
 21
180.9762233232
 31
0.0
  0
LINE
  5
105
100
AcDbEntity
  8
52720015
  6
CONTINUOUS
 62
         7
100
AcDbLine
 10
87.4021625295
 20
155.4762233232
 30
0.0
 11
87.4021625295
 21
180.9762233232
 31
0.0
  0
ARC
  5
106
100
AcDbEntity
  8
52720015
  6
CONTINUOUS
 62
         7
100
AcDbCircle
 10
66.0296836918
 20
161.5762233232
 30
0.0
 40
30.1655458531
100
AcDbArc
 50
347.2645244266
 51
12.7354755734
  0
LINE
  5
107
100
AcDbEntity
  8
52720015
  6
CONTINUOUS
 62
         7
100
AcDbLine
 10
96.2019775242
 20
154.9262233232
 30
0.0
 11
95.4531038978
 21
154.9262233232
 31
0.0
  0
LINE
  5
108
100
AcDbEntity
  8
52720015
  6
CONTINUOUS
 62
         7
100
AcDbLine
 10
96.4021625295
 20
155.4762233232
 30
0.0
 11
96.4021625295
 21
180.9762233232
 31
0.0
  0
ELLIPSE
  5
109
100
AcDbEntity
  8
52720015
  6
CONTINUOUS
 62
         7
100
AcDbEllipse
 10
53.3021625295
 20
168.2262233232
 30
0.0
 11
0.0000000000000056
 21
-14.500000000001421
 31
0.0
210
0.0
220
0.0
230
1.0
 40
0.8660254038
 41
2.3016542636663142
 42
3.917489650673462
  0
LINE
  5
10A
100
AcDbEntity
  8
52720015
  6
CONTINUOUS
 62
         7
100
AcDbLine
 10
73.1395470168
 20
157.6640074648
 30
0.0
 11
72.1690737163
 21
157.6640074648
 31
0.0
  0
LINE
  5
10B
100
AcDbEntity
  8
52720015
  6
CONTINUOUS
 62
         7
100
AcDbLine
 10
73.1395470168
 20
158.0714016192
 30
0.0
 11
72.1690737163
 21
158.0714016193
 31
0.0
  0
ELLIPSE
  5
10C
100
AcDbEntity
  8
52720015
  6
CONTINUOUS
 62
         7
100
AcDbEllipse
 10
75.1387583087
 20
168.226223323
 30
0.0
 11
0.0000000115944476
 21
-10.34999999978473
 31
0.0
210
0.0
220
0.0
230
1.0
 40
0.999343832
 41
6.088673734525992
 42
6.2831346807766373
  0
LINE
  5
10D
100
AcDbEntity
  8
52720015
  6
CONTINUOUS
 62
         7
100
AcDbLine
 10
72.1690737163
 20
157.89353507
 30
0.0
 11
68.3021625295
 21
157.89353507
 31
0.0
  0
ELLIPSE
  5
10E
100
AcDbEntity
  8
52720015
  6
CONTINUOUS
 62
         7
100
AcDbEllipse
 10
60.2610167676
 20
168.2262234727
 30
0.0
 11
36.441147428607529
 21
-0.0000000171193978
 31
0.0
210
0.0
220
0.0
230
1.0
 40
0.3979018465
 41
1.4637750171177757
 42
1.4852303614136346
  0
ELLIPSE
  5
10F
100
AcDbEntity
  8
52720015
  6
CONTINUOUS
 62
         7
100
AcDbEllipse
 10
62.3021625295
 20
168.2262233233
 30
0.0
 11
-0.0000000000031815
 21
-14.499999999849729
 31
0.0
210
0.0
220
0.0
230
1.0
 40
0.8660254038
 41
3.0560266874723485
 42
3.1415926535897936
  0
LINE
  5
110
100
AcDbEntity
  8
52720015
  6
CONTINUOUS
 62
         7
100
AcDbLine
 10
68.3021625295
 20
178.5589115763
 30
0.0
 11
72.1690737163
 21
178.5589115763
 31
0.0
  0
LINE
  5
111
100
AcDbEntity
  8
52720015
  6
CONTINUOUS
 62
         7
100
AcDbLine
 10
72.1690737163
 20
178.3810450271
 30
0.0
 11
73.1395470168
 21
178.3810450271
 31
0.0
  0
ELLIPSE
  5
112
100
AcDbEntity
  8
52720015
  6
CONTINUOUS
 62
         7
100
AcDbEllipse
 10
68.5676218934
 20
168.2262233236
 30
0.0
 11
0.0000000002384724
 21
14.499999999561984
 31
0.0
210
0.0
220
0.0
230
1.0
 40
0.8199286598
 41
0.1546452712100954
 42
0.259186631712701
  0
ELLIPSE
  5
113
100
AcDbEntity
  8
52720015
  6
CONTINUOUS
 62
         7
100
AcDbEllipse
 10
62.3021625295
 20
168.2262233228
 30
0.0
 11
0.0000000002344288
 21
14.500000000366665
 31
0.0
210
0.0
220
0.0
230
1.0
 40
0.8660254038
 41
6.0239986755013657
 42
6.1352110845635979
  0
LINE
  5
114
100
AcDbEntity
  8
52720015
  6
CONTINUOUS
 62
         7
100
AcDbLine
 10
27.2590844677
 20
157.8762233232
 30
0.0
 11
51.5457789605
 21
157.8762233232
 31
0.0
  0
ELLIPSE
  5
115
100
AcDbEntity
  8
52720015
  6
CONTINUOUS
 62
         7
100
AcDbEllipse
 10
64.9811993416
 20
168.2262233235
 30
0.0
 11
-0.0000000000587516
 21
-14.500000000290873
 31
0.0
210
0.0
220
0.0
230
1.0
 40
0.8199286598
 41
6.1733762705324855
 42
6.1846012195702791
  0
ELLIPSE
  5
116
100
AcDbEntity
  8
52720015
  6
CONTINUOUS
 62
         7
100
AcDbEllipse
 10
62.3021625295
 20
168.2262233232
 30
0.0
 11
0.0000000000032075
 21
14.499999999976776
 31
0.0
210
0.0
220
0.0
230
1.0
 40
0.8660254038
 41
3.1415926535897931
 42
3.2514016902416083
  0
ELLIPSE
  5
117
100
AcDbEntity
  8
52720015
  6
CONTINUOUS
 62
         7
100
AcDbEllipse
 10
62.3021625295
 20
168.2262233236
 30
0.0
 11
0.0000000002511585
 21
-14.500000000431488
 31
0.0
210
0.0
220
0.0
230
1.0
 40
0.8660254038
 41
0.1204492995812644
 42
0.2247624422738815
  0
LINE
  5
118
100
AcDbEntity
  8
52720015
  6
CONTINUOUS
 62
         7
100
AcDbLine
 10
65.1008833142
 20
154.0909406603
 30
0.0
 11
66.9105505921
 21
154.0909406603
 31
0.0
  0
ELLIPSE
  5
119
100
AcDbEntity
  8
52720015
  6
CONTINUOUS
 62
         7
100
AcDbEllipse
 10
64.1118298076
 20
168.2262233229
 30
0.0
 11
-0.0000000002456212
 21
-14.49999999973388
 31
0.0
210
0.0
220
0.0
230
1.0
 40
0.8660254038
 41
0.2247624423090276
 42
0.3032040846295586
  0
ELLIPSE
  5
11A
100
AcDbEntity
  8
52720015
  6
CONTINUOUS
 62
         7
100
AcDbEllipse
 10
71.4956372105
 20
168.2262231853
 30
0.0
 11
0.0000001117347222
 21
-14.499999861995631
 31
0.0
210
0.0
220
0.0
230
1.0
 40
0.8394762178
 41
5.9799812146728542
 42
6.0091019461176902
  0
ELLIPSE
  5
11B
100
AcDbEntity
  8
52720015
  6
CONTINUOUS
 62
         7
100
AcDbEllipse
 10
80.7521625295
 20
168.2262233232
 30
0.0
 11
-0.0000000000005829
 21
18.633594230684647
 31
0.0
210
0.0
220
0.0
230
1.0
 40
0.8660254038
 41
4.4660469523442723
 42
4.9587310084250511
  0
ELLIPSE
  5
11C
100
AcDbEntity
  8
52720015
  6
CONTINUOUS
 62
         7
100
AcDbEllipse
 10
64.1118298078
 20
168.2262233199
 30
0.0
 11
-0.0000000010418333
 21
-14.999999996684553
 31
0.0
210
0.0
220
0.0
230
1.0
 40
0.8660254039
 41
0.0623115465821192
 42
0.1164157668476322
  0
ELLIPSE
  5
11D
100
AcDbEntity
  8
52720015
  6
CONTINUOUS
 62
         7
100
AcDbEllipse
 10
65.679517971
 20
168.2262233753
 30
0.0
 11
-0.000000006218439
 21
-15.000000052076571
 31
0.0
210
0.0
220
0.0
230
1.0
 40
0.8123185439
 41
6.2208737611093916
 42
6.2483282040591623
  0
ELLIPSE
  5
11E
100
AcDbEntity
  8
52720015
  6
CONTINUOUS
 62
         7
100
AcDbEllipse
 10
64.8021625295
 20
168.2262233232
 30
0.0
 11
-0.0000000000042969
 21
-14.999999999979703
 31
0.0
210
0.0
220
0.0
230
1.0
 40
0.8660254038
 41
0.034857103517877
 42
0.2647235570803531
  0
LINE
  5
11F
100
AcDbEntity
  8
52720015
  6
CONTINUOUS
 62
         7
100
AcDbLine
 10
63.8110341078
 20
153.8312794627
 30
0.0
 11
63.8110341078
 21
153.3277533095
 31
0.0
  0
LINE
  5
120
100
AcDbEntity
  8
52720015
  6
CONTINUOUS
 62
         7
100
AcDbLine
 10
64.9207568297
 20
153.3277533095
 30
0.0
 11
64.9207568297
 21
153.2553343684
 31
0.0
  0
ELLIPSE
  5
121
100
AcDbEntity
  8
52720015
  6
CONTINUOUS
 62
         7
100
AcDbEllipse
 10
71.4956372583
 20
168.2262233777
 30
0.0
 11
-0.0000000434789808
 21
-15.000000054562891
 31
0.0
210
0.0
220
0.0
230
1.0
 40
0.839476213
 41
5.9903928046280415
 42
6.0184617530055773
  0
ELLIPSE
  5
122
100
AcDbEntity
  8
52720015
  6
CONTINUOUS
 62
         7
100
AcDbEllipse
 10
64.1118298072
 20
168.2262233245
 30
0.0
 11
0.0000000011173458
 21
-15.000000001306425
 31
0.0
210
0.0
220
0.0
230
1.0
 40
0.8660254038
 41
0.2171481501057312
 42
0.292792505433677
  0
ELLIPSE
  5
123
100
AcDbEntity
  8
52720015
  6
CONTINUOUS
 62
         7
100
AcDbEllipse
 10
62.3021625297
 20
168.226223322
 30
0.0
 11
-0.0000000007079407
 21
-14.999999998798552
 31
0.0
210
0.0
220
0.0
230
1.0
 40
0.8660254038
 41
0.1164157668200728
 42
0.2171481502289517
  0
LINE
  5
124
100
AcDbEntity
  8
52720015
  6
CONTINUOUS
 62
         7
100
AcDbLine
 10
66.9105505921
 20
153.5784857518
 30
0.0
 11
65.1008833142
 21
153.5784857518
 31
0.0
  0
LINE
  5
125
100
AcDbEntity
  8
52720015
  6
CONTINUOUS
 62
         7
100
AcDbLine
 10
67.8612046246
 20
154.3876449531
 30
0.0
 11
67.8612046246
 21
153.8645990658
 31
0.0
  0
LINE
  5
126
100
AcDbEntity
  8
52720015
  6
CONTINUOUS
 62
         7
100
AcDbLine
 10
68.2009978525
 20
154.2674545882
 30
0.0
 11
68.2009978525
 21
153.7487503187
 31
0.0
  0
ELLIPSE
  5
127
100
AcDbEntity
  8
52720015
  6
CONTINUOUS
 62
         7
100
AcDbEllipse
 10
66.0435956186
 20
168.2262233166
 30
0.0
 11
-44.378865011875106
 21
0.0000000006835454
 31
0.0
210
0.0
220
0.0
230
1.0
 40
0.3379987296
 41
1.4513146090588729
 42
1.4689585896703403
  0
ELLIPSE
  5
128
100
AcDbEntity
  8
52720015
  6
CONTINUOUS
 62
         7
100
AcDbEllipse
 10
62.3021625297
 20
168.226223324
 30
0.0
 11
-0.0000000005206773
 21
-15.00000000086362
 31
0.0
210
0.0
220
0.0
230
1.0
 40
0.8660254038
 41
6.0568286474669506
 42
6.1637035894581427
  0
LINE
  5
129
100
AcDbEntity
  8
52720015
  6
CONTINUOUS
 62
         7
100
AcDbLine
 10
63.8110341078
 20
153.3277533095
 30
0.0
 11
65.6207013858
 21
153.3277533095
 31
0.0
  0
LINE
  5
12A
100
AcDbEntity
  8
52720015
  6
CONTINUOUS
 62
         7
100
AcDbLine
 10
65.1008833142
 20
154.0909406603
 30
0.0
 11
65.1008833142
 21
153.5784857518
 31
0.0
  0
LINE
  5
12B
100
AcDbEntity
  8
52720015
  6
CONTINUOUS
 62
         7
100
AcDbLine
 10
66.9105505921
 20
154.0909406603
 30
0.0
 11
66.9105505921
 21
153.5784857518
 31
0.0
  0
LINE
  5
12C
100
AcDbEntity
  8
52720015
  6
CONTINUOUS
 62
         7
100
AcDbLine
 10
59.3867492313
 20
153.7262233232
 30
0.0
 11
59.3867492313
 21
153.6088653631
 31
0.0
  0
ELLIPSE
  5
12D
100
AcDbEntity
  8
52720015
  6
CONTINUOUS
 62
         7
100
AcDbEllipse
 10
62.3021625295
 20
168.226223323
 30
0.0
 11
0.0000000000108177
 21
14.999999999798089
 31
0.0
210
0.0
220
0.0
230
1.0
 40
0.8660254038
 41
3.0822676566213776
 42
3.2477273416952381
  0
LINE
  5
12E
100
AcDbEntity
  8
52720015
  6
CONTINUOUS
 62
         7
100
AcDbLine
 10
64.8941285153
 20
153.3277533095
 30
0.0
 11
64.8941285153
 21
153.2265992276
 31
0.0
  0
ELLIPSE
  5
12F
100
AcDbEntity
  8
52720015
  6
CONTINUOUS
 62
         7
100
AcDbEllipse
 10
64.9811993416
 20
168.2262233232
 30
0.0
 11
-0.0000000000109513
 21
-15.000000000003876
 31
0.0
210
0.0
220
0.0
230
1.0
 40
0.8199286598
 41
6.1770506190759766
 42
6.2761057031539318
  0
LINE
  5
130
100
AcDbEntity
  8
52720015
  6
CONTINUOUS
 62
         7
100
AcDbLine
 10
60.7537398149
 20
153.7262233232
 30
0.0
 11
60.7537398149
 21
153.3331651149
 31
0.0
  0
LINE
  5
131
100
AcDbEntity
  8
52720015
  6
CONTINUOUS
 62
         7
100
AcDbLine
 10
61.0962612927
 20
183.161452468
 30
0.0
 11
61.228989839
 21
183.161452468
 31
0.0
  0
LINE
  5
132
100
AcDbEntity
  8
52720015
  6
CONTINUOUS
 62
         7
100
AcDbLine
 10
61.5319601804
 20
153.7262233232
 30
0.0
 11
61.5319601804
 21
153.252611497
 31
0.0
  0
ELLIPSE
  5
133
100
AcDbEntity
  8
52720015
  6
CONTINUOUS
 62
         7
100
AcDbEllipse
 10
64.8021625295
 20
168.2262233232
 30
0.0
 11
0.000000000006781
 21
15.000000000013632
 31
0.0
210
0.0
220
0.0
230
1.0
 40
0.8660254038
 41
3.1415926535897922
 42
3.1486722576167963
  0
LINE
  5
134
100
AcDbEntity
  8
52720015
  6
CONTINUOUS
 62
         7
100
AcDbLine
 10
63.6783055615
 20
153.8135561929
 30
0.0
 11
63.6783055615
 21
153.3106283365
 31
0.0
  0
LINE
  5
135
100
AcDbEntity
  8
52720015
  6
CONTINUOUS
 62
         7
100
AcDbLine
 10
61.0962612927
 20
182.7262233232
 30
0.0
 11
61.0962612927
 21
183.161452468
 31
0.0
  0
LINE
  5
136
100
AcDbEntity
  8
52720015
  6
CONTINUOUS
 62
         7
100
AcDbLine
 10
59.8064120864
 20
182.7262233232
 30
0.0
 11
59.8064120864
 21
182.9467862529
 31
0.0
  0
ELLIPSE
  5
137
100
AcDbEntity
  8
52720015
  6
CONTINUOUS
 62
         7
100
AcDbEllipse
 10
62.3021625297
 20
168.226223322
 30
0.0
 11
-0.0000000006168659
 21
15.000000001214149
 31
0.0
210
0.0
220
0.0
230
1.0
 40
0.8660254038
 41
0.0929641672071257
 42
0.1933249486276343
  0
ELLIPSE
  5
138
100
AcDbEntity
  8
52720015
  6
CONTINUOUS
 62
         7
100
AcDbEllipse
 10
68.5676218936
 20
168.2262233224
 30
0.0
 11
-0.0000000003840678
 21
15.00000000079233
 31
0.0
210
0.0
220
0.0
230
1.0
 40
0.8199286598
 41
0.149451018510552
 42
0.2503584892842172
  0
ELLIPSE
  5
139
100
AcDbEntity
  8
52720015
  6
CONTINUOUS
 62
         7
100
AcDbEllipse
 10
62.3021625295
 20
168.226223323
 30
0.0
 11
-0.0000000000037574
 21
-15.000000000156554
 31
0.0
210
0.0
220
0.0
230
1.0
 40
0.8660254038
 41
3.0588855209903509
 42
3.2242997861896936
  0
ELLIPSE
  5
13A
100
AcDbEntity
  8
52720015
  6
CONTINUOUS
 62
         7
100
AcDbEllipse
 10
60.2610166954
 20
168.2262231775
 30
0.0
 11
37.697739101934921
 21
0.0000000167819626
 31
0.0
210
0.0
220
0.0
230
1.0
 40
0.3979018504
 41
1.4618568462806989
 42
1.4880891934694198
  0
ELLIPSE
  5
13B
100
AcDbEntity
  8
52720015
  6
CONTINUOUS
 62
         7
100
AcDbEllipse
 10
62.9473026918
 20
168.2262233207
 30
0.0
 11
0.0000000006849729
 21
15.000000002339844
 31
0.0
210
0.0
220
0.0
230
1.0
 40
0.8660254037
 41
6.174245827311255
 42
6.2395071116537304
  0
ELLIPSE
  5
13C
100
AcDbEntity
  8
52720015
  6
CONTINUOUS
 62
         7
100
AcDbEllipse
 10
61.5624783727
 20
168.2262233397
 30
0.0
 11
44.705627668718201
 21
-0.0000000012828513
 31
0.0
210
0.0
220
0.0
230
1.0
 40
0.3355282269
 41
1.4880891942344983
 42
1.5271181312871531
  0
ELLIPSE
  5
13D
100
AcDbEntity
  8
52720015
  6
CONTINUOUS
 62
         7
100
AcDbEllipse
 10
66.7756588027
 20
168.226223328
 30
0.0
 11
-18.398102905253928
 21
-0.0000000015745993
 31
0.0
210
0.0
220
0.0
230
1.0
 40
0.815301451
 41
4.7950961128932441
 42
4.855396227954289
  0
ELLIPSE
  5
13E
100
AcDbEntity
  8
52720015
  6
CONTINUOUS
 62
         7
100
AcDbEllipse
 10
62.3021625296
 20
168.2262233237
 30
0.0
 11
-0.000000000356248
 21
14.999999999492697
 31
0.0
210
0.0
220
0.0
230
1.0
 40
0.8660254038
 41
6.0328268178428566
 42
6.1401780595051729
  0
ELLIPSE
  5
13F
100
AcDbEntity
  8
52720015
  6
CONTINUOUS
 62
         7
100
AcDbEllipse
 10
64.3913851445
 20
168.226223322
 30
0.0
 11
-38.279692012377204
 21
0.0000000000413084
 31
0.0
210
0.0
220
0.0
230
1.0
 40
0.3918526825
 41
4.6961451431708614
 42
4.7123889803880452
  0
LINE
  5
140
100
AcDbEntity
  8
52720015
  6
CONTINUOUS
 62
         7
100
AcDbLine
 10
64.3596705564
 20
183.09632926
 30
0.0
 11
64.3596705564
 21
183.1373027393
 31
0.0
  0
LINE
  5
141
100
AcDbEntity
  8
52720015
  6
CONTINUOUS
 62
         7
100
AcDbLine
 10
61.228989839
 20
182.7262233232
 30
0.0
 11
61.228989839
 21
183.1749490382
 31
0.0
  0
LINE
  5
142
100
AcDbEntity
  8
52720015
  6
CONTINUOUS
 62
         7
100
AcDbLine
 10
63.3753352201
 20
182.673174576
 30
0.0
 11
63.3753352201
 21
183.1749490382
 31
0.0
  0
LINE
  5
143
100
AcDbEntity
  8
52720015
  6
CONTINUOUS
 62
         7
100
AcDbLine
 10
66.736369123
 20
182.5531836825
 30
0.0
 11
66.736369123
 21
183.0590178387
 31
0.0
  0
LINE
  5
144
100
AcDbEntity
  8
52720015
  6
CONTINUOUS
 62
         7
100
AcDbLine
 10
64.1535555856
 20
182.5677640936
 30
0.0
 11
64.1535555856
 21
183.0731015024
 31
0.0
  0
LINE
  5
145
100
AcDbEntity
  8
52720015
  6
CONTINUOUS
 62
         7
100
AcDbLine
 10
65.5205461692
 20
182.2419053376
 30
0.0
 11
65.5205461692
 21
182.7585783399
 31
0.0
  0
ELLIPSE
  5
146
100
AcDbEntity
  8
52720015
  6
CONTINUOUS
 62
         7
100
AcDbEllipse
 10
64.8021625295
 20
168.2262233226
 30
0.0
 11
0.0000000001514518
 21
15.00000000054774
 31
0.0
210
0.0
220
0.0
230
1.0
 40
0.8660254038
 41
6.1337342886556385
 42
6.2669414699707673
  0
LINE
  5
147
100
AcDbEntity
  8
52720015
  6
CONTINUOUS
 62
         7
100
AcDbLine
 10
72.1690737163
 20
157.4928898924
 30
0.0
 11
68.3021625295
 21
157.4928898924
 31
0.0
  0
LINE
  5
148
100
AcDbEntity
  8
52720015
  6
CONTINUOUS
 62
         7
100
AcDbLine
 10
68.3021625295
 20
157.4928898924
 30
0.0
 11
68.3021625295
 21
157.4762233232
 31
0.0
  0
ELLIPSE
  5
149
100
AcDbEntity
  8
52720015
  6
CONTINUOUS
 62
         7
100
AcDbEllipse
 10
75.1387583088
 20
168.2262233233
 30
0.0
 11
-0.0000000076498981
 21
-10.750000000118789
 31
0.0
210
0.0
220
0.0
230
1.0
 40
0.999343832
 41
6.0959988374495628
 42
6.2831365663240977
  0
ELLIPSE
  5
14A
100
AcDbEntity
  8
52720015
  6
CONTINUOUS
 62
         7
100
AcDbEllipse
 10
75.1387583087
 20
168.2262233231
 30
0.0
 11
-0.0000000039431548
 21
10.750000000000773
 31
0.0
210
0.0
220
0.0
230
1.0
 40
0.999343832
 41
0.0000487412358807
 42
0.1871864700732779
  0
LINE
  5
14B
100
AcDbEntity
  8
52720015
  6
CONTINUOUS
 62
         7
100
AcDbLine
 10
68.3021625295
 20
178.959556754
 30
0.0
 11
68.3021625295
 21
178.9762233232
 31
0.0
  0
LINE
  5
14C
100
AcDbEntity
  8
52720015
  6
CONTINUOUS
 62
         7
100
AcDbLine
 10
68.3021625295
 20
178.959556754
 30
0.0
 11
72.1690737163
 21
178.959556754
 31
0.0
  0
LINE
  5
14D
100
AcDbEntity
  8
52720015
  6
CONTINUOUS
 62
         7
100
AcDbLine
 10
72.1690737163
 20
157.6640074648
 30
0.0
 11
72.1690737163
 21
157.4928898924
 31
0.0
  0
LINE
  5
14E
100
AcDbEntity
  8
52720015
  6
CONTINUOUS
 62
         7
100
AcDbLine
 10
72.1690737163
 20
178.959556754
 30
0.0
 11
72.1690737163
 21
178.7884391815
 31
0.0
  0
LINE
  5
14F
100
AcDbEntity
  8
52720015
  6
CONTINUOUS
 62
         7
100
AcDbLine
 10
75.1382346809
 20
157.4762233359
 30
0.0
 11
75.1382346809
 21
157.8762233365
 31
0.0
  0
LINE
  5
150
100
AcDbEntity
  8
52720015
  6
CONTINUOUS
 62
         7
100
AcDbLine
 10
73.1395470168
 20
157.6640074648
 30
0.0
 11
73.1395470168
 21
158.0714016192
 31
0.0
  0
LINE
  5
151
100
AcDbEntity
  8
52720015
  6
CONTINUOUS
 62
         7
100
AcDbLine
 10
72.1690737163
 20
157.6640074648
 30
0.0
 11
72.1690737163
 21
158.0714016193
 31
0.0
  0
LINE
  5
152
100
AcDbEntity
  8
52720015
  6
CONTINUOUS
 62
         7
100
AcDbLine
 10
68.3021625295
 20
157.4928898924
 30
0.0
 11
68.3021625295
 21
157.89353507
 31
0.0
  0
LINE
  5
153
100
AcDbEntity
  8
52720015
  6
CONTINUOUS
 62
         7
100
AcDbLine
 10
72.1690737163
 20
178.7884391816
 30
0.0
 11
73.1395470168
 21
178.7884391815
 31
0.0
  0
ELLIPSE
  5
154
100
AcDbEntity
  8
52720015
  6
CONTINUOUS
 62
         7
100
AcDbEllipse
 10
101.0327681187
 20
168.2262233232
 30
0.0
 11
-0.0000000000000069
 21
-1.7499999999999993
 31
0.0
210
0.0
220
0.0
230
1.0
 40
0.8660254038
 41
3.6592797854482608
 42
5.7654981753210928
  0
ELLIPSE
  5
155
100
AcDbEntity
  8
52720015
  6
CONTINUOUS
 62
         7
100
AcDbEllipse
 10
99.5327681187
 20
168.2262233232
 30
0.0
 11
0.0000000000000069
 21
-1.7500000000000002
 31
0.0
210
0.0
220
0.0
230
1.0
 40
0.8660254038
 41
0.0
 42
6.2831853071795862
  0
ARC
  5
156
100
AcDbEntity
  8
52720015
  6
CONTINUOUS
 62
         7
100
AcDbCircle
 10
30.3021625295
 20
168.2262233232
 30
0.0
 40
17.0
100
AcDbArc
 50
37.5044850103
 51
130.2424661311
  0
ARC
  5
157
100
AcDbEntity
  8
52720015
  6
CONTINUOUS
 62
         7
100
AcDbCircle
 10
30.3021625295
 20
168.2262233232
 30
0.0
 40
17.0
100
AcDbArc
 50
229.7575338689
 51
322.4955149897
  0
ELLIPSE
  5
158
100
AcDbEntity
  8
52720015
  6
CONTINUOUS
 62
         7
100
AcDbEllipse
 10
81.5021625295
 20
168.2262233232
 30
0.0
 11
0.0000000000573812
 21
18.685975360827094
 31
0.0
210
0.0
220
0.0
230
1.0
 40
0.8660254038
 41
5.0558498470282727
 42
5.1131969644756943
  0
ELLIPSE
  5
159
100
AcDbEntity
  8
52720015
  6
CONTINUOUS
 62
         7
100
AcDbEllipse
 10
81.5021625295
 20
168.2262233232
 30
0.0
 11
0.0000000000001527
 21
-18.685975384922713
 31
0.0
210
0.0
220
0.0
230
1.0
 40
0.8660254038
 41
2.3628023250271086
 42
3.1415926535897927
  0
ELLIPSE
  5
15A
100
AcDbEntity
  8
52720015
  6
CONTINUOUS
 62
         7
100
AcDbEllipse
 10
81.5021625295
 20
168.2262233232
 30
0.0
 11
-0.0000000000003574
 21
18.685975384922951
 31
0.0
210
0.0
220
0.0
230
1.0
 40
0.8660254038
 41
0.0
 42
0.0605214870919991
  0
ELLIPSE
  5
15B
100
AcDbEntity
  8
52720015
  6
CONTINUOUS
 62
         7
100
AcDbEllipse
 10
81.5021625295
 20
168.2262233232
 30
0.0
 11
0.0000000000002741
 21
-18.685975384922923
 31
0.0
210
0.0
220
0.0
230
1.0
 40
0.8660254038
 41
0.0
 42
0.778790328562663
  0
ELLIPSE
  5
15C
100
AcDbEntity
  8
52720015
  6
CONTINUOUS
 62
         7
100
AcDbEllipse
 10
81.5021625294
 20
168.2262233232
 30
0.0
 11
0.0000000001820523
 21
-18.685975385000912
 31
0.0
210
0.0
220
0.0
230
1.0
 40
0.8660254038
 41
1.1699883432440374
 42
1.2273354601447546
  0
ARC
  5
15D
100
AcDbEntity
  8
52720015
  6
CONTINUOUS
 62
         7
100
AcDbCircle
 10
62.9967697623
 20
431.2947925954
 30
0.0
 40
282.3615997199
100
AcDbArc
 50
274.0687075244
 51
277.2359773968
  0
ELLIPSE
  5
15E
100
AcDbEntity
  8
52720015
  6
CONTINUOUS
 62
         7
100
AcDbEllipse
 10
81.5021625295
 20
168.2262233232
 30
0.0
 11
0.00000000000034
 21
18.685975384922912
 31
0.0
210
0.0
220
0.0
230
1.0
 40
0.8660254038
 41
3.0810711664977775
 42
3.1415926535897931
  0
ELLIPSE
  5
15F
100
AcDbEntity
  8
52720015
  6
CONTINUOUS
 62
         7
100
AcDbEllipse
 10
73.1120927594
 20
168.2262233232
 30
0.0
 11
0.0000000000000312
 21
18.099999999999998
 31
0.0
210
0.0
220
0.0
230
1.0
 40
0.8660254038
 41
0.0000000000000002
 42
0.5942539716941584
  0
ELLIPSE
  5
160
100
AcDbEntity
  8
52720015
  6
CONTINUOUS
 62
         7
100
AcDbEllipse
 10
73.1120927594
 20
168.2262233232
 30
0.0
 11
0.0000000000000312
 21
18.099999999999998
 31
0.0
210
0.0
220
0.0
230
1.0
 40
0.8660254038
 41
2.5476296191696495
 42
3.9307834726296917
  0
ELLIPSE
  5
161
100
AcDbEntity
  8
52720015
  6
CONTINUOUS
 62
         7
100
AcDbEllipse
 10
73.1120927594
 20
168.2262233232
 30
0.0
 11
0.0000000000000312
 21
18.099999999999998
 31
0.0
210
0.0
220
0.0
230
1.0
 40
0.8660254038
 41
5.4939944881396903
 42
6.2831853071795862
  0
ARC
  5
162
100
AcDbEntity
  8
52720015
  6
CONTINUOUS
 62
         7
100
AcDbCircle
 10
93.605444545
 20
166.1368449989
 30
0.0
 40
15.7926565287
100
AcDbArc
 50
289.5854913416
 51
317.7211240535
  0
ARC
  5
163
100
AcDbEntity
  8
52720015
  6
CONTINUOUS
 62
         7
100
AcDbCircle
 10
63.0025754488
 20
-94.7820169191
 30
0.0
 40
282.301019906
100
AcDbArc
 50
82.7636492859
 51
85.9329016321
  0
SPLINE
  5
164
100
AcDbEntity
  8
52720015
  6
CONTINUOUS
 62
         7
100
AcDbSpline
210
0.0
220
0.0
230
1.0
 70
         8
 71
         3
 72
        12
 73
         8
 74
         0
 42
0.0
 43
0.0
 40
0.0
 40
0.0
 40
0.0
 40
0.0
 40
0.4999999999999997
 40
0.4999999999999997
 40
0.7499999999999991
 40
0.7499999999999991
 40
0.8158815944802491
 40
0.8158815944802491
 40
0.8158815944802491
 40
0.8158815944802491
 10
104.65121883552789
 20
181.21096442251991
 30
0.0
 10
102.85910968110701
 20
181.01012378158072
 30
0.0
 10
101.09831764060957
 20
180.7600960141512
 30
0.0
 10
98.582626490509725
 20
180.16881302160115
 30
0.0
 10
97.761819524495721
 20
179.93878340878541
 30
0.0
 10
96.805062266893756
 20
179.52166422660116
 30
0.0
 10
96.609377531478273
 20
179.42852537484245
 30
0.0
 10
96.422241989001989
 20
179.32168639027878
 30
0.0
  0
SPLINE
  5
165
100
AcDbEntity
  8
52720015
  6
CONTINUOUS
 62
         7
100
AcDbSpline
210
0.0
220
0.0
230
1.0
 70
         8
 71
         3
 72
        12
 73
         8
 74
         0
 42
0.0
 43
0.0
 40
0.1814879420821023
 40
0.1814879420821023
 40
0.1814879420821023
 40
0.1814879420821023
 40
0.2500000000000001
 40
0.2500000000000001
 40
0.4999999999999999
 40
0.4999999999999999
 40
1.0
 40
1.0
 40
1.0
 40
1.0
 10
96.398389548141793
 20
157.14449019021109
 30
0.0
 10
96.592804355083757
 20
157.03183519845084
 30
0.0
 10
96.796685002897433
 20
156.93444380598112
 30
0.0
 10
97.762097263506533
 20
156.51350884302136
 30
0.0
 10
98.581071154969663
 20
156.28404306588865
 30
0.0
 10
101.09784149638223
 20
155.69237488151219
 30
0.0
 10
102.85896635118372
 20
155.44233892767156
 30
0.0
 10
104.65121883552793
 20
155.2414822238317
 30
0.0
  0
SPLINE
  5
166
100
AcDbEntity
  8
52720015
  6
CONTINUOUS
 62
         7
100
AcDbSpline
210
0.0
220
0.0
230
1.0
 70
         8
 71
         3
 72
        16
 73
        12
 74
         0
 42
0.0
 43
0.0
 40
0.0
 40
0.0
 40
0.0
 40
0.0
 40
0.4999999999999994
 40
0.4999999999999994
 40
0.7499999999999994
 40
0.7499999999999994
 40
0.8749999999999994
 40
0.8749999999999994
 40
0.9374999999999998
 40
0.9374999999999998
 40
0.9438942996286769
 40
0.9438942996286769
 40
0.9438942996286769
 40
0.9438942996286769
 10
109.11383599286695
 20
164.16671653850975
 30
0.0
 10
106.98254516734978
 20
163.68919383725634
 30
0.0
 10
104.83183133926363
 20
163.15937802950856
 30
0.0
 10
101.51389749679021
 20
162.14617563731142
 30
0.0
 10
100.39242937703833
 20
161.77488294265137
 30
0.0
 10
98.65648495612335
 20
161.06981449109648
 30
0.0
 10
98.069747408918374
 20
160.81293058720607
 30
0.0
 10
97.14883996346542
 20
160.31883443808258
 30
0.0
 10
96.833271672441981
 20
160.13659738345038
 30
0.0
 10
96.470058061413695
 20
159.8786776367472
 30
0.0
 10
96.436224684266435
 20
159.85424526459667
 30
0.0
 10
96.402256957341223
 20
159.8291403657301
 30
0.0
  0
SPLINE
  5
167
100
AcDbEntity
  8
52720015
  6
CONTINUOUS
 62
         7
100
AcDbSpline
210
0.0
220
0.0
230
1.0
 70
         8
 71
         3
 72
        16
 73
        12
 74
         0
 42
0.0
 43
0.0
 40
0.0560864010169803
 40
0.0560864010169803
 40
0.0560864010169803
 40
0.0560864010169803
 40
0.0625
 40
0.0625
 40
0.1249999999999999
 40
0.1249999999999999
 40
0.2499999999999999
 40
0.2499999999999999
 40
0.5000000000000001
 40
0.5000000000000001
 40
1.0
 40
1.0
 40
1.0
 40
1.0
 10
96.403235095634798
 20
176.62260777372992
 30
0.0
 10
96.437221007493989
 20
176.59748635298928
 30
0.0
 10
96.470993874052212
 20
176.57309722170032
 30
0.0
 10
96.831229091052151
 20
176.31737136933057
 30
0.0
 10
97.143278997147576
 20
176.13677142116686
 30
0.0
 10
98.066362973555869
 20
175.64098486561542
 30
0.0
 10
98.655654592512292
 20
175.38298038209101
 30
0.0
 10
100.39288851709755
 20
174.67735529614814
 30
0.0
 10
101.51180026111692
 20
174.30694536816841
 30
0.0
 10
104.83129507782435
 20
173.29316460195511
 30
0.0
 10
106.98237471023916
 20
172.76329100056921
 30
0.0
 10
109.11383599286694
 20
172.28573010784189
 30
0.0
  0
SPLINE
  5
168
100
AcDbEntity
  8
52720015
  6
CONTINUOUS
 62
         7
100
AcDbSpline
210
0.0
220
0.0
230
1.0
 70
         8
 71
         3
 72
         8
 73
         4
 74
         0
 42
0.0
 43
0.0
 40
0.0
 40
0.0
 40
0.0
 40
0.0
 40
0.0386778935271092
 40
0.0386778935271092
 40
0.0386778935271092
 40
0.0386778935271092
 10
98.561958658528809
 20
185.27047120718595
 30
0.0
 10
98.689025353199654
 20
185.25645543215097
 30
0.0
 10
98.804480615043559
 20
185.23078718189373
 30
0.0
 10
98.907069458985731
 20
185.19444367469944
 30
0.0
  0
LINE
  5
169
100
AcDbEntity
  8
52720015
  6
CONTINUOUS
 62
         7
100
AcDbLine
 10
96.7395487701
 20
161.9337615454
 30
0.0
 11
96.4021625295
 21
161.9337615454
 31
0.0
  0
LINE
  5
16A
100
AcDbEntity
  8
52720015
  6
CONTINUOUS
 62
         7
100
AcDbLine
 10
73.1395470168
 20
178.3810450271
 30
0.0
 11
73.1395470168
 21
178.7884391815
 31
0.0
  0
LINE
  5
16B
100
AcDbEntity
  8
52720015
  6
CONTINUOUS
 62
         7
100
AcDbLine
 10
68.3021625295
 20
178.5589115763
 30
0.0
 11
68.3021625295
 21
178.959556754
 31
0.0
  0
LINE
  5
16C
100
AcDbEntity
  8
52720015
  6
CONTINUOUS
 62
         7
100
AcDbLine
 10
75.1382346809
 20
178.5762233099
 30
0.0
 11
75.1382346809
 21
178.9762233104
 31
0.0
  0
LINE
  5
16D
100
AcDbEntity
  8
52720015
  6
CONTINUOUS
 62
         7
100
AcDbLine
 10
72.1690737163
 20
178.3810450271
 30
0.0
 11
72.1690737163
 21
178.7884391816
 31
0.0
  0
ELLIPSE
  5
16E
100
AcDbEntity
  8
52720015
  6
CONTINUOUS
 62
         7
100
AcDbEllipse
 10
75.1387583087
 20
168.2262233232
 30
0.0
 11
0.0000000015922021
 21
10.349999999961161
 31
0.0
210
0.0
220
0.0
230
1.0
 40
0.999343832
 41
0.0000506254687339
 42
0.1945115716886592
  0
LINE
  5
16F
100
AcDbEntity
  8
52720015
  6
CONTINUOUS
 62
         7
100
AcDbLine
 10
68.1281962034
 20
153.7262233232
 30
0.0
 11
73.1120927594
 21
153.7262233232
 31
0.0
  0
SPLINE
  5
170
100
AcDbEntity
  8
52720015
  6
CONTINUOUS
 62
         7
100
AcDbSpline
210
0.0
220
0.0
230
1.0
 70
         8
 71
         3
 72
        10
 73
         6
 74
         0
 42
0.0
 43
0.0
 40
0.8260304514237187
 40
0.8260304514237187
 40
0.8260304514237187
 40
0.8260304514237187
 40
0.875
 40
0.875
 40
1.0
 40
1.0
 40
1.0
 40
1.0
 10
64.030913179873451
 20
178.57612473339842
 30
0.0
 10
63.84257694005607
 20
178.57625727450034
 30
0.0
 10
63.667934957780325
 20
178.56104824783299
 30
0.0
 10
63.109033280958833
 20
178.44508236487792
 30
0.0
 10
62.81791098154936
 20
178.24354053798626
 30
0.0
 10
62.652404072611382
 20
177.90509950354121
 30
0.0
  0
LINE
  5
171
100
AcDbEntity
  8
52720015
  6
CONTINUOUS
 62
         7
100
AcDbLine
 10
51.5518779334
 20
178.5762233232
 30
0.0
 11
27.2590844677
 21
178.5762233232
 31
0.0
  0
LINE
  5
172
100
AcDbEntity
  8
52720015
  6
CONTINUOUS
 62
         7
100
AcDbLine
 10
10.6023461584
 20
181.5262233232
 30
0.0
 11
10.4021625295
 21
180.9762233232
 31
0.0
  0
LINE
  5
173
100
AcDbEntity
  8
52720015
  6
CONTINUOUS
 62
         7
100
AcDbLine
 10
87.6023461584
 20
181.5262233232
 30
0.0
 11
87.4021625295
 21
180.9762233232
 31
0.0
  0
LINE
  5
174
100
AcDbEntity
  8
52720015
  6
CONTINUOUS
 62
         7
100
AcDbLine
 10
73.1120927594
 20
182.7262233232
 30
0.0
 11
66.736369123
 21
182.7262233232
 31
0.0
  0
LINE
  5
175
100
AcDbEntity
  8
52720015
  6
CONTINUOUS
 62
         7
100
AcDbLine
 10
75.137711053
 20
157.8762233232
 30
0.0
 11
79.5452405914
 21
157.8762233232
 31
0.0
  0
LINE
  5
176
100
AcDbEntity
  8
52720015
  6
CONTINUOUS
 62
         7
100
AcDbLine
 10
83.7021625295
 20
180.9762233232
 30
0.0
 11
79.5452405914
 21
178.5762233232
 31
0.0
  0
LINE
  5
177
100
AcDbEntity
  8
52720015
  6
CONTINUOUS
 62
         7
100
AcDbLine
 10
87.4021625295
 20
180.9762233232
 30
0.0
 11
83.7021625295
 21
180.9762233232
 31
0.0
  0
LINE
  5
178
100
AcDbEntity
  8
52720015
  6
CONTINUOUS
 62
         7
100
AcDbLine
 10
23.1021625295
 20
180.9762233232
 30
0.0
 11
19.4021625295
 21
180.9762233232
 31
0.0
  0
LINE
  5
179
100
AcDbEntity
  8
52720015
  6
CONTINUOUS
 62
         7
100
AcDbLine
 10
23.1021625295
 20
155.4762233232
 30
0.0
 11
27.2590844677
 21
157.8762233232
 31
0.0
  0
LINE
  5
17A
100
AcDbEntity
  8
52720015
  6
CONTINUOUS
 62
         7
100
AcDbLine
 10
75.137711053
 20
178.9762233232
 30
0.0
 11
68.3021625295
 21
178.9762233232
 31
0.0
  0
LINE
  5
17B
100
AcDbEntity
  8
52720015
  6
CONTINUOUS
 62
         7
100
AcDbLine
 10
68.3021625295
 20
157.4762233232
 30
0.0
 11
75.137711053
 21
157.4762233232
 31
0.0
  0
LINE
  5
17C
100
AcDbEntity
  8
52720015
  6
CONTINUOUS
 62
         7
100
AcDbLine
 10
64.3913851444
 20
183.2262233232
 30
0.0
 11
62.3021625295
 21
183.2262233232
 31
0.0
  0
LINE
  5
17D
100
AcDbEntity
  8
52720015
  6
CONTINUOUS
 62
         7
100
AcDbLine
 10
62.3021625295
 20
153.2262233232
 30
0.0
 11
64.8021625295
 21
153.2262233232
 31
0.0
  0
LINE
  5
17E
100
AcDbEntity
  8
52720015
  6
CONTINUOUS
 62
         7
100
AcDbLine
 10
80.5233695708
 20
186.8779871864
 30
0.0
 11
72.1639938677
 21
186.2930846441
 31
0.0
  0
ARC
  5
17F
100
AcDbEntity
  8
52720015
  6
CONTINUOUS
 62
         7
100
AcDbCircle
 10
93.606039614
 20
170.3230108161
 30
0.0
 40
15.7866995541
100
AcDbArc
 50
42.2785925852
 51
70.3874290568
  0
LINE
  5
180
100
AcDbEntity
  8
52720015
  6
CONTINUOUS
 62
         7
100
AcDbLine
 10
82.4809554883
 20
149.5744594599
 30
0.0
 11
83.0297683106
 21
149.6128596977
 31
0.0
  0
LINE
  5
181
100
AcDbEntity
  8
52720015
  6
CONTINUOUS
 62
         7
100
AcDbLine
 10
83.0254942271
 20
186.8398860047
 30
0.0
 11
82.4809554883
 21
186.8779871864
 31
0.0
  0
LINE
  5
182
100
AcDbEntity
  8
52720015
  6
CONTINUOUS
 62
         7
100
AcDbLine
 10
19.2019789007
 20
154.9262233232
 30
0.0
 11
19.4021625295
 21
155.4762233232
 31
0.0
  0
LINE
  5
183
100
AcDbEntity
  8
52720015
  6
CONTINUOUS
 62
         7
100
AcDbLine
 10
96.2019789007
 20
154.9262233232
 30
0.0
 11
96.4021625295
 21
155.4762233232
 31
0.0
  0
LINE
  5
184
100
AcDbEntity
  8
52720015
  6
CONTINUOUS
 62
         7
100
AcDbLine
 10
53.3021625295
 20
153.7262233232
 30
0.0
 11
62.3021625295
 21
153.7262233232
 31
0.0
  0
LINE
  5
185
100
AcDbEntity
  8
52720015
  6
CONTINUOUS
 62
         7
100
AcDbLine
 10
68.3021625295
 20
178.5762233232
 30
0.0
 11
64.0368876119
 21
178.5762233232
 31
0.0
  0
LINE
  5
186
100
AcDbEntity
  8
52720015
  6
CONTINUOUS
 62
         7
100
AcDbLine
 10
10.4021625295
 20
155.4762233232
 30
0.0
 11
10.6023461584
 21
154.9262233232
 31
0.0
  0
LINE
  5
187
100
AcDbEntity
  8
52720015
  6
CONTINUOUS
 62
         7
100
AcDbLine
 10
87.4021625295
 20
155.4762233232
 30
0.0
 11
87.6023461584
 21
154.9262233232
 31
0.0
  0
LINE
  5
188
100
AcDbEntity
  8
52720015
  6
CONTINUOUS
 62
         7
100
AcDbLine
 10
64.031805227
 20
157.8762233232
 30
0.0
 11
68.3021625295
 21
157.8762233232
 31
0.0
  0
LINE
  5
189
100
AcDbEntity
  8
52720015
  6
CONTINUOUS
 62
         7
100
AcDbLine
 10
79.5452405914
 20
157.8762233232
 30
0.0
 11
83.7021625295
 21
155.4762233232
 31
0.0
  0
LINE
  5
18A
100
AcDbEntity
  8
52720015
  6
CONTINUOUS
 62
         7
100
AcDbLine
 10
83.7021625295
 20
155.4762233232
 30
0.0
 11
87.4021625295
 21
155.4762233232
 31
0.0
  0
LINE
  5
18B
100
AcDbEntity
  8
52720015
  6
CONTINUOUS
 62
         7
100
AcDbLine
 10
19.4021625295
 20
155.4762233232
 30
0.0
 11
23.1021625295
 21
155.4762233232
 31
0.0
  0
LINE
  5
18C
100
AcDbEntity
  8
52720015
  6
CONTINUOUS
 62
         7
100
AcDbLine
 10
27.2590844677
 20
178.5762233232
 30
0.0
 11
23.1021625295
 21
180.9762233232
 31
0.0
  0
LINE
  5
18D
100
AcDbEntity
  8
52720015
  6
CONTINUOUS
 62
         7
100
AcDbLine
 10
72.1639938677
 20
150.1593620023
 30
0.0
 11
80.5233695708
 21
149.5744594599
 31
0.0
  0
ARC
  5
18E
100
AcDbEntity
  8
52720015
  6
CONTINUOUS
 62
         7
100
AcDbCircle
 10
90.4559399747
 20
168.2235495111
 30
0.0
 40
19.6483765878
100
AcDbArc
 50
348.1169932988
 51
11.9124357815
  0
ELLIPSE
  5
18F
100
AcDbEntity
  8
52720015
  6
CONTINUOUS
 62
         7
100
AcDbEllipse
 10
73.1120927594
 20
168.2262233232
 30
0.0
 11
-0.0000000000000347
 21
14.500000000001419
 31
0.0
210
0.0
220
0.0
230
1.0
 40
0.8660254038
 41
3.1415926535897918
 42
3.8270237961890725
  0
ELLIPSE
  5
190
100
AcDbEntity
  8
52720015
  6
CONTINUOUS
 62
         7
100
AcDbEllipse
 10
73.1120927594
 20
168.2262233232
 30
0.0
 11
-0.0000000000000347
 21
14.500000000001419
 31
0.0
210
0.0
220
0.0
230
1.0
 40
0.8660254038
 41
5.5977541645803051
 42
6.2831853071795845
  0
LINE
  5
191
100
AcDbEntity
  8
52720015
  6
CONTINUOUS
 62
         7
100
AcDbLine
 10
19.4021625295
 20
180.9762233232
 30
0.0
 11
19.2019789007
 21
181.5262233232
 31
0.0
  0
LINE
  5
192
100
AcDbEntity
  8
52720015
  6
CONTINUOUS
 62
         7
100
AcDbLine
 10
96.4021625295
 20
180.9762233232
 30
0.0
 11
96.2019789007
 21
181.5262233232
 31
0.0
  0
ENDBLK
  5
193
100
AcDbEntity
  8
52720015
  6
CONTINUOUS
 62
         7
100
AcDbBlockEnd
  0
BLOCK
  5
218
100
AcDbEntity
  8
0
 62
         1
 48
0.0
100
AcDbBlockBegin
  2
SE4
 70
         0
 10
0.0
 20
0.0
 30
0.0
  3
SE4
  1

  0
ENDBLK
  5
219
100
AcDbEntity
  8
0
 62
         1
 48
0.0
100
AcDbBlockEnd
  0
BLOCK
  5
196
100
AcDbEntity
  8
0
 62
         1
 48
0.0
100
AcDbBlockBegin
  2
SE5
 70
         0
 10
0.0
 20
0.0
 30
0.0
  3
SE5
  1

  0
LINE
  5
197
100
AcDbEntity
  8
52720015
  6
CONTINUOUS
 62
         7
100
AcDbLine
 10
160.1694147736
 20
62.5391222255
 30
0.0
 11
157.7719975205
 21
61.154972729
 31
0.0
  0
LINE
  5
198
100
AcDbEntity
  8
52720015
  6
CONTINUOUS
 62
         7
100
AcDbLine
 10
163.9132927351
 20
64.7006511744
 30
0.0
 11
163.9560066697
 21
64.725312076
 31
0.0
  0
LINE
  5
199
100
AcDbEntity
  8
52720015
  6
CONTINUOUS
 62
         7
100
AcDbLine
 10
160.1694148326
 20
62.5391222595
 30
0.0
 11
163.9132927351
 21
64.7006511744
 31
0.0
  0
LINE
  5
19A
100
AcDbEntity
  8
52720015
  6
CONTINUOUS
 62
         7
100
AcDbLine
 10
158.6694147736
 20
65.1371984368
 30
0.0
 11
156.2719975205
 21
63.7530489404
 31
0.0
  0
LINE
  5
19B
100
AcDbEntity
  8
52720015
  6
CONTINUOUS
 62
         7
100
AcDbLine
 10
162.4132927351
 20
67.2987273857
 30
0.0
 11
162.4560066697
 21
67.3233882873
 31
0.0
  0
LINE
  5
19C
100
AcDbEntity
  8
52720015
  6
CONTINUOUS
 62
         7
100
AcDbLine
 10
162.4132927351
 20
67.2987273857
 30
0.0
 11
163.1632930806
 21
65.9996886818
 31
0.0
  0
LINE
  5
19D
100
AcDbEntity
  8
52720015
  6
CONTINUOUS
 62
         7
100
AcDbLine
 10
158.6694148326
 20
65.1371984709
 30
0.0
 11
162.4132927351
 21
67.2987273857
 31
0.0
  0
LINE
  5
19E
100
AcDbEntity
  8
52720015
  6
CONTINUOUS
 62
         7
100
AcDbLine
 10
162.4560066697
 20
67.3233882873
 30
0.0
 11
163.1632930806
 21
65.9996886818
 31
0.0
  0
SPLINE
  5
19F
100
AcDbEntity
  8
52720015
  6
CONTINUOUS
 62
         7
100
AcDbSpline
210
0.0
220
0.0
230
1.0
 70
         8
 71
         3
 72
        22
 73
        18
 74
         0
 42
0.0
 43
0.0
 40
0.0
 40
0.0
 40
0.0
 40
0.0
 40
0.125
 40
0.125
 40
0.25
 40
0.25
 40
0.375
 40
0.375
 40
0.5
 40
0.5
 40
0.625
 40
0.625
 40
0.75
 40
0.75
 40
0.875
 40
0.875
 40
1.0
 40
1.0
 40
1.0
 40
1.0
 10
170.26611750677844
 20
99.192445755218898
 30
0.0
 10
169.9665177243993
 20
99.83960530415132
 30
0.0
 10
169.55102723951632
 20
100.41363519419669
 30
0.0
 10
168.5611614495806
 20
101.27551711096713
 30
0.0
 10
167.97925302185621
 20
101.5577331741971
 30
0.0
 10
166.73001259947173
 20
101.73149179489265
 30
0.0
 10
166.07643123264012
 20
101.62595420414256
 30
0.0
 10
164.79438945614925
 20
101.20356382595004
 30
0.0
 10
164.15264416303572
 20
100.89098809590003
 30
0.0
 10
162.92860971926993
 20
100.18443377349067
 30
0.0
 10
162.34197655513469
 20
99.788787859253603
 30
0.0
 10
161.33308704518427
 20
98.889954308150323
 30
0.0
 10
160.91189806982979
 20
98.373683667951212
 30
0.0
 10
160.43718535137597
 20
97.207892176553969
 30
0.0
 10
160.38884542925612
 20
96.565710267285354
 30
0.0
 10
160.638945355478
 20
95.273635038877686
 30
0.0
 10
160.9297647265825
 20
94.623155695659662
 30
0.0
 10
161.34088319210036
 20
94.039459321059013
 30
0.0
  0
SPLINE
  5
1A0
100
AcDbEntity
  8
52720015
  6
CONTINUOUS
 62
         7
100
AcDbSpline
210
0.0
220
0.0
230
1.0
 70
         8
 71
         3
 72
        18
 73
        14
 74
         0
 42
0.0
 43
0.0
 40
0.0
 40
0.0
 40
0.0
 40
0.0
 40
0.0312500000000004
 40
0.0312500000000004
 40
0.0625000000000009
 40
0.0625000000000009
 40
0.1250000000000009
 40
0.1250000000000009
 40
0.2500000000000011
 40
0.2500000000000011
 40
0.5000000000000007
 40
0.5000000000000007
 40
1.0
 40
1.0
 40
1.0
 40
1.0
 10
178.40067932109471
 20
74.796998527193679
 30
0.0
 10
178.64039573314793
 20
74.935398862221447
 30
0.0
 10
178.74742991689766
 20
75.227387951528897
 30
0.0
 10
178.84478842611472
 20
75.767841959342249
 30
0.0
 10
178.84660525481937
 20
76.046414962869477
 30
0.0
 10
178.80591876552592
 20
76.864524625935431
 30
0.0
 10
178.71399511826564
 20
77.401733183842083
 30
0.0
 10
178.38018153967184
 20
79.006020828577633
 30
0.0
 10
178.07287765014183
 20
80.053278949960358
 30
0.0
 10
177.0790250537633
 20
83.161723022021974
 30
0.0
 10
176.304311975443
 20
85.1962422346148
 30
0.0
 10
173.87231943530023
 20
91.262389645356876
 30
0.0
 10
172.09629373364638
 20
95.239118379476764
 30
0.0
 10
170.26611750677844
 20
99.192445755218898
 30
0.0
  0
SPLINE
  5
1A1
100
AcDbEntity
  8
52720015
  6
CONTINUOUS
 62
         7
100
AcDbSpline
210
0.0
220
0.0
230
1.0
 70
         8
 71
         3
 72
        22
 73
        18
 74
         0
 42
0.0
 43
0.0
 40
0.0
 40
0.0
 40
0.0
 40
0.0
 40
0.125
 40
0.125
 40
0.25
 40
0.25
 40
0.375
 40
0.375
 40
0.5
 40
0.5
 40
0.625
 40
0.625
 40
0.75
 40
0.75
 40
0.875
 40
0.875
 40
1.0
 40
1.0
 40
1.0
 40
1.0
 10
155.25162301510127
 20
90.523823318702924
 30
0.0
 10
154.95823134800642
 20
91.17456712466587
 30
0.0
 10
154.69952065311827
 20
91.839113868668278
 30
0.0
 10
154.27783542500887
 20
93.029034985757505
 30
0.0
 10
154.11264385148687
 20
93.55184263693701
 30
0.0
 10
153.79073962562703
 20
94.260999060325332
 30
0.0
 10
153.63018694463943
 20
94.440111714065523
 30
0.0
 10
153.21894636818277
 20
94.520478643123411
 30
0.0
 10
152.96445675082336
 20
94.431485081715195
 30
0.0
 10
152.35257870496994
 20
94.078359420426708
 30
0.0
 10
151.99380202185142
 20
93.81426650684125
 30
0.0
 10
151.26012830344214
 20
93.074328867069553
 30
0.0
 10
150.88244638472162
 20
92.583177037729655
 30
0.0
 10
150.34282869941785
 20
91.379912646249821
 30
0.0
 10
150.19268499028047
 20
90.678954293142127
 30
0.0
 10
150.24318666999599
 20
89.271640963384243
 30
0.0
 10
150.43969339289114
 20
88.566710187334579
 30
0.0
 10
150.78900585776228
 20
87.94733010162301
 30
0.0
  0
SPLINE
  5
1A2
100
AcDbEntity
  8
52720015
  6
CONTINUOUS
 62
         7
100
AcDbSpline
210
0.0
220
0.0
230
1.0
 70
         8
 71
         3
 72
        20
 73
        16
 74
         0
 42
0.0
 43
0.0
 40
0.0
 40
0.0
 40
0.0
 40
0.0
 40
0.125
 40
0.125
 40
0.25
 40
0.25
 40
0.375
 40
0.375
 40
0.5
 40
0.5
 40
0.625
 40
0.625
 40
0.75
 40
0.75
 40
1.0
 40
1.0
 40
1.0
 40
1.0
 10
217.95092086417156
 20
32.506230764012194
 30
0.0
 10
217.4124263058053
 20
31.957977209027071
 30
0.0
 10
216.79611640534242
 20
31.337982160311675
 30
0.0
 10
215.46435174975534
 20
30.032578285569617
 30
0.0
 10
214.75971003888759
 20
29.357325047967127
 30
0.0
 10
213.27132693534969
 20
27.990173170773364
 30
0.0
 10
212.48200359429876
 20
27.293800598405213
 30
0.0
 10
210.8609170681124
 20
25.963310252763474
 30
0.0
 10
210.02361816821025
 20
25.323825065784359
 30
0.0
 10
208.27113388992345
 20
24.136032518849529
 30
0.0
 10
207.34734000769265
 20
23.585221220896756
 30
0.0
 10
205.44613251520514
 20
22.637072612164125
 30
0.0
 10
204.46882963258375
 20
22.238577908545338
 30
0.0
 10
201.46196587326318
 20
21.243730753243444
 30
0.0
 10
199.35678074581611
 20
20.842480968032554
 30
0.0
 10
197.25043777801781
 20
20.554801281866027
 30
0.0
  0
SPLINE
  5
1A3
100
AcDbEntity
  8
52720015
  6
CONTINUOUS
 62
         7
100
AcDbSpline
210
0.0
220
0.0
230
1.0
 70
         8
 71
         3
 72
        18
 73
        14
 74
         0
 42
0.0
 43
0.0
 40
0.0
 40
0.0
 40
0.0
 40
0.0
 40
0.125
 40
0.125
 40
0.2500000000000001
 40
0.2500000000000001
 40
0.4999999999999999
 40
0.4999999999999999
 40
0.7499999999999999
 40
0.7499999999999999
 40
0.875
 40
0.875
 40
1.0
 40
1.0
 40
1.0
 40
1.0
 10
197.25043777801781
 20
20.554801281866027
 30
0.0
 10
197.0848168480334
 20
21.44888342609562
 30
0.0
 10
196.80418631248759
 20
22.338113751542718
 30
0.0
 10
195.99387721402215
 20
24.08729833302549
 30
0.0
 10
195.48714977927082
 20
24.903494471436812
 30
0.0
 10
193.77399937680735
 20
27.215712522975107
 30
0.0
 10
192.44809476568668
 20
28.513756279346634
 30
0.0
 10
189.79525840921298
 20
30.871705109169607
 30
0.0
 10
188.47804559803947
 20
31.906373034061602
 30
0.0
 10
186.75582900117192
 20
33.209836483527745
 30
0.0
 10
186.23103036898854
 20
33.596118218535175
 30
0.0
 10
185.38986150724807
 20
34.208275871972717
 30
0.0
 10
185.07824892158447
 20
34.430898487350923
 30
0.0
 10
184.94976766155574
 20
34.522692495276615
 30
0.0
  0
ARC
  5
1A4
100
AcDbEntity
  8
52720015
  6
CONTINUOUS
 62
         7
100
AcDbCircle
 10
161.9662275384
 20
12.7029770758
 30
0.0
 40
10.3257249233
100
AcDbArc
 50
338.1716867869
 51
21.8283132131
  0
ARC
  5
1A5
100
AcDbEntity
  8
52720015
  6
CONTINUOUS
 62
         7
100
AcDbCircle
 10
251.0351311038
 20
12.7029770758
 30
0.0
 40
10.3257249233
100
AcDbArc
 50
158.1716867869
 51
201.8283132131
  0
ARC
  5
1A6
100
AcDbEntity
  8
52720015
  6
CONTINUOUS
 62
         7
100
AcDbCircle
 10
241.4024284603
 20
28.8400230407
 30
0.0
 40
23.7363495003
100
AcDbArc
 50
166.1484035435
 51
171.1147864899
  0
ARC
  5
1A7
100
AcDbEntity
  8
52720015
  6
CONTINUOUS
 62
         7
100
AcDbCircle
 10
238.9662275384
 20
12.7029770758
 30
0.0
 40
10.3257249233
100
AcDbArc
 50
338.1716867869
 51
21.8283132131
  0
ARC
  5
1A8
100
AcDbEntity
  8
52720015
  6
CONTINUOUS
 62
         7
100
AcDbCircle
 10
132.2090799335
 20
24.2211149462
 30
0.0
 40
40.0848954902
100
AcDbArc
 50
348.9560221645
 51
11.0439778355
  0
LINE
  5
1A9
100
AcDbEntity
  8
52720015
  6
CONTINUOUS
 62
         7
100
AcDbLine
 10
171.5516206894
 20
39.5786321066
 30
0.0
 11
164.4497379528
 21
39.5786321066
 31
0.0
  0
LINE
  5
1AA
100
AcDbEntity
  8
52720015
  6
CONTINUOUS
 62
         7
100
AcDbLine
 10
171.5516206894
 20
31.8998735264
 30
0.0
 11
164.4497379528
 21
31.8998735264
 31
0.0
  0
LINE
  5
1AB
100
AcDbEntity
  8
52720015
  6
CONTINUOUS
 62
         7
100
AcDbLine
 10
248.5516206894
 20
39.5786321066
 30
0.0
 11
241.4497379528
 21
39.5786321066
 31
0.0
  0
LINE
  5
1AC
100
AcDbEntity
  8
52720015
  6
CONTINUOUS
 62
         7
100
AcDbLine
 10
248.5516206894
 20
8.8635977857
 30
0.0
 11
241.4497379528
 21
8.8635977857
 31
0.0
  0
LINE
  5
1AD
100
AcDbEntity
  8
52720015
  6
CONTINUOUS
 62
         7
100
AcDbLine
 10
171.5516206894
 20
16.542356366
 30
0.0
 11
164.4497379528
 21
16.542356366
 31
0.0
  0
LINE
  5
1AE
100
AcDbEntity
  8
52720015
  6
CONTINUOUS
 62
         7
100
AcDbLine
 10
171.5516206894
 20
8.8635977857
 30
0.0
 11
164.4497379528
 21
8.8635977857
 31
0.0
  0
ARC
  5
1AF
100
AcDbEntity
  8
52720015
  6
CONTINUOUS
 62
         7
100
AcDbCircle
 10
251.0351311038
 20
35.7392528165
 30
0.0
 40
10.3257249233
100
AcDbArc
 50
158.1716867869
 51
201.8283132131
  0
ARC
  5
1B0
100
AcDbEntity
  8
52720015
  6
CONTINUOUS
 62
         7
100
AcDbCircle
 10
280.7922787087
 20
24.2211149462
 30
0.0
 40
40.0848954902
100
AcDbArc
 50
168.9560221645
 51
191.0439778355
  0
ARC
  5
1B1
100
AcDbEntity
  8
52720015
  6
CONTINUOUS
 62
         7
100
AcDbCircle
 10
174.0351311038
 20
35.7392528165
 30
0.0
 40
10.3257249233
100
AcDbArc
 50
158.1716867869
 51
201.8283132131
  0
LINE
  5
1B2
100
AcDbEntity
  8
52720015
  6
CONTINUOUS
 62
         7
100
AcDbLine
 10
248.5516206894
 20
16.542356366
 30
0.0
 11
241.4497379528
 21
16.542356366
 31
0.0
  0
ARC
  5
1B3
100
AcDbEntity
  8
52720015
  6
CONTINUOUS
 62
         7
100
AcDbCircle
 10
238.9662275384
 20
35.7392528165
 30
0.0
 40
10.3257249233
100
AcDbArc
 50
338.1716867869
 51
21.8283132131
  0
LINE
  5
1B4
100
AcDbEntity
  8
52720015
  6
CONTINUOUS
 62
         7
100
AcDbLine
 10
249.5006793211
 20
36.9711149462
 30
0.0
 11
249.5006793211
 21
11.4711149462
 31
0.0
  0
LINE
  5
1B5
100
AcDbEntity
  8
52720015
  6
CONTINUOUS
 62
         7
100
AcDbLine
 10
248.5516206894
 20
31.8998735264
 30
0.0
 11
241.4497379528
 21
31.8998735264
 31
0.0
  0
ARC
  5
1B6
100
AcDbEntity
  8
52720015
  6
CONTINUOUS
 62
         7
100
AcDbCircle
 10
209.2090799335
 20
24.2211149462
 30
0.0
 40
40.0848954902
100
AcDbArc
 50
348.9560221645
 51
11.0439778355
  0
LINE
  5
1B7
100
AcDbEntity
  8
52720015
  6
CONTINUOUS
 62
         7
100
AcDbLine
 10
236.8006793211
 20
11.4711149462
 30
0.0
 11
236.8006793211
 21
35.36348902
 31
0.0
  0
LINE
  5
1B8
100
AcDbEntity
  8
52720015
  6
CONTINUOUS
 62
         7
100
AcDbLine
 10
232.6437573829
 20
13.8711149462
 30
0.0
 11
232.6437573829
 21
29.3331423415
 31
0.0
  0
LINE
  5
1B9
100
AcDbEntity
  8
52720015
  6
CONTINUOUS
 62
         7
100
AcDbLine
 10
180.3576012593
 20
34.5711149462
 30
0.0
 11
180.3576012593
 21
13.8711149462
 31
0.0
  0
LINE
  5
1BA
100
AcDbEntity
  8
52720015
  6
CONTINUOUS
 62
         7
100
AcDbLine
 10
176.2006793211
 20
36.9711149462
 30
0.0
 11
176.2006793211
 21
11.4711149462
 31
0.0
  0
LINE
  5
1BB
100
AcDbEntity
  8
52720015
  6
CONTINUOUS
 62
         7
100
AcDbLine
 10
172.5006793211
 20
36.9711149462
 30
0.0
 11
172.5006793211
 21
11.4711149462
 31
0.0
  0
LINE
  5
1BC
100
AcDbEntity
  8
52720015
  6
CONTINUOUS
 62
         7
100
AcDbLine
 10
240.5006793211
 20
36.9711149462
 30
0.0
 11
240.5006793211
 21
11.4711149462
 31
0.0
  0
LINE
  5
1BD
100
AcDbEntity
  8
52720015
  6
CONTINUOUS
 62
         7
100
AcDbLine
 10
217.9509208642
 20
32.506230764
 30
0.0
 11
197.250437778
 21
20.5548012819
 31
0.0
  0
ARC
  5
1BE
100
AcDbEntity
  8
52720015
  6
CONTINUOUS
 62
         7
100
AcDbCircle
 10
174.0351311038
 20
12.7029770758
 30
0.0
 40
10.3257249233
100
AcDbArc
 50
158.1716867869
 51
201.8283132131
  0
ARC
  5
1BF
100
AcDbEntity
  8
52720015
  6
CONTINUOUS
 62
         7
100
AcDbCircle
 10
203.7922787087
 20
24.2211149462
 30
0.0
 40
40.0848954902
100
AcDbArc
 50
168.9560221645
 51
191.0439778355
  0
LINE
  5
1C0
100
AcDbEntity
  8
52720015
  6
CONTINUOUS
 62
         7
100
AcDbLine
 10
163.5006793211
 20
36.9711149462
 30
0.0
 11
163.5006793211
 21
11.4711149462
 31
0.0
  0
ARC
  5
1C1
100
AcDbEntity
  8
52720015
  6
CONTINUOUS
 62
         7
100
AcDbCircle
 10
161.9662275384
 20
35.7392528165
 30
0.0
 40
10.3257249233
100
AcDbArc
 50
338.1716867869
 51
21.8283132131
  0
ARC
  5
1C2
100
AcDbEntity
  8
52720015
  6
CONTINUOUS
 62
         7
100
AcDbCircle
 10
212.6645126107
 20
72.3437420887
 30
0.0
 40
44.1598648153
100
AcDbArc
 50
303.131567116
 51
306.773043079
  0
SPLINE
  5
1C3
100
AcDbEntity
  8
52720015
  6
CONTINUOUS
 62
         7
100
AcDbSpline
210
0.0
220
0.0
230
1.0
 70
         8
 71
         3
 72
        18
 73
        14
 74
         0
 42
0.0
 43
0.0
 40
0.0
 40
0.0
 40
0.0
 40
0.0
 40
0.2499999999999996
 40
0.2499999999999996
 40
0.4999999999999991
 40
0.4999999999999991
 40
0.6249999999999993
 40
0.6249999999999993
 40
0.7499999999999996
 40
0.7499999999999996
 40
0.8749999999999998
 40
0.8749999999999998
 40
1.0
 40
1.0
 40
1.0
 40
1.0
 10
220.15345750724819
 20
34.522692495277504
 30
0.0
 10
220.31664026370285
 20
34.373043212041516
 30
0.0
 10
220.866018377633
 20
33.867056654682173
 30
0.0
 10
222.3947352924348
 20
32.508184331116908
 30
0.0
 10
223.3587473203456
 20
31.662335323660585
 30
0.0
 10
224.99487326113862
 20
30.38312240016884
 30
0.0
 10
225.57355686183735
 20
29.953085328959922
 30
0.0
 10
226.83116554924567
 20
29.151426873398051
 30
0.0
 10
227.50809351978265
 20
28.777817442747441
 30
0.0
 10
228.97931383144325
 20
28.316321580539068
 30
0.0
 10
229.78327478413863
 20
28.265419488205243
 30
0.0
 10
231.30433685163393
 20
28.605805027233199
 30
0.0
 10
231.99721674623618
 20
28.948270846202725
 30
0.0
 10
232.64375738292944
 20
29.333142341494423
 30
0.0
  0
ARC
  5
1C4
100
AcDbEntity
  8
52720015
  6
CONTINUOUS
 62
         7
100
AcDbCircle
 10
280.4763160626
 20
0.8084685251
 30
0.0
 40
55.6921061388
100
AcDbArc
 50
141.6498773777
 51
149.1905037036
  0
LINE
  5
1C5
100
AcDbEntity
  8
52720015
  6
CONTINUOUS
 62
         7
100
AcDbLine
 10
220.1534575072
 20
34.5226924953
 30
0.0
 11
220.1534575072
 21
46.2211149462
 31
0.0
  0
LINE
  5
1C6
100
AcDbEntity
  8
52720015
  6
CONTINUOUS
 62
         7
100
AcDbLine
 10
218.3563538385
 20
34.5226924953
 30
0.0
 11
220.1534575072
 21
34.5226924953
 31
0.0
  0
LINE
  5
1C7
100
AcDbEntity
  8
52720015
  6
CONTINUOUS
 62
         7
100
AcDbLine
 10
218.3563538385
 20
34.5226924953
 30
0.0
 11
211.6022664874
 21
46.2211149462
 31
0.0
  0
LINE
  5
1C8
100
AcDbEntity
  8
52720015
  6
CONTINUOUS
 62
         7
100
AcDbLine
 10
180.5006793211
 20
42.2287395483
 30
0.0
 11
180.5006793211
 21
34.5226924953
 31
0.0
  0
LINE
  5
1C9
100
AcDbEntity
  8
52720015
  6
CONTINUOUS
 62
         7
100
AcDbLine
 10
220.1534575072
 20
46.2211149462
 30
0.0
 11
211.6022664874
 21
46.2211149462
 31
0.0
  0
LINE
  5
1CA
100
AcDbEntity
  8
52720015
  6
CONTINUOUS
 62
         7
100
AcDbLine
 10
220.1006793211
 20
49.2211149462
 30
0.0
 11
239.1006793211
 21
49.2211149462
 31
0.0
  0
LINE
  5
1CB
100
AcDbEntity
  8
52720015
  6
CONTINUOUS
 62
         7
100
AcDbLine
 10
186.7632948338
 20
22.2205909745
 30
0.0
 11
187.7337681343
 21
22.2205909745
 31
0.0
  0
LINE
  5
1CC
100
AcDbEntity
  8
52720015
  6
CONTINUOUS
 62
         7
100
AcDbLine
 10
194.9820850209
 20
44.2090244581
 30
0.0
 11
194.6479639531
 21
45.6103747012
 31
0.0
  0
LINE
  5
1CD
100
AcDbEntity
  8
52720015
  6
CONTINUOUS
 62
         7
100
AcDbLine
 10
194.6479639531
 20
45.6103747012
 30
0.0
 11
191.7018439981
 21
43.9094315521
 31
0.0
  0
LINE
  5
1CE
100
AcDbEntity
  8
52720015
  6
CONTINUOUS
 62
         7
100
AcDbLine
 10
194.2821404648
 20
43.8049112802
 30
0.0
 11
194.9820850209
 21
44.2090244581
 31
0.0
  0
LINE
  5
1CF
100
AcDbEntity
  8
52720015
  6
CONTINUOUS
 62
         7
100
AcDbLine
 10
163.1632930806
 20
65.9996886818
 30
0.0
 11
163.9560066697
 21
64.725312076
 31
0.0
  0
LINE
  5
1D0
100
AcDbEntity
  8
52720015
  6
CONTINUOUS
 62
         7
100
AcDbLine
 10
194.8019585365
 20
39.9257808235
 30
0.0
 11
196.0918077428
 21
40.67047561
 31
0.0
  0
LINE
  5
1D1
100
AcDbEntity
  8
52720015
  6
CONTINUOUS
 62
         7
100
AcDbLine
 10
191.7018439981
 20
43.9094315521
 30
0.0
 11
192.041637226
 21
42.5113561322
 31
0.0
  0
LINE
  5
1D2
100
AcDbEntity
  8
52720015
  6
CONTINUOUS
 62
         7
100
AcDbLine
 10
192.0416372261
 20
42.5113561322
 30
0.0
 11
192.9922912585
 21
43.0602164937
 31
0.0
  0
LINE
  5
1D3
100
AcDbEntity
  8
52720015
  6
CONTINUOUS
 62
         7
100
AcDbLine
 10
192.9922912585
 20
43.0602164937
 30
0.0
 11
194.8019585365
 21
39.9257808235
 31
0.0
  0
LINE
  5
1D4
100
AcDbEntity
  8
52720015
  6
CONTINUOUS
 62
         7
100
AcDbLine
 10
196.0918077428
 20
40.67047561
 30
0.0
 11
194.2821404648
 21
43.8049112802
 31
0.0
  0
LINE
  5
1D5
100
AcDbEntity
  8
52720015
  6
CONTINUOUS
 62
         7
100
AcDbLine
 10
199.1491020357
 20
42.435605293
 30
0.0
 11
196.490478212
 21
45.2432538838
 31
0.0
  0
LINE
  5
1D6
100
AcDbEntity
  8
52720015
  6
CONTINUOUS
 62
         7
100
AcDbLine
 10
200.5160926193
 20
43.2248376744
 30
0.0
 11
199.1491020357
 21
42.435605293
 31
0.0
  0
LINE
  5
1D7
100
AcDbEntity
  8
52720015
  6
CONTINUOUS
 62
         7
100
AcDbLine
 10
196.7319155731
 20
46.81354473
 30
0.0
 11
200.5160926193
 21
43.2248376744
 31
0.0
  0
LINE
  5
1D8
100
AcDbEntity
  8
52720015
  6
CONTINUOUS
 62
         7
100
AcDbLine
 10
198.3708816702
 20
41.9862995555
 30
0.0
 11
196.2245362891
 21
40.7471064719
 31
0.0
  0
LINE
  5
1D9
100
AcDbEntity
  8
52720015
  6
CONTINUOUS
 62
         7
100
AcDbLine
 10
198.0649366817
 20
43.2995495197
 30
0.0
 11
198.3708816702
 21
41.9862995555
 31
0.0
  0
LINE
  5
1DA
100
AcDbEntity
  8
52720015
  6
CONTINUOUS
 62
         7
100
AcDbLine
 10
197.219784827
 20
42.811600869
 30
0.0
 11
198.0649366816
 21
43.2995495197
 31
0.0
  0
LINE
  5
1DB
100
AcDbEntity
  8
52720015
  6
CONTINUOUS
 62
         7
100
AcDbLine
 10
196.490478212
 20
45.2432538838
 30
0.0
 11
197.219784827
 21
42.811600869
 31
0.0
  0
LINE
  5
1DC
100
AcDbEntity
  8
52720015
  6
CONTINUOUS
 62
         7
100
AcDbLine
 10
196.2245362891
 20
40.7471064719
 30
0.0
 11
195.0087133353
 21
45.8186534541
 31
0.0
  0
LINE
  5
1DD
100
AcDbEntity
  8
52720015
  6
CONTINUOUS
 62
         7
100
AcDbLine
 10
195.0087133353
 20
45.8186534541
 30
0.0
 11
196.7319155731
 21
46.81354473
 31
0.0
  0
LINE
  5
1DE
100
AcDbEntity
  8
52720015
  6
CONTINUOUS
 62
         7
100
AcDbLine
 10
187.7337681343
 20
23.6227392585
 30
0.0
 11
191.6006793211
 21
23.6227392585
 31
0.0
  0
LINE
  5
1DF
100
AcDbEntity
  8
52720015
  6
CONTINUOUS
 62
         7
100
AcDbLine
 10
191.6006793211
 20
23.6227392585
 30
0.0
 11
191.6006793211
 21
24.8194906339
 31
0.0
  0
LINE
  5
1E0
100
AcDbEntity
  8
52720015
  6
CONTINUOUS
 62
         7
100
AcDbLine
 10
191.6006793211
 20
24.8194906339
 30
0.0
 11
187.7337681343
 21
24.8194906339
 31
0.0
  0
LINE
  5
1E1
100
AcDbEntity
  8
52720015
  6
CONTINUOUS
 62
         7
100
AcDbLine
 10
187.7337681343
 20
24.8194906339
 30
0.0
 11
187.7337681343
 21
26.2205909745
 31
0.0
  0
LINE
  5
1E2
100
AcDbEntity
  8
52720015
  6
CONTINUOUS
 62
         7
100
AcDbLine
 10
187.7337681343
 20
26.2205909745
 30
0.0
 11
186.7632948338
 21
26.2205909745
 31
0.0
  0
LINE
  5
1E3
100
AcDbEntity
  8
52720015
  6
CONTINUOUS
 62
         7
100
AcDbLine
 10
186.7632948338
 20
26.2205909745
 30
0.0
 11
184.7646071698
 21
24.2205909745
 31
0.0
  0
LINE
  5
1E4
100
AcDbEntity
  8
52720015
  6
CONTINUOUS
 62
         7
100
AcDbLine
 10
184.7646071698
 20
24.2205909745
 30
0.0
 11
186.7632948338
 21
22.2205909745
 31
0.0
  0
LINE
  5
1E5
100
AcDbEntity
  8
52720015
  6
CONTINUOUS
 62
         7
100
AcDbLine
 10
187.7337681343
 20
22.2205909745
 30
0.0
 11
187.7337681343
 21
23.6227392585
 31
0.0
  0
LINE
  5
1E6
100
AcDbEntity
  8
52720015
  6
CONTINUOUS
 62
         7
100
AcDbLine
 10
180.5006793211
 20
34.5226924953
 30
0.0
 11
184.9497676616
 21
34.5226924953
 31
0.0
  0
LINE
  5
1E7
100
AcDbEntity
  8
52720015
  6
CONTINUOUS
 62
         7
100
AcDbLine
 10
180.5006793211
 20
42.2287395483
 30
0.0
 11
184.9497676616
 21
34.5226924953
 31
0.0
  0
LINE
  5
1E8
100
AcDbEntity
  8
52720015
  6
CONTINUOUS
 62
         7
100
AcDbLine
 10
212.6006793211
 20
51.2211149462
 30
0.0
 11
246.6006793211
 21
51.2211149462
 31
0.0
  0
LINE
  5
1E9
100
AcDbEntity
  8
52720015
  6
CONTINUOUS
 62
         7
100
AcDbLine
 10
212.6006793211
 20
58.2211149462
 30
0.0
 11
246.6006793211
 21
58.2211149462
 31
0.0
  0
LINE
  5
1EA
100
AcDbEntity
  8
52720015
  6
CONTINUOUS
 62
         7
100
AcDbLine
 10
164.3861977824
 20
66.7057338383
 30
0.0
 11
163.1632927155
 21
65.9996892687
 31
0.0
  0
LINE
  5
1EB
100
AcDbEntity
  8
52720015
  6
CONTINUOUS
 62
         7
100
AcDbLine
 10
178.4006793211
 20
74.7969985272
 30
0.0
 11
164.3861977824
 21
66.7057338383
 31
0.0
  0
LINE
  5
1EC
100
AcDbEntity
  8
52720015
  6
CONTINUOUS
 62
         7
100
AcDbLine
 10
171.1156892827
 20
51.2149714063
 30
0.0
 11
202.4658088997
 21
69.3149714063
 31
0.0
  0
LINE
  5
1ED
100
AcDbEntity
  8
52720015
  6
CONTINUOUS
 62
         7
100
AcDbLine
 10
194.5832086989
 20
84.1399862197
 30
0.0
 11
192.4151608598
 21
82.8882632161
 31
0.0
  0
LINE
  5
1EE
100
AcDbEntity
  8
52720015
  6
CONTINUOUS
 62
         7
100
AcDbLine
 10
192.4151608598
 20
82.8882632161
 30
0.0
 11
178.4006793211
 21
74.7969985272
 31
0.0
  0
SPLINE
  5
1EF
100
AcDbEntity
  8
52720015
  6
CONTINUOUS
 62
         7
100
AcDbSpline
210
0.0
220
0.0
230
1.0
 70
         8
 71
         3
 72
        18
 73
        14
 74
         0
 42
0.0
 43
0.0
 40
0.0
 40
0.0
 40
0.0
 40
0.0
 40
0.4999999999999996
 40
0.4999999999999996
 40
0.7499999999999993
 40
0.7499999999999993
 40
0.8749999999999992
 40
0.8749999999999992
 40
0.9374999999999993
 40
0.9374999999999993
 40
0.9687499999999997
 40
0.9687499999999997
 40
1.0
 40
1.0
 40
1.0
 40
1.0
 10
161.34088319210036
 20
94.039459321059013
 30
0.0
 10
163.84927639840132
 20
90.478101358831694
 30
0.0
 10
166.40479215052051
 20
86.952304032727582
 30
0.0
 10
170.44028688891603
 20
81.81532224973887
 30
0.0
 10
171.8180328969201
 20
80.123343356132338
 30
0.0
 10
174.01145348156376
 20
77.710160277869562
 30
0.0
 10
174.76148754588036
 20
76.923817964986938
 30
0.0
 10
175.98081075883889
 20
75.834325782707623
 30
0.0
 10
176.40462790147794
 20
75.481550619348639
 30
0.0
 10
177.09872247397507
 20
75.033634262055472
 30
0.0
 10
177.33868671903363
 20
74.897198249467195
 30
0.0
 10
177.85806648981048
 20
74.710956198723892
 30
0.0
 10
178.16121794007245
 20
74.658745434399648
 30
0.0
 10
178.40067932109471
 20
74.796998527193679
 30
0.0
  0
SPLINE
  5
1F0
100
AcDbEntity
  8
52720015
  6
CONTINUOUS
 62
         7
100
AcDbSpline
210
0.0
220
0.0
230
1.0
 70
         8
 71
         3
 72
        18
 73
        14
 74
         0
 42
0.0
 43
0.0
 40
0.0
 40
0.0
 40
0.0
 40
0.0
 40
0.4999999999999994
 40
0.4999999999999994
 40
0.7499999999999994
 40
0.7499999999999994
 40
0.8749999999999994
 40
0.8749999999999994
 40
0.9374999999999998
 40
0.9374999999999998
 40
0.9687499999999999
 40
0.9687499999999999
 40
1.0
 40
1.0
 40
1.0
 40
1.0
 10
150.78900585776228
 20
87.94733010162301
 30
0.0
 10
152.92029668327945
 20
84.168251978338077
 30
0.0
 10
155.07101051136556
 20
80.408742152425006
 30
0.0
 10
158.38894435383898
 20
74.85747639301573
 30
0.0
 10
159.51041247359089
 20
73.017535391639441
 30
0.0
 10
161.24635689450588
 20
70.340228327100107
 30
0.0
 10
161.83309444171084
 20
69.459606726105335
 30
0.0
 10
162.75400188716381
 20
68.197824120126242
 30
0.0
 10
163.06957017818723
 20
67.782551453147548
 30
0.0
 10
163.5638240746261
 20
67.219257027737143
 30
0.0
 10
163.73149795632978
 20
67.04108415440605
 30
0.0
 10
164.07548907153554
 20
66.75358141615601
 30
0.0
 10
164.26646709189157
 20
66.636607291879642
 30
0.0
 10
164.38619778240266
 20
66.705733838276771
 30
0.0
  0
LINE
  5
1F1
100
AcDbEntity
  8
52720015
  6
CONTINUOUS
 62
         7
100
AcDbLine
 10
152.2976435995
 20
94.3903528616
 30
0.0
 11
174.4838545829
 21
107.1995677452
 31
0.0
  0
SPLINE
  5
1F2
100
AcDbEntity
  8
52720015
  6
CONTINUOUS
 62
         7
100
AcDbSpline
210
0.0
220
0.0
230
1.0
 70
         8
 71
         3
 72
        18
 73
        14
 74
         0
 42
0.0
 43
0.0
 40
0.0
 40
0.0
 40
0.0
 40
0.0
 40
0.03125
 40
0.03125
 40
0.0625000000000001
 40
0.0625000000000001
 40
0.1250000000000002
 40
0.1250000000000002
 40
0.2500000000000001
 40
0.2500000000000001
 40
0.4999999999999999
 40
0.4999999999999999
 40
1.0
 40
1.0
 40
1.0
 40
1.0
 10
164.38619778240266
 20
66.705733838276771
 30
0.0
 10
164.50605598842932
 20
66.774934005790541
 30
0.0
 10
164.51965790736153
 20
67.012979951854589
 30
0.0
 10
164.48435880629197
 20
67.476844052658876
 30
0.0
 10
164.43713407174164
 20
67.727102896439376
 30
0.0
 10
164.27080740514927
 20
68.472674169320811
 30
0.0
 10
164.12243289274741
 20
68.977290805041946
 30
0.0
 10
163.64366566005305
 20
70.497889418562494
 30
0.0
 10
163.2773721926676
 20
71.511089891291036
 30
0.0
 10
162.1407445871227
 20
74.537102773376859
 30
0.0
 10
161.32177069565952
 20
76.546067993587158
 30
0.0
 10
158.80500035424697
 20
82.563268917944796
 30
0.0
 10
157.04387549944548
 20
86.548600660006031
 30
0.0
 10
155.25162301510127
 20
90.523823318702924
 30
0.0
  0
SPLINE
  5
1F3
100
AcDbEntity
  8
52720015
  6
CONTINUOUS
 62
         7
100
AcDbSpline
210
0.0
220
0.0
230
1.0
 70
         8
 71
         3
 72
        18
 73
        14
 74
         0
 42
0.0
 43
0.0
 40
0.0
 40
0.0
 40
0.0
 40
0.0
 40
0.0312499999999995
 40
0.0312499999999995
 40
0.0624999999999991
 40
0.0624999999999991
 40
0.1249999999999989
 40
0.1249999999999989
 40
0.2499999999999986
 40
0.2499999999999986
 40
0.499999999999999
 40
0.499999999999999
 40
1.0
 40
1.0
 40
1.0
 40
1.0
 10
192.41516085978679
 20
82.888263216110587
 30
0.0
 10
192.53501906581346
 20
82.957463383624329
 30
0.0
 10
192.52877489208436
 20
83.184051182748021
 30
0.0
 10
192.45174867950354
 20
83.623824124488792
 30
0.0
 10
192.38061880100307
 20
83.860281326974672
 30
0.0
 10
192.14183548033034
 20
84.564019731118208
 30
0.0
 10
191.94268730451807
 20
85.039322178601594
 30
0.0
 10
191.30951063631096
 20
86.470772462963453
 30
0.0
 10
190.83819817306539
 20
87.423340190162108
 30
0.0
 10
189.3865142668129
 20
90.267455232224535
 30
0.0
 10
188.35612414907919
 20
92.154359237286471
 30
0.0
 10
185.20618493491139
 20
97.80599994251638
 30
0.0
 10
183.02530360879192
 20
101.5489851728681
 30
0.0
 10
180.81799484111656
 20
105.28457497465492
 30
0.0
  0
SPLINE
  5
1F4
100
AcDbEntity
  8
52720015
  6
CONTINUOUS
 62
         7
100
AcDbSpline
210
0.0
220
0.0
230
1.0
 70
         8
 71
         3
 72
        22
 73
        18
 74
         0
 42
0.0
 43
0.0
 40
0.0
 40
0.0
 40
0.0
 40
0.0
 40
0.125
 40
0.125
 40
0.25
 40
0.25
 40
0.375
 40
0.375
 40
0.5
 40
0.5
 40
0.625
 40
0.625
 40
0.75
 40
0.75
 40
0.875
 40
0.875
 40
1.0
 40
1.0
 40
1.0
 40
1.0
 10
180.81799484111656
 20
105.28457497465492
 30
0.0
 10
180.45665847539894
 20
105.89609089057798
 30
0.0
 10
179.9474438305279
 20
106.41600911162475
 30
0.0
 10
178.7585910037248
 20
107.16300580909459
 30
0.0
 10
178.07419390253477
 20
107.38605000911021
 30
0.0
 10
176.75930791058957
 20
107.52190814254877
 30
0.0
 10
176.14858300035951
 20
107.44111373855412
 30
0.0
 10
175.140171755117
 20
107.17670402123636
 30
0.0
 10
174.72782901749943
 20
106.99657391835471
 30
0.0
 10
174.11561100482569
 20
106.64325197713097
 30
0.0
 10
173.91241593909157
 20
106.46898415222334
 30
0.0
 10
173.77418411457739
 20
106.07282505017875
 30
0.0
 10
173.84893155892507
 20
105.84288343539558
 30
0.0
 10
174.29996086969447
 20
105.21156935377056
 30
0.0
 10
174.66775259982069
 20
104.80964116594456
 30
0.0
 10
175.48936081358335
 20
103.84752640119264
 30
0.0
 10
175.93804412250074
 20
103.28818984496618
 30
0.0
 10
176.3553776837775
 20
102.70808175757497
 30
0.0
  0
SPLINE
  5
1F5
100
AcDbEntity
  8
52720015
  6
CONTINUOUS
 62
         7
100
AcDbSpline
210
0.0
220
0.0
230
1.0
 70
         8
 71
         3
 72
        18
 73
        14
 74
         0
 42
0.0
 43
0.0
 40
0.0
 40
0.0
 40
0.0
 40
0.0
 40
0.5000000000000007
 40
0.5000000000000007
 40
0.7500000000000002
 40
0.7500000000000002
 40
0.8749999999999999
 40
0.8749999999999999
 40
0.9374999999999996
 40
0.9374999999999996
 40
0.9687499999999999
 40
0.9687499999999999
 40
1.0
 40
1.0
 40
1.0
 40
1.0
 10
176.3553776837775
 20
102.70808175757497
 30
0.0
 10
178.90169159976602
 20
99.168617327293546
 30
0.0
 10
181.47208748832949
 20
95.651411051971181
 30
0.0
 10
185.42290043027353
 20
90.46553821100575
 30
0.0
 10
186.75626317279193
 20
88.747934627123527
 30
0.0
 10
188.80703340756068
 20
86.25239233096049
 30
0.0
 10
189.49833465026498
 20
85.432140607709712
 30
0.0
 10
190.57334517454942
 20
84.259329455776907
 30
0.0
 10
190.94030443847126
 20
83.873727380835035
 30
0.0
 10
191.50762222974703
 20
83.352616414776719
 30
0.0
 10
191.69898218081286
 20
83.188118699967944
 30
0.0
 10
192.08486095267645
 20
82.924799811565009
 30
0.0
 10
192.29543016927576
 20
82.81913666971343
 30
0.0
 10
192.41516085978679
 20
82.888263216110587
 30
0.0
  0
LINE
  5
1F6
100
AcDbEntity
  8
52720015
  6
CONTINUOUS
 62
         7
100
AcDbLine
 10
163.1632930806
 20
65.9996886818
 30
0.0
 11
163.9132927351
 21
64.7006511744
 31
0.0
  0
LINE
  5
1F7
100
AcDbEntity
  8
52720015
  6
CONTINUOUS
 62
         7
100
AcDbLine
 10
180.3576012593
 20
13.8711149462
 30
0.0
 11
232.6437573829
 21
13.8711149462
 31
0.0
  0
LINE
  5
1F8
100
AcDbEntity
  8
52720015
  6
CONTINUOUS
 62
         7
100
AcDbLine
 10
211.6421312054
 20
46.2211149462
 30
0.0
 11
199.3481174461
 21
67.5149714063
 31
0.0
  0
LINE
  5
1F9
100
AcDbEntity
  8
52720015
  6
CONTINUOUS
 62
         7
100
AcDbLine
 10
248.5516206894
 20
8.8635977857
 30
0.0
 11
249.5006793211
 21
11.4711149462
 31
0.0
  0
LINE
  5
1FA
100
AcDbEntity
  8
52720015
  6
CONTINUOUS
 62
         7
100
AcDbLine
 10
171.5516206894
 20
8.8635977857
 30
0.0
 11
172.5006793211
 21
11.4711149462
 31
0.0
  0
LINE
  5
1FB
100
AcDbEntity
  8
52720015
  6
CONTINUOUS
 62
         7
100
AcDbLine
 10
220.1006793211
 20
49.2211149462
 30
0.0
 11
220.1006793211
 21
46.2211149462
 31
0.0
  0
LINE
  5
1FC
100
AcDbEntity
  8
52720015
  6
CONTINUOUS
 62
         7
100
AcDbLine
 10
176.2006793211
 20
11.4711149462
 30
0.0
 11
180.3576012593
 21
13.8711149462
 31
0.0
  0
LINE
  5
1FD
100
AcDbEntity
  8
52720015
  6
CONTINUOUS
 62
         7
100
AcDbLine
 10
172.5006793211
 20
11.4711149462
 30
0.0
 11
176.2006793211
 21
11.4711149462
 31
0.0
  0
LINE
  5
1FE
100
AcDbEntity
  8
52720015
  6
CONTINUOUS
 62
         7
100
AcDbLine
 10
236.8006793211
 20
11.4711149462
 30
0.0
 11
240.5006793211
 21
11.4711149462
 31
0.0
  0
LINE
  5
1FF
100
AcDbEntity
  8
52720015
  6
CONTINUOUS
 62
         7
100
AcDbLine
 10
232.6437573829
 20
13.8711149462
 30
0.0
 11
236.8006793211
 21
11.4711149462
 31
0.0
  0
LINE
  5
200
100
AcDbEntity
  8
52720015
  6
CONTINUOUS
 62
         7
100
AcDbLine
 10
150.3829056352
 20
87.7128680288
 30
0.0
 11
161.5135133535
 21
66.7792395175
 31
0.0
  0
LINE
  5
201
100
AcDbEntity
  8
52720015
  6
CONTINUOUS
 62
         7
100
AcDbLine
 10
163.0135133535
 20
64.1811633062
 30
0.0
 11
171.1156892827
 21
51.2149714063
 31
0.0
  0
LINE
  5
202
100
AcDbEntity
  8
52720015
  6
CONTINUOUS
 62
         7
100
AcDbLine
 10
194.5832086989
 20
84.1399862197
 30
0.0
 11
181.2240950637
 21
105.5190370475
 31
0.0
  0
ARC
  5
203
100
AcDbEntity
  8
52720015
  6
CONTINUOUS
 62
         7
100
AcDbCircle
 10
176.9838545829
 20
102.8694407263
 30
0.0
 40
5.0
100
AcDbArc
 50
32.0
 51
120.0
  0
LINE
  5
204
100
AcDbEntity
  8
52720015
  6
CONTINUOUS
 62
         7
100
AcDbLine
 10
156.2719975205
 20
63.7530489404
 30
0.0
 11
157.7719975205
 21
61.154972729
 31
0.0
  0
LINE
  5
205
100
AcDbEntity
  8
52720015
  6
CONTINUOUS
 62
         7
100
AcDbLine
 10
237.0506793211
 20
49.2211149462
 30
0.0
 11
237.0506793211
 21
51.2211149462
 31
0.0
  0
LINE
  5
206
100
AcDbEntity
  8
52720015
  6
CONTINUOUS
 62
         7
100
AcDbLine
 10
246.6006793211
 20
51.2211149462
 30
0.0
 11
246.6006793211
 21
58.2211149462
 31
0.0
  0
LINE
  5
207
100
AcDbEntity
  8
52720015
  6
CONTINUOUS
 62
         7
100
AcDbLine
 10
241.4497379528
 20
39.5786321066
 30
0.0
 11
240.5006793211
 21
36.9711149462
 31
0.0
  0
LINE
  5
208
100
AcDbEntity
  8
52720015
  6
CONTINUOUS
 62
         7
100
AcDbLine
 10
164.4497379528
 20
39.5786321066
 30
0.0
 11
163.5006793211
 21
36.9711149462
 31
0.0
  0
LINE
  5
209
100
AcDbEntity
  8
52720015
  6
CONTINUOUS
 62
         7
100
AcDbLine
 10
180.5006793211
 20
34.5711149462
 30
0.0
 11
180.3576012593
 21
34.5711149462
 31
0.0
  0
LINE
  5
20A
100
AcDbEntity
  8
52720015
  6
CONTINUOUS
 62
         7
100
AcDbLine
 10
174.2333807363
 20
53.0149714063
 30
0.0
 11
180.5006793211
 21
42.1596918313
 31
0.0
  0
LINE
  5
20B
100
AcDbEntity
  8
52720015
  6
CONTINUOUS
 62
         7
100
AcDbLine
 10
249.5006793211
 20
36.9711149462
 30
0.0
 11
248.5516206894
 21
39.5786321066
 31
0.0
  0
LINE
  5
20C
100
AcDbEntity
  8
52720015
  6
CONTINUOUS
 62
         7
100
AcDbLine
 10
172.5006793211
 20
36.9711149462
 30
0.0
 11
171.5516206894
 21
39.5786321066
 31
0.0
  0
LINE
  5
20D
100
AcDbEntity
  8
52720015
  6
CONTINUOUS
 62
         7
100
AcDbLine
 10
239.1006793211
 20
36.95214652
 30
0.0
 11
239.1006793211
 21
49.2211149462
 31
0.0
  0
LINE
  5
20E
100
AcDbEntity
  8
52720015
  6
CONTINUOUS
 62
         7
100
AcDbLine
 10
180.3576012593
 20
34.5711149462
 30
0.0
 11
176.2006793211
 21
36.9711149462
 31
0.0
  0
LINE
  5
20F
100
AcDbEntity
  8
52720015
  6
CONTINUOUS
 62
         7
100
AcDbLine
 10
176.2006793211
 20
36.9711149462
 30
0.0
 11
172.5006793211
 21
36.9711149462
 31
0.0
  0
LINE
  5
210
100
AcDbEntity
  8
52720015
  6
CONTINUOUS
 62
         7
100
AcDbLine
 10
240.5006793211
 20
36.9711149462
 30
0.0
 11
239.0753234421
 21
36.9711149462
 31
0.0
  0
LINE
  5
211
100
AcDbEntity
  8
52720015
  6
CONTINUOUS
 62
         7
100
AcDbLine
 10
202.4658088997
 20
69.3149714063
 30
0.0
 11
194.5832086989
 21
84.1399862197
 31
0.0
  0
ARC
  5
212
100
AcDbEntity
  8
52720015
  6
CONTINUOUS
 62
         7
100
AcDbCircle
 10
154.7976435995
 20
90.0602258427
 30
0.0
 40
5.0
100
AcDbArc
 50
120.0
 51
208.0
  0
LINE
  5
213
100
AcDbEntity
  8
52720015
  6
CONTINUOUS
 62
         7
100
AcDbLine
 10
222.1506793211
 20
51.2211149462
 30
0.0
 11
222.1506793211
 21
49.2211149462
 31
0.0
  0
LINE
  5
214
100
AcDbEntity
  8
52720015
  6
CONTINUOUS
 62
         7
100
AcDbLine
 10
212.6006793211
 20
58.2211149462
 30
0.0
 11
212.6006793211
 21
51.2211149462
 31
0.0
  0
LINE
  5
215
100
AcDbEntity
  8
52720015
  6
CONTINUOUS
 62
         7
100
AcDbLine
 10
240.5006793211
 20
11.4711149462
 30
0.0
 11
241.4497379528
 21
8.8635977857
 31
0.0
  0
LINE
  5
216
100
AcDbEntity
  8
52720015
  6
CONTINUOUS
 62
         7
100
AcDbLine
 10
163.5006793211
 20
11.4711149462
 30
0.0
 11
164.4497379528
 21
8.8635977857
 31
0.0
  0
ENDBLK
  5
217
100
AcDbEntity
  8
52720015
  6
CONTINUOUS
 62
         7
100
AcDbBlockEnd
  0
BLOCK
  5
284
100
AcDbEntity
  8
0
 62
         1
 48
0.0
100
AcDbBlockBegin
  2
SE6
 70
         0
 10
0.0
 20
0.0
 30
0.0
  3
SE6
  1

  0
ENDBLK
  5
285
100
AcDbEntity
  8
0
 62
         1
 48
0.0
100
AcDbBlockEnd
  0
BLOCK
  5
21A
100
AcDbEntity
  8
0
 62
         1
 48
0.0
100
AcDbBlockBegin
  2
SE7
 70
         0
 10
0.0
 20
0.0
 30
0.0
  3
SE7
  1

  0
SPLINE
  5
21B
100
AcDbEntity
  8
52720015
  6
CONTINUOUS
 62
         7
100
AcDbSpline
210
0.0
220
0.0
230
1.0
 70
         8
 71
         3
 72
        22
 73
        18
 74
         0
 42
0.0
 43
0.0
 40
0.0
 40
0.0
 40
0.0
 40
0.0
 40
0.125
 40
0.125
 40
0.25
 40
0.25
 40
0.375
 40
0.375
 40
0.5
 40
0.5
 40
0.625
 40
0.625
 40
0.75
 40
0.75
 40
0.875
 40
0.875
 40
1.0
 40
1.0
 40
1.0
 40
1.0
 10
161.98855826048316
 20
181.21096442251988
 30
0.0
 10
161.4091017205389
 20
181.24384465769987
 30
0.0
 10
160.85277831453382
 20
181.09728771103212
 30
0.0
 10
159.89262763604583
 20
180.4723716531752
 30
0.0
 10
159.4881637112949
 20
179.98507496321582
 30
0.0
 10
158.85480826242056
 20
178.79239041422349
 30
0.0
 10
158.62620923516951
 20
178.10644786203039
 30
0.0
 10
158.22988098436213
 20
176.76295924115252
 30
0.0
 10
158.05398329143361
 20
176.09368330314976
 30
0.0
 10
157.70064419035083
 20
174.86959715187189
 30
0.0
 10
157.52198092527738
 20
174.31016311158214
 30
0.0
 10
157.25656966693182
 20
173.36277026590309
 30
0.0
 10
157.17506344543972
 20
172.97413657725642
 30
0.0
 10
157.30937301737518
 20
172.44351518024092
 30
0.0
 10
157.52982392759765
 20
172.30183246143355
 30
0.0
 10
158.27721633004407
 20
172.1869579317482
 30
0.0
 10
158.7998615321105
 20
172.207465504152
 30
0.0
 10
159.41206504340323
 20
172.2857301078418
 30
0.0
  0
SPLINE
  5
21C
100
AcDbEntity
  8
52720015
  6
CONTINUOUS
 62
         7
100
AcDbSpline
210
0.0
220
0.0
230
1.0
 70
         8
 71
         3
 72
        18
 73
        14
 74
         0
 42
0.0
 43
0.0
 40
0.0
 40
0.0
 40
0.0
 40
0.0
 40
0.03125
 40
0.03125
 40
0.0624999999999999
 40
0.0624999999999999
 40
0.1249999999999999
 40
0.1249999999999999
 40
0.2499999999999999
 40
0.2499999999999999
 40
0.4999999999999998
 40
0.4999999999999998
 40
1.0
 40
1.0
 40
1.0
 40
1.0
 10
181.80837680194759
 20
177.56921101563711
 30
0.0
 10
181.87757696946187
 20
177.80892742769021
 30
0.0
 10
181.77033360376535
 20
178.00902268576613
 30
0.0
 10
181.50783163510619
 20
178.30215598068028
 30
0.0
 10
181.34180439340838
 20
178.41617586982352
 30
0.0
 10
180.82497563837188
 20
178.71576066047504
 30
0.0
 10
180.44417122349719
 20
178.86251149969846
 30
0.0
 10
179.26924733072397
 20
179.25535843157479
 30
0.0
 10
178.44542764636364
 20
179.44335025119238
 30
0.0
 10
175.94807282427615
 20
179.93893780333019
 30
0.0
 10
174.2343380191277
 20
180.16840358046289
 30
0.0
 10
169.04615050579434
 20
180.76007176483938
 30
0.0
 10
165.52830577126946
 20
181.01010771867999
 30
0.0
 10
161.98855826048316
 20
181.21096442251988
 30
0.0
  0
SPLINE
  5
21D
100
AcDbEntity
  8
52720015
  6
CONTINUOUS
 62
         7
100
AcDbSpline
210
0.0
220
0.0
230
1.0
 70
         8
 71
         3
 72
        10
 73
         6
 74
         0
 42
0.0
 43
0.0
 40
0.0
 40
0.0
 40
0.0
 40
0.0
 40
0.125
 40
0.125
 40
0.1252013492436058
 40
0.1252013492436058
 40
0.1252013492436058
 40
0.1252013492436058
 10
165.50419426283929
 20
151.1819754391656
 30
0.0
 10
164.85703471390687
 20
151.22727190491412
 30
0.0
 10
164.28300482386149
 20
151.394274538236
 30
0.0
 10
163.85136970838821
 20
151.65040898744249
 30
0.0
 10
163.85067593719023
 20
151.65082113834566
 30
0.0
 10
163.84998255207719
 20
151.65123352340223
 30
0.0
  0
ARC
  5
21E
100
AcDbEntity
  8
52720015
  6
CONTINUOUS
 62
         7
100
AcDbCircle
 10
267.196544328
 20
1480.2172757397
 30
0.0
 40
1332.9201639659
100
AcDbArc
 50
265.6244868841
 51
266.6626161556
  0
LINE
  5
21F
100
AcDbEntity
  8
52720015
  6
CONTINUOUS
 62
         7
100
AcDbLine
 10
255.8330422323
 20
168.2262233232
 30
0.0
 11
248.1542836521
 21
154.9262233232
 31
0.0
  0
LINE
  5
220
100
AcDbEntity
  8
52720015
  6
CONTINUOUS
 62
         7
100
AcDbLine
 10
232.7967664917
 20
181.5262233232
 30
0.0
 11
248.1542836521
 21
181.5262233232
 31
0.0
  0
LINE
  5
221
100
AcDbEntity
  8
52720015
  6
CONTINUOUS
 62
         7
100
AcDbLine
 10
248.1542836521
 20
181.5262233232
 30
0.0
 11
255.8330422323
 21
168.2262233232
 31
0.0
  0
LINE
  5
222
100
AcDbEntity
  8
52720015
  6
CONTINUOUS
 62
         7
100
AcDbLine
 10
225.1180079114
 20
168.2262233232
 30
0.0
 11
232.7967664917
 21
181.5262233232
 31
0.0
  0
LINE
  5
223
100
AcDbEntity
  8
52720015
  6
CONTINUOUS
 62
         7
100
AcDbLine
 10
232.7967664917
 20
154.9262233232
 30
0.0
 11
225.1180079114
 21
168.2262233232
 31
0.0
  0
LINE
  5
224
100
AcDbEntity
  8
52720015
  6
CONTINUOUS
 62
         7
100
AcDbLine
 10
248.1542836521
 20
154.9262233232
 30
0.0
 11
232.7967664917
 21
154.9262233232
 31
0.0
  0
CIRCLE
  5
225
100
AcDbEntity
  8
52720015
  6
CONTINUOUS
 62
         7
100
AcDbCircle
 10
240.4755250719
 20
168.2262233232
 30
0.0
 40
12.75
  0
ELLIPSE
  5
226
100
AcDbEntity
  8
52720015
  6
CONTINUOUS
 62
         7
100
AcDbEllipse
 10
238.7434742643
 20
168.2262233232
 30
0.0
 11
-0.0000000000000032
 21
14.500000000001418
 31
0.0
210
0.0
220
0.0
230
1.0
 40
0.5
 41
2.7341296018879215
 42
3.5490014154315506
  0
LINE
  5
227
100
AcDbEntity
  8
52720015
  6
CONTINUOUS
 62
         7
100
AcDbLine
 10
223.1550169962
 20
153.7262233232
 30
0.0
 11
238.7434742643
 21
153.7262233232
 31
0.0
  0
ELLIPSE
  5
228
100
AcDbEntity
  8
52720015
  6
CONTINUOUS
 62
         7
100
AcDbEllipse
 10
238.7434742643
 20
168.2262233232
 30
0.0
 11
-0.0
 21
-14.500000000001421
 31
0.0
210
0.0
220
0.0
230
1.0
 40
0.5
 41
2.7343323480172494
 42
3.5492776444245542
  0
LINE
  5
229
100
AcDbEntity
  8
52720015
  6
CONTINUOUS
 62
         7
100
AcDbLine
 10
215.4755250719
 20
158.7262233232
 30
0.0
 11
215.4755250719
 21
177.7262233232
 31
0.0
  0
ELLIPSE
  5
22A
100
AcDbEntity
  8
52720015
  6
CONTINUOUS
 62
         7
100
AcDbEllipse
 10
223.1550169962
 20
168.2262233233
 30
0.0
 11
-0.0000000000009793
 21
-14.499999999849438
 31
0.0
210
0.0
220
0.0
230
1.0
 40
0.5
 41
3.141592653589826
 42
3.2271586197076378
  0
ELLIPSE
  5
22B
100
AcDbEntity
  8
52720015
  6
CONTINUOUS
 62
         7
100
AcDbEllipse
 10
219.5363772789
 20
168.2262233229
 30
0.0
 11
-35.092292412459244
 21
-0.0000000000091091
 31
0.0
210
0.0
220
0.0
230
1.0
 40
0.4131961466
 41
4.6268230142675728
 42
4.629014523459297
  0
LINE
  5
22C
100
AcDbEntity
  8
52720015
  6
CONTINUOUS
 62
         7
100
AcDbLine
 10
221.714094806
 20
182.4369577506
 30
0.0
 11
218.5796591358
 21
182.4369577506
 31
0.0
  0
ELLIPSE
  5
22D
100
AcDbEntity
  8
52720015
  6
CONTINUOUS
 62
         7
100
AcDbEllipse
 10
220.0205813257
 20
168.2262233252
 30
0.0
 11
0.0000000003142391
 21
14.499999997997497
 31
0.0
210
0.0
220
0.0
230
1.0
 40
0.5
 41
0.2000801559533122
 42
0.2780205693204317
  0
ELLIPSE
  5
22E
100
AcDbEntity
  8
52720015
  6
CONTINUOUS
 62
         7
100
AcDbEllipse
 10
223.1550169962
 20
168.2262233225
 30
0.0
 11
-0.0000000000668762
 21
14.500000000671278
 31
0.0
210
0.0
220
0.0
230
1.0
 40
0.5
 41
0.0961795825205971
 42
0.2000801559221285
  0
ELLIPSE
  5
22F
100
AcDbEntity
  8
52720015
  6
CONTINUOUS
 62
         7
100
AcDbEllipse
 10
208.2648845551
 20
168.2262233976
 30
0.0
 11
35.583223996306977
 21
-0.000000023151116
 31
0.0
210
0.0
220
0.0
230
1.0
 40
0.4074953952
 41
1.2927757583911179
 42
1.3216902569217381
  0
ELLIPSE
  5
230
100
AcDbEntity
  8
52720015
  6
CONTINUOUS
 62
         7
100
AcDbEllipse
 10
213.3245112018
 20
168.226223323
 30
0.0
 11
35.092292411920205
 21
0.000000000033923
 31
0.0
210
0.0
220
0.0
230
1.0
 40
0.4131961466
 41
4.842659843850706
 42
4.946694501025358
  0
ELLIPSE
  5
231
100
AcDbEntity
  8
52720015
  6
CONTINUOUS
 62
         7
100
AcDbEllipse
 10
223.1550169962
 20
168.2262233234
 30
0.0
 11
-0.0000000000238395
 21
-14.500000000213113
 31
0.0
210
0.0
220
0.0
230
1.0
 40
0.5
 41
6.048879786540474
 42
6.1595627706879261
  0
ELLIPSE
  5
232
100
AcDbEntity
  8
52720015
  6
CONTINUOUS
 62
         7
100
AcDbEllipse
 10
225.6923056516
 20
168.2262232473
 30
0.0
 11
-48.617919034032361
 21
0.0000000063832223
 31
0.0
210
0.0
220
0.0
230
1.0
 40
0.298243944
 41
1.5001613442959636
 42
1.509423111254051
  0
ELLIPSE
  5
233
100
AcDbEntity
  8
52720015
  6
CONTINUOUS
 62
         7
100
AcDbEllipse
 10
223.1550169962
 20
168.2262233232
 30
0.0
 11
0.0000000000002264
 21
14.499999999976303
 31
0.0
210
0.0
220
0.0
230
1.0
 40
0.5
 41
3.0802194377643475
 42
3.1415926535897931
  0
LINE
  5
234
100
AcDbEntity
  8
52720015
  6
CONTINUOUS
 62
         7
100
AcDbLine
 10
224.0261644081
 20
153.7262233232
 30
0.0
 11
224.0261644081
 21
153.3277533095
 31
0.0
  0
ELLIPSE
  5
235
100
AcDbEntity
  8
52720015
  6
CONTINUOUS
 62
         7
100
AcDbEllipse
 10
223.1550169963
 20
168.226223322
 30
0.0
 11
-0.0000000001351602
 21
-14.999999998798925
 31
0.0
210
0.0
220
0.0
230
1.0
 40
0.5
 41
0.1164157667836892
 42
0.2171481501925823
  0
LINE
  5
236
100
AcDbEntity
  8
52720015
  6
CONTINUOUS
 62
         7
100
AcDbLine
 10
224.0261644081
 20
153.3277533095
 30
0.0
 11
223.9495335462
 21
153.3277533095
 31
0.0
  0
LINE
  5
237
100
AcDbEntity
  8
52720015
  6
CONTINUOUS
 62
         7
100
AcDbLine
 10
224.7708591946
 20
153.7262233232
 30
0.0
 11
224.7708591946
 21
153.5784857518
 31
0.0
  0
ELLIPSE
  5
238
100
AcDbEntity
  8
52720015
  6
CONTINUOUS
 62
         7
100
AcDbEllipse
 10
216.6746647917
 20
168.2262233166
 30
0.0
 11
46.866448989509422
 21
0.0000000006482908
 31
0.0
210
0.0
220
0.0
230
1.0
 40
0.3200583854
 41
4.771713977321939
 42
4.8318706981214516
  0
ELLIPSE
  5
239
100
AcDbEntity
  8
52720015
  6
CONTINUOUS
 62
         7
100
AcDbEllipse
 10
223.1550169963
 20
168.226223324
 30
0.0
 11
-0.0000000000993069
 21
-15.000000000863121
 31
0.0
210
0.0
220
0.0
230
1.0
 40
0.5
 41
6.0568286474402084
 42
6.1637035894313978
  0
ELLIPSE
  5
23A
100
AcDbEntity
  8
52720015
  6
CONTINUOUS
 62
         7
100
AcDbEllipse
 10
213.3245112025
 20
168.2262233213
 30
0.0
 11
36.302371458420495
 21
0.0000000004027817
 31
0.0
210
0.0
220
0.0
230
1.0
 40
0.4131961466
 41
4.8382939845319193
 42
4.9387456401215237
  0
ELLIPSE
  5
23B
100
AcDbEntity
  8
52720015
  6
CONTINUOUS
 62
         7
100
AcDbEllipse
 10
223.1550169962
 20
168.226223323
 30
0.0
 11
0.0000000000022248
 21
14.999999999798128
 31
0.0
210
0.0
220
0.0
230
1.0
 40
0.5
 41
3.082267656620814
 42
3.2477273416946959
  0
ELLIPSE
  5
23C
100
AcDbEntity
  8
52720015
  6
CONTINUOUS
 62
         7
100
AcDbEllipse
 10
225.6923055701
 20
168.2262229103
 30
0.0
 11
-50.294398435825457
 21
0.0000000331267829
 31
0.0
210
0.0
220
0.0
230
1.0
 40
0.2982439407
 41
1.4852907131807065
 42
1.5114713312159247
  0
ELLIPSE
  5
23D
100
AcDbEntity
  8
52720015
  6
CONTINUOUS
 62
         7
100
AcDbEllipse
 10
222.0376014567
 20
168.2262233191
 30
0.0
 11
0.0000000001479328
 21
-14.999999995789244
 31
0.0
210
0.0
220
0.0
230
1.0
 40
0.5000000001
 41
6.1976796925201647
 42
6.2628422630398015
  0
ELLIPSE
  5
23E
100
AcDbEntity
  8
52720015
  6
CONTINUOUS
 62
         7
100
AcDbEllipse
 10
223.1550169945
 20
168.2262233088
 30
0.0
 11
-62.432418519471888
 21
0.0000000004599573
 31
0.0
210
0.0
220
0.0
230
1.0
 40
0.2402597936
 41
1.5114713298259486
 42
1.5504532826813153
  0
LINE
  5
23F
100
AcDbEntity
  8
52720015
  6
CONTINUOUS
 62
         7
100
AcDbLine
 10
221.4718023436
 20
154.1224240572
 30
0.0
 11
221.4718023436
 21
153.6088653631
 31
0.0
  0
LINE
  5
240
100
AcDbEntity
  8
52720015
  6
CONTINUOUS
 62
         7
100
AcDbLine
 10
217.883095288
 20
153.8490855325
 30
0.0
 11
217.883095288
 21
153.3449568766
 31
0.0
  0
LINE
  5
241
100
AcDbEntity
  8
52720015
  6
CONTINUOUS
 62
         7
100
AcDbLine
 10
223.9495335462
 20
153.7262233232
 30
0.0
 11
223.9495335462
 21
153.3106283365
 31
0.0
  0
LINE
  5
242
100
AcDbEntity
  8
52720015
  6
CONTINUOUS
 62
         7
100
AcDbLine
 10
222.7103404626
 20
153.7535231217
 30
0.0
 11
222.7103404626
 21
153.252611497
 31
0.0
  0
LINE
  5
243
100
AcDbEntity
  8
52720015
  6
CONTINUOUS
 62
         7
100
AcDbLine
 10
221.3970904983
 20
153.302567169
 30
0.0
 11
221.3970904983
 21
153.2810239987
 31
0.0
  0
LINE
  5
244
100
AcDbEntity
  8
52720015
  6
CONTINUOUS
 62
         7
100
AcDbLine
 10
222.4587895925
 20
183.161452468
 30
0.0
 11
219.3243539222
 21
183.161452468
 31
0.0
  0
ELLIPSE
  5
245
100
AcDbEntity
  8
52720015
  6
CONTINUOUS
 62
         7
100
AcDbEllipse
 10
218.8248899773
 20
168.2262233232
 30
0.0
 11
0.0000000000019785
 21
15.00000000001368
 31
0.0
210
0.0
220
0.0
230
1.0
 40
0.5
 41
3.0156876494237514
 42
3.1415926535897931
  0
LINE
  5
246
100
AcDbEntity
  8
52720015
  6
CONTINUOUS
 62
         7
100
AcDbLine
 10
222.2610347251
 20
153.836880642
 30
0.0
 11
222.2610347251
 21
153.3331651149
 31
0.0
  0
ELLIPSE
  5
247
100
AcDbEntity
  8
52720015
  6
CONTINUOUS
 62
         7
100
AcDbEllipse
 10
220.0205813256
 20
168.2262233328
 30
0.0
 11
0.0000000004264341
 21
14.999999990336345
 31
0.0
210
0.0
220
0.0
230
1.0
 40
0.5000000002
 41
0.0389584176334318
 42
0.0929641672906535
  0
ELLIPSE
  5
248
100
AcDbEntity
  8
52720015
  6
CONTINUOUS
 62
         7
100
AcDbEllipse
 10
218.3222426448
 20
168.2262231015
 30
0.0
 11
36.104655151825938
 21
0.0000000071372708
 31
0.0
210
0.0
220
0.0
230
1.0
 40
0.4154588974
 41
1.5318379090101102
 42
1.5592686935833604
  0
ELLIPSE
  5
249
100
AcDbEntity
  8
52720015
  6
CONTINUOUS
 62
         7
100
AcDbEllipse
 10
218.8248899773
 20
168.2262233232
 30
0.0
 11
0.0000000000011667
 21
14.999999999979782
 31
0.0
210
0.0
220
0.0
230
1.0
 40
0.5
 41
0.0115276328309074
 42
0.240635431762307
  0
ELLIPSE
  5
24A
100
AcDbEntity
  8
52720015
  6
CONTINUOUS
 62
         7
100
AcDbEllipse
 10
208.2648845684
 20
168.2262234207
 30
0.0
 11
36.810231693222697
 21
-0.0000000294937615
 31
0.0
210
0.0
220
0.0
230
1.0
 40
0.407495395
 41
1.302276767573574
 42
1.3301608962243263
  0
ELLIPSE
  5
24B
100
AcDbEntity
  8
52720015
  6
CONTINUOUS
 62
         7
100
AcDbEllipse
 10
220.0205813257
 20
168.226223325
 30
0.0
 11
0.0000000002740352
 21
14.999999998101194
 31
0.0
210
0.0
220
0.0
230
1.0
 40
0.5
 41
0.1933249486915966
 42
0.2685195603444351
  0
LINE
  5
24C
100
AcDbEntity
  8
52720015
  6
CONTINUOUS
 62
         7
100
AcDbLine
 10
218.5796591358
 20
182.9467862529
 30
0.0
 11
221.714094806
 21
182.9467862529
 31
0.0
  0
LINE
  5
24D
100
AcDbEntity
  8
52720015
  6
CONTINUOUS
 62
         7
100
AcDbLine
 10
222.4587895925
 20
182.6592087943
 30
0.0
 11
222.4587895925
 21
183.161452468
 31
0.0
  0
LINE
  5
24E
100
AcDbEntity
  8
52720015
  6
CONTINUOUS
 62
         7
100
AcDbLine
 10
221.714094806
 20
182.4369577506
 30
0.0
 11
221.714094806
 21
182.9467862529
 31
0.0
  0
LINE
  5
24F
100
AcDbEntity
  8
52720015
  6
CONTINUOUS
 62
         7
100
AcDbLine
 10
219.7284671001
 20
183.161452468
 30
0.0
 11
219.7284671001
 21
183.2148415756
 31
0.0
  0
LINE
  5
250
100
AcDbEntity
  8
52720015
  6
CONTINUOUS
 62
         7
100
AcDbLine
 10
217.0374914968
 20
182.2786546674
 30
0.0
 11
217.0374914968
 21
182.7940243476
 31
0.0
  0
LINE
  5
251
100
AcDbEntity
  8
52720015
  6
CONTINUOUS
 62
         7
100
AcDbLine
 10
218.0307987742
 20
182.1694317627
 30
0.0
 11
218.0307987742
 21
182.6886941212
 31
0.0
  0
LINE
  5
252
100
AcDbEntity
  8
52720015
  6
CONTINUOUS
 62
         7
100
AcDbLine
 10
218.5796591358
 20
182.4369577506
 30
0.0
 11
218.5796591358
 21
182.9467862529
 31
0.0
  0
ELLIPSE
  5
253
100
AcDbEntity
  8
52720015
  6
CONTINUOUS
 62
         7
100
AcDbEllipse
 10
223.1550169963
 20
168.226223322
 30
0.0
 11
-0.0000000001184633
 21
15.00000000121438
 31
0.0
210
0.0
220
0.0
230
1.0
 40
0.5
 41
0.0929641672387735
 42
0.1933249486593005
  0
ELLIPSE
  5
254
100
AcDbEntity
  8
52720015
  6
CONTINUOUS
 62
         7
100
AcDbEllipse
 10
215.4066941647
 20
168.226223328
 30
0.0
 11
61.866448989896242
 21
-0.0000000005678084
 31
0.0
210
0.0
220
0.0
230
1.0
 40
0.2424577496
 41
1.4277890791577434
 42
1.4351226846110705
  0
ELLIPSE
  5
255
100
AcDbEntity
  8
52720015
  6
CONTINUOUS
 62
         7
100
AcDbEllipse
 10
223.1550169962
 20
168.2262233237
 30
0.0
 11
-0.0000000000676117
 21
14.999999999493236
 31
0.0
210
0.0
220
0.0
230
1.0
 40
0.5
 41
6.0328268178611602
 42
6.1401780595234765
  0
ELLIPSE
  5
256
100
AcDbEntity
  8
52720015
  6
CONTINUOUS
 62
         7
100
AcDbEllipse
 10
223.1550169962
 20
168.226223323
 30
0.0
 11
-0.0000000000009134
 21
-15.000000000156591
 31
0.0
210
0.0
220
0.0
230
1.0
 40
0.5
 41
3.05888552099018
 42
3.2242997861895124
  0
LINE
  5
257
100
AcDbEntity
  8
52720015
  6
CONTINUOUS
 62
         7
100
AcDbLine
 10
218.9467133988
 20
183.223979485
 30
0.0
 11
218.9467133988
 21
183.2242443998
 31
0.0
  0
ELLIPSE
  5
258
100
AcDbEntity
  8
52720015
  6
CONTINUOUS
 62
         7
100
AcDbEllipse
 10
219.5363772789
 20
168.226223322
 30
0.0
 11
36.302371462313907
 21
0.0000000000479653
 31
0.0
210
0.0
220
0.0
230
1.0
 40
0.4131961466
 41
1.4880891941946475
 42
1.5870401640085889
  0
LINE
  5
259
100
AcDbEntity
  8
52720015
  6
CONTINUOUS
 62
         7
100
AcDbLine
 10
225.0131516569
 20
182.7262233232
 30
0.0
 11
225.0131516569
 21
182.7585783399
 31
0.0
  0
LINE
  5
25A
100
AcDbEntity
  8
52720015
  6
CONTINUOUS
 62
         7
100
AcDbLine
 10
224.2239192755
 20
182.7262233232
 30
0.0
 11
224.2239192755
 21
183.0731015024
 31
0.0
  0
LINE
  5
25B
100
AcDbEntity
  8
52720015
  6
CONTINUOUS
 62
         7
100
AcDbLine
 10
223.774613538
 20
182.7262233232
 30
0.0
 11
223.774613538
 21
183.1749490382
 31
0.0
  0
LINE
  5
25C
100
AcDbEntity
  8
52720015
  6
CONTINUOUS
 62
         7
100
AcDbLine
 10
222.5354204544
 20
182.673174576
 30
0.0
 11
222.5354204544
 21
183.1749490382
 31
0.0
  0
LINE
  5
25D
100
AcDbEntity
  8
52720015
  6
CONTINUOUS
 62
         7
100
AcDbLine
 10
213.4755250719
 20
151.2262233232
 30
0.0
 11
213.4755250719
 21
185.2262233232
 31
0.0
  0
LINE
  5
25E
100
AcDbEntity
  8
52720015
  6
CONTINUOUS
 62
         7
100
AcDbLine
 10
206.4755250719
 20
151.2262233232
 30
0.0
 11
206.4755250719
 21
185.2262233232
 31
0.0
  0
ELLIPSE
  5
25F
100
AcDbEntity
  8
52720015
  6
CONTINUOUS
 62
         7
100
AcDbEllipse
 10
189.8996414909
 20
168.2262233232
 30
0.0
 11
0.0000000000000405
 21
-18.685975384922699
 31
0.0
210
0.0
220
0.0
230
1.0
 40
0.5
 41
3.1214297717754969
 42
3.1415926535897918
  0
ELLIPSE
  5
260
100
AcDbEntity
  8
52720015
  6
CONTINUOUS
 62
         7
100
AcDbEllipse
 10
189.8996414909
 20
168.2262233232
 30
0.0
 11
-0.0000000000000821
 21
18.685975384922955
 31
0.0
210
0.0
220
0.0
230
1.0
 40
0.5
 41
0.0
 42
1.047197551196593
  0
ELLIPSE
  5
261
100
AcDbEntity
  8
52720015
  6
CONTINUOUS
 62
         7
100
AcDbEllipse
 10
189.8996414909
 20
168.2262233232
 30
0.0
 11
0.0000000000000682
 21
-18.68597538492293
 31
0.0
210
0.0
220
0.0
230
1.0
 40
0.5
 41
0.0
 42
0.0201628818143678
  0
ELLIPSE
  5
262
100
AcDbEntity
  8
52720015
  6
CONTINUOUS
 62
         7
100
AcDbEllipse
 10
204.4316686117
 20
168.2262233232
 30
0.0
 11
0.000000000000008
 21
18.099999999999998
 31
0.0
210
0.0
220
0.0
230
1.0
 40
0.5
 41
0.0000000000000009
 42
3.4920187520814965
  0
ELLIPSE
  5
263
100
AcDbEntity
  8
52720015
  6
CONTINUOUS
 62
         7
100
AcDbEllipse
 10
204.4316686117
 20
168.2262233232
 30
0.0
 11
0.000000000000008
 21
18.099999999999998
 31
0.0
210
0.0
220
0.0
230
1.0
 40
0.5
 41
5.9327592086878873
 42
6.2831853071795862
  0
ELLIPSE
  5
264
100
AcDbEntity
  8
52720015
  6
CONTINUOUS
 62
         7
100
AcDbEllipse
 10
189.8996414909
 20
168.2262233232
 30
0.0
 11
0.0000000000000081
 21
18.685975384922731
 31
0.0
210
0.0
220
0.0
230
1.0
 40
0.5
 41
1.047197551196599
 42
2.0943951023931966
  0
ELLIPSE
  5
265
100
AcDbEntity
  8
52720015
  6
CONTINUOUS
 62
         7
100
AcDbEllipse
 10
189.8996414909
 20
168.2262233232
 30
0.0
 11
0.0000000000000705
 21
18.685975384922909
 31
0.0
210
0.0
220
0.0
230
1.0
 40
0.5
 41
2.094395102393205
 42
3.1415926535897931
  0
ARC
  5
266
100
AcDbEntity
  8
52720015
  6
PHANTOM2
 62
         7
100
AcDbCircle
 10
137.1627076841
 20
696.142101793
 30
0.0
 40
511.9684586572
100
AcDbArc
 50
275.9215485027
 51
275.9219054004
  0
ARC
  5
267
100
AcDbEntity
  8
52720015
  6
CONTINUOUS
 62
         7
100
AcDbCircle
 10
170.6723865102
 20
162.3103842864
 30
0.0
 40
12.653367793
100
AcDbArc
 50
203.0722320075
 51
237.3858551484
  0
ARC
  5
268
100
AcDbEntity
  8
52720015
  6
CONTINUOUS
 62
         7
100
AcDbCircle
 10
267.2294549001
 20
-1144.2538676968
 30
0.0
 40
1333.410288092
100
AcDbArc
 50
93.3373335743
 51
94.3753199462
  0
SPLINE
  5
269
100
AcDbEntity
  8
52720015
  6
CONTINUOUS
 62
         7
100
AcDbSpline
210
0.0
220
0.0
230
1.0
 70
         8
 71
         3
 72
         8
 73
         4
 74
         0
 42
0.0
 43
0.0
 40
0.8752258954374779
 40
0.8752258954374779
 40
0.8752258954374779
 40
0.8752258954374779
 40
1.0
 40
1.0
 40
1.0
 40
1.0
 10
163.85023495303307
 20
184.80136321842761
 30
0.0
 10
164.28129645267717
 20
185.05761331704821
 30
0.0
 10
164.85747787857593
 20
185.22520575974397
 30
0.0
 10
165.50419426283926
 20
185.27047120718595
 30
0.0
  0
SPLINE
  5
26A
100
AcDbEntity
  8
52720015
  6
CONTINUOUS
 62
         7
100
AcDbSpline
210
0.0
220
0.0
230
1.0
 70
         8
 71
         3
 72
        18
 73
        14
 74
         0
 42
0.0
 43
0.0
 40
0.0
 40
0.0
 40
0.0
 40
0.0
 40
0.0312499999999995
 40
0.0312499999999995
 40
0.0624999999999991
 40
0.0624999999999991
 40
0.1249999999999989
 40
0.1249999999999989
 40
0.2499999999999986
 40
0.2499999999999986
 40
0.499999999999999
 40
0.499999999999999
 40
1.0
 40
1.0
 40
1.0
 40
1.0
 10
181.80837680194762
 20
158.88323563071435
 30
0.0
 10
181.73917663443385
 20
159.12295204276742
 30
0.0
 10
181.51258883531017
 20
159.33627802928424
 30
0.0
 10
181.07281589356938
 20
159.65722939853922
 30
0.0
 10
180.83635869108349
 20
159.78718605031594
 30
0.0
 10
180.13262028693998
 20
160.135075277021
 30
0.0
 10
179.6573178394566
 20
160.31567522518469
 30
0.0
 10
178.22586755509474
 20
160.81146178073615
 30
0.0
 10
177.27329982789607
 20
161.06946626426054
 30
0.0
 10
174.42918478583363
 20
161.77509135020344
 30
0.0
 10
172.5422807807717
 20
162.14550127818313
 30
0.0
 10
166.8906400755418
 20
163.15928204439641
 30
0.0
 10
163.14765484519009
 20
163.68915564578234
 30
0.0
 10
159.41206504340326
 20
164.16671653850966
 30
0.0
  0
SPLINE
  5
26B
100
AcDbEntity
  8
52720015
  6
CONTINUOUS
 62
         7
100
AcDbSpline
210
0.0
220
0.0
230
1.0
 70
         8
 71
         3
 72
        22
 73
        18
 74
         0
 42
0.0
 43
0.0
 40
0.0
 40
0.0
 40
0.0
 40
0.0
 40
0.125
 40
0.125
 40
0.25
 40
0.25
 40
0.375
 40
0.375
 40
0.5
 40
0.5
 40
0.625
 40
0.625
 40
0.75
 40
0.75
 40
0.875
 40
0.875
 40
1.0
 40
1.0
 40
1.0
 40
1.0
 10
159.41206504340326
 20
164.16671653850966
 30
0.0
 10
158.8005491274802
 20
164.2448932394382
 30
0.0
 10
158.28063090643343
 20
164.26533892609231
 30
0.0
 10
157.5336342089636
 20
164.15186793403126
 30
0.0
 10
157.31059000894797
 20
164.01070826251726
 30
0.0
 10
157.17473187550942
 20
163.48001155758178
 30
0.0
 10
157.25552627950407
 20
163.09418382488366
 30
0.0
 10
157.51993599682183
 20
162.14880898319637
 30
0.0
 10
157.70006609970346
 20
161.58476845869907
 30
0.0
 10
158.05338804092722
 20
160.36090895196804
 30
0.0
 10
158.22765586583483
 20
159.69775383342207
 30
0.0
 10
158.62381496787944
 20
158.35339972514632
 30
0.0
 10
158.85375658266258
 20
157.66314646112076
 30
0.0
 10
159.48507066428763
 20
156.47209373338978
 30
0.0
 10
159.88699885211366
 20
155.98512072173997
 30
0.0
 10
160.84911361686557
 20
155.35617516935656
 30
0.0
 10
161.40845017309201
 20
155.2085650177456
 30
0.0
 10
161.98855826048322
 20
155.24148222383164
 30
0.0
  0
SPLINE
  5
26C
100
AcDbEntity
  8
52720015
  6
CONTINUOUS
 62
         7
100
AcDbSpline
210
0.0
220
0.0
230
1.0
 70
         8
 71
         3
 72
        18
 73
        14
 74
         0
 42
0.0
 43
0.0
 40
0.0
 40
0.0
 40
0.0
 40
0.0
 40
0.5000000000000007
 40
0.5000000000000007
 40
0.7500000000000002
 40
0.7500000000000002
 40
0.8749999999999999
 40
0.8749999999999999
 40
0.9374999999999996
 40
0.9374999999999996
 40
0.9687499999999999
 40
0.9687499999999999
 40
1.0
 40
1.0
 40
1.0
 40
1.0
 10
161.98855826048322
 20
155.24148222383164
 30
0.0
 10
165.52802269076463
 20
155.44232286477083
 30
0.0
 10
169.045228966087
 20
155.69235063220034
 30
0.0
 10
174.23110180705243
 20
156.28363362475042
 30
0.0
 10
175.94870539093466
 20
156.51366323756611
 30
0.0
 10
178.44424768709771
 20
157.00884781321847
 30
0.0
 10
179.26449941034849
 20
157.19602258677602
 30
0.0
 10
180.43731056228125
 20
157.58738335001189
 30
0.0
 10
180.82291263722314
 20
157.73535975604514
 30
0.0
 10
181.34402360328147
 20
158.03762258171244
 30
0.0
 10
181.50852131809023
 20
158.15062188260606
 30
0.0
 10
181.77184020649318
 20
158.44554898487112
 30
0.0
 10
181.87750334834476
 20
158.64377424969194
 30
0.0
 10
181.80837680194762
 20
158.88323563071435
 30
0.0
  0
SPLINE
  5
26D
100
AcDbEntity
  8
52720015
  6
CONTINUOUS
 62
         7
100
AcDbSpline
210
0.0
220
0.0
230
1.0
 70
         8
 71
         3
 72
        18
 73
        14
 74
         0
 42
0.0
 43
0.0
 40
0.0
 40
0.0
 40
0.0
 40
0.0
 40
0.5000000000000004
 40
0.5000000000000004
 40
0.7500000000000006
 40
0.7500000000000006
 40
0.8750000000000006
 40
0.8750000000000006
 40
0.9375000000000002
 40
0.9375000000000002
 40
0.9687500000000002
 40
0.9687500000000002
 40
1.0
 40
1.0
 40
1.0
 40
1.0
 10
159.41206504340323
 20
172.2857301078418
 30
0.0
 10
163.14735610279632
 20
172.76325280909518
 30
0.0
 10
166.88968382714589
 20
173.29306861684299
 30
0.0
 10
172.53873170250861
 20
174.3062710090401
 30
0.0
 10
174.42992208443627
 20
174.67756370370014
 30
0.0
 10
177.27194758477617
 20
175.38263215525504
 30
0.0
 10
178.22038800650731
 20
175.63951605914542
 30
0.0
 10
179.64880855179331
 20
176.13361220826894
 30
0.0
 10
180.12973504193781
 20
176.31584926290114
 30
0.0
 10
180.83941868487852
 20
176.66682135179303
 30
0.0
 10
181.07371496265057
 20
176.79561136559477
 30
0.0
 10
181.51537137621995
 20
177.1184635722984
 30
0.0
 10
181.73925025555093
 20
177.3297496346147
 30
0.0
 10
181.80837680194759
 20
177.56921101563711
 30
0.0
  0
LINE
  5
26E
100
AcDbEntity
  8
52720015
  6
CONTINUOUS
 62
         7
100
AcDbLine
 10
189.7112726981
 20
186.9084005217
 30
0.0
 11
189.6038919596
 21
186.9040697245
 31
0.0
  0
LINE
  5
26F
100
AcDbEntity
  8
52720015
  6
CONTINUOUS
 62
         7
100
AcDbLine
 10
217.0374914968
 20
182.7262233232
 30
0.0
 11
213.4755250719
 21
182.7262233232
 31
0.0
  0
LINE
  5
270
100
AcDbEntity
  8
52720015
  6
CONTINUOUS
 62
         7
100
AcDbLine
 10
206.4755250719
 20
182.7262233232
 30
0.0
 11
204.4316686117
 21
182.7262233232
 31
0.0
  0
LINE
  5
271
100
AcDbEntity
  8
52720015
  6
CONTINUOUS
 62
         7
100
AcDbLine
 10
204.4316686117
 20
153.7262233232
 30
0.0
 11
206.4755250719
 21
153.7262233232
 31
0.0
  0
LINE
  5
272
100
AcDbEntity
  8
52720015
  6
CONTINUOUS
 62
         7
100
AcDbLine
 10
213.4755250719
 20
153.7262233232
 30
0.0
 11
217.883095288
 21
153.7262233232
 31
0.0
  0
LINE
  5
273
100
AcDbEntity
  8
52720015
  6
CONTINUOUS
 62
         7
100
AcDbLine
 10
215.4755250719
 20
158.7262233232
 30
0.0
 11
230.6028354687
 21
158.7262233232
 31
0.0
  0
LINE
  5
274
100
AcDbEntity
  8
52720015
  6
CONTINUOUS
 62
         7
100
AcDbLine
 10
223.1550169962
 20
183.2262233232
 30
0.0
 11
219.536377279
 21
183.2262233232
 31
0.0
  0
LINE
  5
275
100
AcDbEntity
  8
52720015
  6
CONTINUOUS
 62
         7
100
AcDbLine
 10
218.8248899773
 20
153.2262233232
 30
0.0
 11
223.1550169962
 21
153.2262233232
 31
0.0
  0
LINE
  5
276
100
AcDbEntity
  8
52720015
  6
CONTINUOUS
 62
         7
100
AcDbLine
 10
190.0880102836
 20
149.5440461246
 30
0.0
 11
204.6141303285
 21
150.1299024018
 31
0.0
  0
ARC
  5
277
100
AcDbEntity
  8
52720015
  6
CONTINUOUS
 62
         7
100
AcDbCircle
 10
186.2757672031
 20
168.2696655909
 30
0.0
 40
29.4485999542
100
AcDbArc
 50
170.3579503723
 51
180.0845221674
  0
LINE
  5
278
100
AcDbEntity
  8
52720015
  6
CONTINUOUS
 62
         7
100
AcDbLine
 10
189.5942790223
 20
149.5487646234
 30
0.0
 11
189.7112726981
 21
149.5440461246
 31
0.0
  0
LINE
  5
279
100
AcDbEntity
  8
52720015
  6
CONTINUOUS
 62
         7
100
AcDbLine
 10
215.4755250719
 20
175.6762233232
 30
0.0
 11
213.4755250719
 21
175.6762233232
 31
0.0
  0
LINE
  5
27A
100
AcDbEntity
  8
52720015
  6
CONTINUOUS
 62
         7
100
AcDbLine
 10
213.4755250719
 20
185.2262233232
 30
0.0
 11
206.4755250719
 21
185.2262233232
 31
0.0
  0
ARC
  5
27B
100
AcDbEntity
  8
52720015
  6
CONTINUOUS
 62
         7
100
AcDbCircle
 10
186.2621024213
 20
168.1829466352
 30
0.0
 40
29.4349349433
100
AcDbArc
 50
179.9157608986
 51
189.7528222887
  0
LINE
  5
27C
100
AcDbEntity
  8
52720015
  6
CONTINUOUS
 62
         7
100
AcDbLine
 10
238.7434742643
 20
182.7262233232
 30
0.0
 11
223.1550169962
 21
182.7262233232
 31
0.0
  0
LINE
  5
27D
100
AcDbEntity
  8
52720015
  6
CONTINUOUS
 62
         7
100
AcDbLine
 10
230.6028354687
 20
177.7262233232
 30
0.0
 11
215.4755250719
 21
177.7262233232
 31
0.0
  0
LINE
  5
27E
100
AcDbEntity
  8
52720015
  6
CONTINUOUS
 62
         7
100
AcDbLine
 10
204.6141303285
 20
186.3225442445
 30
0.0
 11
190.0880102836
 21
186.9084005217
 31
0.0
  0
ARC
  5
27F
100
AcDbEntity
  8
52720015
  6
CONTINUOUS
 62
         7
100
AcDbCircle
 10
170.6699666059
 20
174.1435323568
 30
0.0
 40
12.6511414318
100
AcDbArc
 50
122.5941878148
 51
156.9549833542
  0
LINE
  5
280
100
AcDbEntity
  8
52720015
  6
CONTINUOUS
 62
         7
100
AcDbLine
 10
213.4755250719
 20
160.7762233232
 30
0.0
 11
215.4755250719
 21
160.7762233232
 31
0.0
  0
LINE
  5
281
100
AcDbEntity
  8
52720015
  6
CONTINUOUS
 62
         7
100
AcDbLine
 10
206.4755250719
 20
151.2262233232
 30
0.0
 11
213.4755250719
 21
151.2262233232
 31
0.0
  0
ELLIPSE
  5
282
100
AcDbEntity
  8
52720015
  6
CONTINUOUS
 62
         7
100
AcDbEllipse
 10
204.4316686117
 20
168.2262233232
 30
0.0
 11
-0.0000000000000061
 21
14.500000000001414
 31
0.0
210
0.0
220
0.0
230
1.0
 40
0.5
 41
0.0
 42
3.1415926535897931
  0
ENDBLK
  5
283
100
AcDbEntity
  8
52720015
  6
CONTINUOUS
 62
         7
100
AcDbBlockEnd
  0
ENDSEC
  0
SECTION
  2
ENTITIES
  0
INSERT
  5
3A
102
{ACAD_XDICTIONARY
360
3B
102
}
100
AcDbEntity
  8
0
 62
         0
 48
0.0
100
AcDbBlockReference
  2
SE1
 10
0.0
 20
0.0
 30
0.0
  0
INSERT
  5
3E
100
AcDbEntity
  8
0
 62
         0
 48
0.0
100
AcDbBlockReference
  2
SE0
 10
0.0
 20
0.0
 30
0.0
  0
INSERT
  5
41
102
{ACAD_XDICTIONARY
360
42
102
}
100
AcDbEntity
  8
0
 62
         0
 48
0.0
100
AcDbBlockReference
  2
SE3
 10
0.0
 20
0.0
 30
0.0
  0
INSERT
  5
45
100
AcDbEntity
  8
0
 62
         0
 48
0.0
100
AcDbBlockReference
  2
SE2
 10
0.0
 20
0.0
 30
0.0
  0
INSERT
  5
48
102
{ACAD_XDICTIONARY
360
49
102
}
100
AcDbEntity
  8
0
 62
         0
 48
0.0
100
AcDbBlockReference
  2
SE5
 10
0.0
 20
0.0
 30
0.0
  0
INSERT
  5
4C
100
AcDbEntity
  8
0
 62
         0
 48
0.0
100
AcDbBlockReference
  2
SE4
 10
0.0
 20
0.0
 30
0.0
  0
INSERT
  5
4F
102
{ACAD_XDICTIONARY
360
50
102
}
100
AcDbEntity
  8
0
 62
         0
 48
0.0
100
AcDbBlockReference
  2
SE7
 10
0.0
 20
0.0
 30
0.0
  0
INSERT
  5
53
100
AcDbEntity
  8
0
 62
         0
 48
0.0
100
AcDbBlockReference
  2
SE6
 10
0.0
 20
0.0
 30
0.0
  0
ENDSEC
  0
SECTION
  2
OBJECTS
  0
DICTIONARY
  5
19
100
AcDbDictionary
  3
ACAD_GROUP
350
1A
  3
ACAD_MLINESTYLE
350
1B
  3
ACDBVARIABLEDICTIONARY
350
286
  0
DICTIONARY
  5
1A
102
{ACAD_REACTORS
330
19
102
}
100
AcDbDictionary
  0
DICTIONARY
  5
1B
102
{ACAD_REACTORS
330
19
102
}
100
AcDbDictionary
  3
STANDARD
350
1C
  0
MLINESTYLE
  5
1C
102
{ACAD_REACTORS
330
1B
102
}
100
AcDbMlineStyle
  2
Standard
 70
         0
  3

 62
         0
 51
90.0
 52
90.0
 71
         2
 49
0.5
 62
       256
  6
ByLayer
 49
-0.5
 62
       256
  6
ByLayer
  0
DICTIONARY
  5
22
102
{ACAD_REACTORS
330
19
102
}
100
AcDbDictionary
  0
DICTIONARY
  5
3B
100
AcDbDictionary
  3
ACAD_FILTER
350
3C
  0
DICTIONARY
  5
3C
100
AcDbDictionary
  3
SPATIAL
350
3D
  0
SPATIAL_FILTER
  5
3D
100
AcDbFilter
100
AcDbSpatialFilter
 70
         2
 10
4.0521625295
 20
2.5135977857
 10
116.4551982512
 20
114.2194407263
210
0.0
220
0.0
230
1.0
 11
0.0
 21
0.0
 31
0.0
 71
         1
 72
         0
 73
         0
 40
1.0
 40
0.0
 40
0.0
 40
0.0
 40
0.0
 40
1.0
 40
0.0
 40
0.0
 40
0.0
 40
0.0
 40
1.0
 40
0.0
 40
1.0
 40
0.0
 40
0.0
 40
0.0
 40
0.0
 40
1.0
 40
0.0
 40
0.0
 40
0.0
 40
0.0
 40
1.0
 40
0.0
  0
DICTIONARY
  5
42
100
AcDbDictionary
  3
ACAD_FILTER
350
43
  0
DICTIONARY
  5
43
100
AcDbDictionary
  3
SPATIAL
350
44
  0
SPATIAL_FILTER
  5
44
100
AcDbFilter
100
AcDbSpatialFilter
 70
         2
 10
4.0521625295
 20
143.1902479383
 10
116.4543165625
 20
193.2621987081
210
0.0
220
0.0
230
1.0
 11
0.0
 21
0.0
 31
0.0
 71
         1
 72
         0
 73
         0
 40
1.0
 40
0.0
 40
0.0
 40
0.0
 40
0.0
 40
1.0
 40
0.0
 40
0.0
 40
0.0
 40
0.0
 40
1.0
 40
0.0
 40
1.0
 40
0.0
 40
0.0
 40
0.0
 40
0.0
 40
1.0
 40
0.0
 40
0.0
 40
0.0
 40
0.0
 40
1.0
 40
0.0
  0
DICTIONARY
  5
49
100
AcDbDictionary
  3
ACAD_FILTER
350
4A
  0
DICTIONARY
  5
4A
100
AcDbDictionary
  3
SPATIAL
350
4B
  0
SPATIAL_FILTER
  5
4B
100
AcDbFilter
100
AcDbSpatialFilter
 70
         2
 10
143.4476435995
 20
2.5135977857
 10
255.8506793211
 20
114.2194407263
210
0.0
220
0.0
230
1.0
 11
0.0
 21
0.0
 31
0.0
 71
         1
 72
         0
 73
         0
 40
1.0
 40
0.0
 40
0.0
 40
0.0
 40
0.0
 40
1.0
 40
0.0
 40
0.0
 40
0.0
 40
0.0
 40
1.0
 40
0.0
 40
1.0
 40
0.0
 40
0.0
 40
0.0
 40
0.0
 40
1.0
 40
0.0
 40
0.0
 40
0.0
 40
0.0
 40
1.0
 40
0.0
  0
DICTIONARY
  5
50
100
AcDbDictionary
  3
ACAD_FILTER
350
51
  0
DICTIONARY
  5
51
100
AcDbDictionary
  3
SPATIAL
350
52
  0
SPATIAL_FILTER
  5
52
100
AcDbFilter
100
AcDbSpatialFilter
 70
         2
 10
150.4771672489
 20
143.1902479383
 10
262.1830422323
 20
193.2621987081
210
0.0
220
0.0
230
1.0
 11
0.0
 21
0.0
 31
0.0
 71
         1
 72
         0
 73
         0
 40
1.0
 40
0.0
 40
0.0
 40
0.0
 40
0.0
 40
1.0
 40
0.0
 40
0.0
 40
0.0
 40
0.0
 40
1.0
 40
0.0
 40
1.0
 40
0.0
 40
0.0
 40
0.0
 40
0.0
 40
1.0
 40
0.0
 40
0.0
 40
0.0
 40
0.0
 40
1.0
 40
0.0
  0
DICTIONARY
  5
286
100
AcDbDictionary
  3
DIMASSOC
350
287
  0
DICTIONARYVAR
  5
287
100
DictionaryVariables
280
         0
  1
2
  0
ENDSEC
  0
EOF
