  0
SECTION
  2
HEADER
  9
$ACADVER
  1
AC1014
  9
$ACADMAINTVER
 70
         0
  9
$DWGCODEPAGE
  3
ANSI_1252
  9
$INSBASE
 10
0.0
 20
0.0
 30
0.0
  9
$EXTMIN
 10
0.0
 20
0.0
 30
0.0
  9
$EXTMAX
 10
420.0
 20
297.0
 30
0.0
  9
$LIMMIN
 10
0.0
 20
0.0
  9
$LIMMAX
 10
420.0
 20
297.0
  9
$ORTHOMODE
 70
         0
  9
$REGENMODE
 70
         1
  9
$FILLMODE
 70
         1
  9
$QTEXTMODE
 70
         0
  9
$MIRRTEXT
 70
         1
  9
$DRAGMODE
 70
         2
  9
$LTSCALE
 40
25.4
  9
$OSMODE
 70
         0
  9
$ATTMODE
 70
         1
  9
$TEXTSIZE
 40
0.2
  9
$TRACEWID
 40
0.05
  9
$TEXTSTYLE
  7
Standard
  9
$CLAYER
  8
0
  9
$CELTYPE
  6
CONTINUOUS
  9
$CECOLOR
 62
       256
  9
$CELTSCALE
 40
1.0
  9
$DELOBJ
 70
         1
  9
$DISPSILH
 70
         0
  9
$DIMSCALE
 40
1.0
  9
$DIMASZ
 40
0.18
  9
$DIMEXO
 40
0.0625
  9
$DIMDLI
 40
0.38
  9
$DIMRND
 40
0.0
  9
$DIMDLE
 40
0.0
  9
$DIMEXE
 40
0.18
  9
$DIMTP
 40
0.0
  9
$DIMTM
 40
0.0
  9
$DIMTXT
 40
0.18
  9
$DIMCEN
 40
0.09
  9
$DIMTSZ
 40
0.0
  9
$DIMTOL
 70
         0
  9
$DIMLIM
 70
         0
  9
$DIMTIH
 70
         1
  9
$DIMTOH
 70
         1
  9
$DIMSE1
 70
         0
  9
$DIMSE2
 70
         0
  9
$DIMTAD
 70
         0
  9
$DIMZIN
 70
         0
  9
$DIMBLK
  1

  9
$DIMASO
 70
         1
  9
$DIMSHO
 70
         1
  9
$DIMPOST
  1

  9
$DIMAPOST
  1

  9
$DIMALT
 70
         0
  9
$DIMALTD
 70
         2
  9
$DIMALTF
 40
25.4
  9
$DIMLFAC
 40
1.0
  9
$DIMTOFL
 70
         0
  9
$DIMTVP
 40
0.0
  9
$DIMTIX
 70
         0
  9
$DIMSOXD
 70
         0
  9
$DIMSAH
 70
         0
  9
$DIMBLK1
  1

  9
$DIMBLK2
  1

  9
$DIMSTYLE
  2
Standard
  9
$DIMCLRD
 70
         0
  9
$DIMCLRE
 70
         0
  9
$DIMCLRT
 70
         0
  9
$DIMTFAC
 40
1.0
  9
$DIMGAP
 40
0.09
  9
$DIMJUST
 70
         0
  9
$DIMSD1
 70
         0
  9
$DIMSD2
 70
         0
  9
$DIMTOLJ
 70
         1
  9
$DIMTZIN
 70
         0
  9
$DIMALTZ
 70
         0
  9
$DIMALTTZ
 70
         0
  9
$DIMFIT
 70
         3
  9
$DIMUPT
 70
         0
  9
$DIMUNIT
 70
         2
  9
$DIMDEC
 70
         4
  9
$DIMTDEC
 70
         4
  9
$DIMALTU
 70
         2
  9
$DIMALTTD
 70
         2
  9
$DIMTXSTY
  7
Standard
  9
$DIMAUNIT
 70
         0
  9
$LUNITS
 70
         2
  9
$LUPREC
 70
         4
  9
$SKETCHINC
 40
0.1
  9
$FILLETRAD
 40
0.0
  9
$AUNITS
 70
         0
  9
$AUPREC
 70
         0
  9
$MENU
  1
acad
  9
$ELEVATION
 40
0.0
  9
$PELEVATION
 40
0.0
  9
$THICKNESS
 40
0.0
  9
$LIMCHECK
 70
         0
  9
$BLIPMODE
 70
         1
  9
$CHAMFERA
 40
0.0
  9
$CHAMFERB
 40
0.0
  9
$CHAMFERC
 40
0.0
  9
$CHAMFERD
 40
0.0
  9
$SKPOLY
 70
         0
  9
$TDCREATE
 40
0.000000000
  9
$TDUPDATE
 40
0.000000000
  9
$TDINDWG
 40
0.0000000000
  9
$TDUSRTIMER
 40
0.0000000000
  9
$USRTIMER
 70
         1
  9
$ANGBASE
 50
0.0
  9
$ANGDIR
 70
         0
  9
$PDMODE
 70
         0
  9
$PDSIZE
 40
0.0
  9
$PLINEWID
 40
0.0
  9
$COORDS
 70
         0
  9
$SPLFRAME
 70
         0
  9
$SPLINETYPE
 70
         6
  9
$SPLINESEGS
 70
         8
  9
$ATTDIA
 70
         0
  9
$ATTREQ
 70
         1
  9
$HANDLING
 70
         1
  9
$HANDSEED
  5
24A
  9
$SURFTAB1
 70
         6
  9
$SURFTAB2
 70
         6
  9
$SURFTYPE
 70
         6
  9
$SURFU
 70
         6
  9
$SURFV
 70
         6
  9
$UCSNAME
  2

  9
$UCSORG
 10
0.0
 20
0.0
 30
0.0
  9
$UCSXDIR
 10
1.0
 20
0.0
 30
0.0
  9
$UCSYDIR
 10
0.0
 20
1.0
 30
0.0
  9
$PUCSNAME
  2

  9
$PUCSORG
 10
0.0
 20
0.0
 30
0.0
  9
$PUCSXDIR
 10
1.0
 20
0.0
 30
0.0
  9
$PUCSYDIR
 10
0.0
 20
1.0
 30
0.0
  9
$USERI1
 70
         0
  9
$USERI2
 70
         0
  9
$USERI3
 70
         0
  9
$USERI4
 70
         0
  9
$USERI5
 70
         0
  9
$USERR1
 40
0.0
  9
$USERR2
 40
0.0
  9
$USERR3
 40
0.0
  9
$USERR4
 40
0.0
  9
$USERR5
 40
0.0
  9
$WORLDVIEW
 70
         1
  9
$SHADEDGE
 70
         3
  9
$SHADEDIF
 70
        70
  9
$TILEMODE
 70
         1
  9
$MAXACTVP
 70
        16
  9
$PINSBASE
 10
0.0
 20
0.0
 30
0.0
  9
$PLIMCHECK
 70
         0
  9
$PEXTMIN
 10
1.0000000000E+20
 20
1.0000000000E+20
 30
1.0000000000E+20
  9
$PEXTMAX
 10
-1.0000000000E+20
 20
-1.0000000000E+20
 30
-1.0000000000E+20
  9
$PLIMMIN
 10
0.0
 20
0.0
  9
$PLIMMAX
 10
12.0
 20
9.0
  9
$UNITMODE
 70
         0
  9
$VISRETAIN
 70
         0
  9
$PLINEGEN
 70
         1
  9
$PSLTSCALE
 70
         0
  9
$TREEDEPTH
 70
      3020
  9
$PICKSTYLE
 70
         1
  9
$CMLSTYLE
  2
Standard
  9
$CMLJUST
 70
         0
  9
$CMLSCALE
 40
1.0
  9
$PROXYGRAPHICS
 70
         0
  9
$MEASUREMENT
 70
         0
  0
ENDSEC
  0
SECTION
  2
CLASSES
  0
CLASS
  1
LWPOLYLINE
  2
AcDbPolyline
  3
"AutoCAD"
 90
        0
280
         0
281
         1
  0
CLASS
  1
IMAGE
  2
AcDbRasterImage
  3
ISM
 90
      127
280
         0
281
         1
  0
CLASS
  1
OLE2FRAME
  2
AcDbOle2Frame
  3
""
 90
        0
280
         0
281
         1
  0
CLASS
  1
HATCH
  2
AcDbHatch
  3
"ACAD_SEDONA"
 90
        0
280
         0
281
         1
  0
CLASS
  1
DICTIONARYVAR
  2
AcDbDictionaryVar
  3
"AutoCAD"
 90
        0
280
         0
281
         0
  0
CLASS
  1
RASTERVARIABLES
  2
AcDbRasterVariables
  3
ISM
 90
        0
280
         0
281
         0
  0
CLASS
  1
IMAGEDEF
  2
AcDbRasterImageDef
  3
ISM
 90
        0
280
         0
281
         0
  0
CLASS
  1
IMAGEDEF_REACTOR
  2
AcDbRasterImageDefReactor
  3
ISM
 90
        1
280
         0
281
         0
  0
CLASS
  1
IDBUFFER
  2
AcDbIdBuffer
  3
"Acad"
 90
        0
280
         0
281
         0
  0
CLASS
  1
SPATIAL_FILTER
  2
AcDbSpatialFilter
  3
"Acad"
 90
        0
280
         0
281
         0
  0
CLASS
  1
XRECORD
  2
AcDbXrecord
  3
"<Built In>"
 90
        0
280
         0
281
         0
  0
CLASS
  1
SORTENTSTABLE
  2
AcDbSortentsTable
  3
"AutoCAD"
 90
        0
280
         0
281
         0
  0
CLASS
  1
LAYER_INDEX
  2
AcDbLayerIndex
  3
"Acad"
 90
        0
280
         0
281
         0
  0
CLASS
  1
SPATIAL_INDEX
  2
AcDbSpatialIndex
  3
"Acad"
 90
        0
280
         0
281
         0
  0
CLASS
  1
OBJECT_PTR
  2
CAseDLPNTableRecord
  3
"ASE-LPNTableRecord"
 90
        1
280
         0
281
         0
  0
CLASS
  1
LAYOUT
  2
AcDbLayout
  3
"AutoCAD 2000"
 90
        1
280
         0
281
         0
  0
CLASS
  1
PLOTSETTINGS
  2
AcDbPlotSettings
  3
"AutoCAD 2000"
 90
        1
280
         0
281
         0
  0
CLASS
  1
ACDBDICTIONARYWDFLT
  2
AcDbDictionaryWithDefault
  3
"AutoCAD 2000"
 90
        1
280
         0
281
         0
  0
CLASS
  1
ACDBPLACEHOLDER
  2
AcDbPlaceHolder
  3
"AutoCAD 2000"
 90
        1
280
         0
281
         0
  0
CLASS
  1
VBA_PROJECT
  2
AcDbVbaProject
  3
"acadvba"
 90
        1
280
         0
281
         0
  0
CLASS
  1
WIPEOUT
  2
AcDbWipeout
  3
WipeOut|AutoCAD Express Tool|expresstools@autodesk.com
 90
      127
280
         0
281
         1
  0
CLASS
  1
WIPEOUTVARIABLES
  2
AcDbWipeoutVariables
  3
WipeOut|AutoCAD Express Tool|expresstools@autodesk.com
 90
        0
280
         0
281
         0
  0
CLASS
  1
RTEXT
  2
RText
  3
RText|AutoCAD Express Tool|expresstools@autodesk.com
 90
        0
280
         0
281
         1
  0
CLASS
  1
ARCALIGNEDTEXT
  2
AcDbArcAlignedText
  3
ATEXT|AutoCAD Express Tool|expresstools@autodesk.com
 90
        0
280
         0
281
         1
  0
ENDSEC
  0
SECTION
  2
TABLES
  0
TABLE
  2
VPORT
  5
7
100
AcDbSymbolTable
 70
         1
  0
VPORT
  5
15
100
AcDbSymbolTableRecord
100
AcDbViewportTableRecord
  2
*ACTIVE
 70
         0
 10
0.0
 20
0.0
 11
1.0
 21
1.0
 12
210.0
 22
148.5
 13
0.0
 23
0.0
 14
1.0
 24
1.0
 15
0.0
 25
0.0
 16
0.0
 26
0.0
 36
1.0
 17
0.0
 27
0.0
 37
0.0
 40
297.0
 41
1.604229
 42
50.0
 43
0.0
 44
0.0
 50
0.0
 51
0.0
 71
         0
 72
       100
 73
         1
 74
         1
 75
         0
 76
         0
 77
         0
 78
         0
  0
ENDTAB
  0
TABLE
  2
LTYPE
  5
4
100
AcDbSymbolTable
 70
         7
  0
LTYPE
  5
11
100
AcDbSymbolTableRecord
100
AcDbLinetypeTableRecord
  2
ByBlock
 70
        64
  3

 72
        65
 73
         0
 40
0.0
  0
LTYPE
  5
12
100
AcDbSymbolTableRecord
100
AcDbLinetypeTableRecord
  2
ByLayer
 70
        64
  3

 72
        65
 73
         0
 40
0.0
  0
LTYPE
  5
13
100
AcDbSymbolTableRecord
100
AcDbLinetypeTableRecord
  2
CONTINUOUS
 70
         0
  3
Solid line
 72
        65
 73
         0
 40
0.0
  0
LTYPE
  5
28
100
AcDbSymbolTableRecord
100
AcDbLinetypeTableRecord
  2
HIDDEN2
 70
        64
  3
_ _ _ _ _ _ _ _ _ _ _ _ _ _ _ _ _ _ _ _ _ _ _ _
 72
        65
 73
         2
 40
0.1875
 49
0.125
 74
         0
 49
-0.0625
 74
         0
  0
LTYPE
  5
29
100
AcDbSymbolTableRecord
100
AcDbLinetypeTableRecord
  2
CENTER2
 70
        64
  3
___ _ ___ _ ___ _ ___ _ ___ _ ___ _ ___ _ ___ _
 72
        65
 73
         4
 40
1.125
 49
0.75
 74
         0
 49
-0.125
 74
         0
 49
0.125
 74
         0
 49
-0.125
 74
         0
  0
LTYPE
  5
2A
100
AcDbSymbolTableRecord
100
AcDbLinetypeTableRecord
  2
PHANTOM2
 70
        64
  3
___ _ _ ___ _ _ ___ _ _ ___ _ _ ___ _ _ ___ _ _
 72
        65
 73
         6
 40
1.25
 49
0.625
 74
         0
 49
-0.125
 74
         0
 49
0.125
 74
         0
 49
-0.125
 74
         0
 49
0.125
 74
         0
 49
-0.125
 74
         0
  0
LTYPE
  5
2B
100
AcDbSymbolTableRecord
100
AcDbLinetypeTableRecord
  2
DOT2
 70
        64
  3
...............................................
 72
        65
 73
         2
 40
0.125
 49
0.0
 74
         0
 49
-0.125
 74
         0
  0
ENDTAB
  0
TABLE
  2
LAYER
  5
2
100
AcDbSymbolTable
 70
         3
  0
LAYER
  5
14
100
AcDbSymbolTableRecord
100
AcDbLayerTableRecord
  2
0
 70
         0
 62
         7
  6
CONTINUOUS
  0
LAYER
  5
2D
100
AcDbSymbolTableRecord
100
AcDbLayerTableRecord
  2
DEFAULT
 70
         0
 62
         7
  6
CONTINUOUS
  0
LAYER
  5
37
100
AcDbSymbolTableRecord
100
AcDbLayerTableRecord
  2
TA900_ISI_GW_B_D
 70
         0
 62
         7
  6
CONTINUOUS
  0
ENDTAB
  0
TABLE
  2
STYLE
  5
3
100
AcDbSymbolTable
 70
         1
  0
STYLE
  5
17
100
AcDbSymbolTableRecord
100
AcDbTextStyleTableRecord
  2
Standard
 70
         0
 40
0.0
 41
1.0
 50
0.0
 71
         0
 42
0.2
  3
txt
  4

  0
ENDTAB
  0
TABLE
  2
VIEW
  5
5
100
AcDbSymbolTable
 70
         0
  0
ENDTAB
  0
TABLE
  2
UCS
  5
6
100
AcDbSymbolTable
 70
         0
  0
ENDTAB
  0
TABLE
  2
APPID
  5
8
100
AcDbSymbolTable
 70
         1
  0
APPID
  5
16
100
AcDbSymbolTableRecord
100
AcDbRegAppTableRecord
  2
ACAD
 70
         0
  0
ENDTAB
  0
TABLE
  2
DIMSTYLE
  5
9
100
AcDbSymbolTable
 70
         1
  0
DIMSTYLE
105
18
100
AcDbSymbolTableRecord
100
AcDbDimStyleTableRecord
  2
Standard
 70
         0
  3

  4

  5

  6

  7

 40
1.0
 41
0.18
 42
0.0625
 43
0.38
 44
0.18
 45
0.0
 46
0.0
 47
0.0
 48
0.0
 71
         0
 72
         0
 73
         1
 74
         1
 75
         0
 76
         0
 77
         0
 78
         0
140
0.18
141
0.09
142
0.0
143
25.4
144
1.0
145
0.0
146
1.0
147
0.09
170
         0
171
         2
172
         0
173
         0
174
         0
175
         0
176
         0
177
         0
178
         0
270
         2
271
         4
272
         4
273
         2
274
         2
275
         0
280
         0
281
         0
282
         0
283
         1
284
         0
285
         0
286
         0
287
         0
288
         0
340
17
  0
ENDTAB
  0
TABLE
  2
BLOCK_RECORD
  5
1
100
AcDbSymbolTable
 70
         8
  0
BLOCK_RECORD
  5
A
100
AcDbSymbolTableRecord
100
AcDbBlockTableRecord
  2
*MODEL_SPACE
  0
BLOCK_RECORD
  5
B
100
AcDbSymbolTableRecord
100
AcDbBlockTableRecord
  2
*PAPER_SPACE
  0
BLOCK_RECORD
  5
38
100
AcDbSymbolTableRecord
100
AcDbBlockTableRecord
  2
SE0
  0
BLOCK_RECORD
  5
39
100
AcDbSymbolTableRecord
100
AcDbBlockTableRecord
  2
SE1
  0
BLOCK_RECORD
  5
3F
100
AcDbSymbolTableRecord
100
AcDbBlockTableRecord
  2
SE2
  0
BLOCK_RECORD
  5
40
100
AcDbSymbolTableRecord
100
AcDbBlockTableRecord
  2
SE3
  0
BLOCK_RECORD
  5
46
100
AcDbSymbolTableRecord
100
AcDbBlockTableRecord
  2
SE4
  0
BLOCK_RECORD
  5
47
100
AcDbSymbolTableRecord
100
AcDbBlockTableRecord
  2
SE5
  0
BLOCK_RECORD
  5
4D
100
AcDbSymbolTableRecord
100
AcDbBlockTableRecord
  2
SE6
  0
BLOCK_RECORD
  5
4E
100
AcDbSymbolTableRecord
100
AcDbBlockTableRecord
  2
SE7
  0
ENDTAB
  0
ENDSEC
  0
SECTION
  2
BLOCKS
  0
BLOCK
  5
D
100
AcDbEntity
  8
0
100
AcDbBlockBegin
  2
*MODEL_SPACE
 70
         0
 10
0.0
 20
0.0
 30
0.0
  3
*MODEL_SPACE
  1

  0
ENDBLK
  5
E
100
AcDbEntity
  8
0
100
AcDbBlockEnd
  0
BLOCK
  5
F
100
AcDbEntity
 67
         1
  8
0
100
AcDbBlockBegin
  2
*PAPER_SPACE
 70
         0
 10
0.0
 20
0.0
 30
0.0
  3
*PAPER_SPACE
  1

  0
ENDBLK
  5
10
100
AcDbEntity
 67
         1
  8
0
100
AcDbBlockEnd
  0
BLOCK
  5
F5
100
AcDbEntity
  8
0
 62
         1
 48
0.0
100
AcDbBlockBegin
  2
SE0
 70
         0
 10
0.0
 20
0.0
 30
0.0
  3
SE0
  1

  0
ENDBLK
  5
F6
100
AcDbEntity
  8
0
 62
         1
 48
0.0
100
AcDbBlockEnd
  0
BLOCK
  5
54
100
AcDbEntity
  8
0
 62
         1
 48
0.0
100
AcDbBlockBegin
  2
SE1
 70
         0
 10
0.0
 20
0.0
 30
0.0
  3
SE1
  1

  0
SPLINE
  5
55
100
AcDbEntity
  8
TA900_ISI_GW_B_D
  6
CONTINUOUS
 62
         7
100
AcDbSpline
210
0.0
220
0.0
230
1.0
 70
         8
 71
         3
 72
        22
 73
        18
 74
         0
 42
0.0
 43
0.0
 40
0.0
 40
0.0
 40
0.0
 40
0.0
 40
0.1250000000000001
 40
0.1250000000000001
 40
0.2500000000000002
 40
0.2500000000000002
 40
0.3750000000000003
 40
0.3750000000000003
 40
0.5000000000000004
 40
0.5000000000000004
 40
0.6250000000000003
 40
0.6250000000000003
 40
0.7500000000000002
 40
0.7500000000000002
 40
0.8750000000000001
 40
0.8750000000000001
 40
1.0
 40
1.0
 40
1.0
 40
1.0
 10
29.72217290282742
 20
163.07869355934073
 30
0.0
 10
30.913150594138919
 20
162.72829783625497
 30
0.0
 10
32.160124746645117
 20
162.39197957730923
 30
0.0
 10
34.767487693490338
 20
161.75372237283466
 30
0.0
 10
36.09625556775115
 20
161.46033236718904
 30
0.0
 10
38.709524857854042
 20
160.96099109364229
 30
0.0
 10
40.000553639300691
 20
160.75492678056202
 30
0.0
 10
42.381035920453854
 20
160.47540367724349
 30
0.0
 10
43.497620751380076
 20
160.3998147421938
 30
0.0
 10
45.401308016618565
 20
160.39859623957449
 30
0.0
 10
46.215029831025547
 20
160.47296945442929
 30
0.0
 10
47.44020841015255
 20
160.75075901118726
 30
0.0
 10
47.868900600845294
 20
160.95710741002014
 30
0.0
 10
48.30827781744933
 20
161.45459978105046
 30
0.0
 10
48.325441649632872
 20
161.75177646149936
 30
0.0
 10
47.965747893613518
 20
162.38536736505171
 30
0.0
 10
47.588310732484089
 20
162.72822611973226
 30
0.0
 10
47.026302243812118
 20
163.07869355934073
 30
0.0
  0
LINE
  5
56
100
AcDbEntity
  8
TA900_ISI_GW_B_D
  6
CONTINUOUS
 62
         7
100
AcDbLine
 10
22.8190607568
 20
163.0786935593
 30
0.0
 11
22.8190607568
 21
182.6963835598
 31
0.0
  0
ARC
  5
57
100
AcDbEntity
  8
TA900_ISI_GW_B_D
  6
CONTINUOUS
 62
         7
100
AcDbCircle
 10
-19.8070195012
 20
10.9604462612
 30
0.0
 40
157.9776689258
100
AcDbArc
 50
71.0758253153
 51
74.3462384006
  0
LINE
  5
58
100
AcDbEntity
  8
TA900_ISI_GW_B_D
  6
CONTINUOUS
 62
         7
100
AcDbLine
 10
129.0364520611
 20
182.6963835598
 30
0.0
 11
129.0364520611
 21
163.0786935593
 31
0.0
  0
LINE
  5
59
100
AcDbEntity
  8
TA900_ISI_GW_B_D
  6
CONTINUOUS
 62
         7
100
AcDbLine
 10
122.1333399151
 20
163.0786935593
 30
0.0
 11
122.1333399151
 21
182.6963835598
 31
0.0
  0
LINE
  5
5A
100
AcDbEntity
  8
TA900_ISI_GW_B_D
  6
CONTINUOUS
 62
         7
100
AcDbLine
 10
104.8292105741
 20
182.6963835598
 30
0.0
 11
104.8292105741
 21
163.0786935593
 31
0.0
  0
ARC
  5
5B
100
AcDbEntity
  8
TA900_ISI_GW_B_D
  6
CONTINUOUS
 62
         7
100
AcDbCircle
 10
171.6625323191
 20
10.960446261
 30
0.0
 40
157.9776689259
100
AcDbArc
 50
105.6537615994
 51
108.9241746847
  0
LINE
  5
5C
100
AcDbEntity
  8
TA900_ISI_GW_B_D
  6
CONTINUOUS
 62
         7
100
AcDbLine
 10
52.9277564089
 20
155.2652270388
 30
0.0
 11
98.9277564089
 21
155.2652270388
 31
0.0
  0
LINE
  5
5D
100
AcDbEntity
  8
TA900_ISI_GW_B_D
  6
CONTINUOUS
 62
         7
100
AcDbLine
 10
129.0364520611
 20
163.0786935593
 30
0.0
 11
122.1333399151
 21
163.0786935593
 31
0.0
  0
LINE
  5
5E
100
AcDbEntity
  8
TA900_ISI_GW_B_D
  6
CONTINUOUS
 62
         7
100
AcDbLine
 10
63.6918892094
 20
163.0786935593
 30
0.0
 11
47.0263022438
 21
163.0786935593
 31
0.0
  0
LINE
  5
5F
100
AcDbEntity
  8
TA900_ISI_GW_B_D
  6
CONTINUOUS
 62
         7
100
AcDbLine
 10
31.9277564089
 20
160.2652270388
 30
0.0
 11
119.9277564089
 21
160.2652270388
 31
0.0
  0
LINE
  5
60
100
AcDbEntity
  8
TA900_ISI_GW_B_D
  6
CONTINUOUS
 62
         7
100
AcDbLine
 10
29.7221729028
 20
163.0786935593
 30
0.0
 11
22.8190607568
 21
163.0786935593
 31
0.0
  0
LINE
  5
61
100
AcDbEntity
  8
TA900_ISI_GW_B_D
  6
CONTINUOUS
 62
         7
100
AcDbLine
 10
29.7221729028
 20
182.6963835598
 30
0.0
 11
29.7221729028
 21
163.0786935593
 31
0.0
  0
ARC
  5
62
100
AcDbEntity
  8
TA900_ISI_GW_B_D
  6
CONTINUOUS
 62
         7
100
AcDbCircle
 10
27.9072152221
 20
75.6543912161
 30
0.0
 40
9.1641517939
100
AcDbArc
 50
80.6461341344
 51
99.3538658656
  0
LINE
  5
63
100
AcDbEntity
  8
TA900_ISI_GW_B_D
  6
CONTINUOUS
 62
         7
100
AcDbLine
 10
113.027756409
 20
105.7652270388
 30
0.0
 11
113.027756409
 21
97.7652270388
 31
0.0
  0
LINE
  5
64
100
AcDbEntity
  8
TA900_ISI_GW_B_D
  6
CONTINUOUS
 62
         7
100
AcDbLine
 10
26.827756409
 20
105.7652270388
 30
0.0
 11
26.827756409
 21
97.7652270388
 31
0.0
  0
LINE
  5
65
100
AcDbEntity
  8
TA900_ISI_GW_B_D
  6
CONTINUOUS
 62
         7
100
AcDbLine
 10
69.9277564089
 20
117.2652270388
 30
0.0
 11
69.9277564089
 21
116.2652270388
 31
0.0
  0
LINE
  5
66
100
AcDbEntity
  8
TA900_ISI_GW_B_D
  6
CONTINUOUS
 62
         7
100
AcDbLine
 10
53.9277564089
 20
116.2652270388
 30
0.0
 11
53.9277564089
 21
103.7652270388
 31
0.0
  0
LINE
  5
67
100
AcDbEntity
  8
TA900_ISI_GW_B_D
  6
CONTINUOUS
 62
         7
100
AcDbLine
 10
18.1819897387
 20
84.6010734804
 30
0.0
 11
17.3515290549
 21
86.8827454568
 31
0.0
  0
LINE
  5
68
100
AcDbEntity
  8
TA900_ISI_GW_B_D
  6
CONTINUOUS
 62
         7
100
AcDbLine
 10
132.6777564089
 20
16.6652270388
 30
0.0
 11
134.503983763
 21
11.6477086208
 31
0.0
  0
LINE
  5
69
100
AcDbEntity
  8
TA900_ISI_GW_B_D
  6
CONTINUOUS
 62
         7
100
AcDbLine
 10
146.4277564089
 20
83.2652270388
 30
0.0
 11
145.1110873829
 21
86.8827454568
 31
0.0
  0
LINE
  5
6A
100
AcDbEntity
  8
TA900_ISI_GW_B_D
  6
CONTINUOUS
 62
         7
100
AcDbLine
 10
5.4277564089
 20
15.2652270388
 30
0.0
 11
6.744425435
 21
11.6477086208
 31
0.0
  0
LINE
  5
6B
100
AcDbEntity
  8
TA900_ISI_GW_B_D
  6
CONTINUOUS
 62
         7
100
AcDbLine
 10
125.027756409
 20
97.7652270388
 30
0.0
 11
125.027756409
 21
105.7652270388
 31
0.0
  0
LINE
  5
6C
100
AcDbEntity
  8
TA900_ISI_GW_B_D
  6
CONTINUOUS
 62
         7
100
AcDbLine
 10
38.827756409
 20
97.7652270388
 30
0.0
 11
38.827756409
 21
105.7652270388
 31
0.0
  0
LINE
  5
6D
100
AcDbEntity
  8
TA900_ISI_GW_B_D
  6
CONTINUOUS
 62
         7
100
AcDbLine
 10
81.9277564089
 20
116.2652270388
 30
0.0
 11
81.9277564089
 21
117.2652270388
 31
0.0
  0
LINE
  5
6E
100
AcDbEntity
  8
TA900_ISI_GW_B_D
  6
CONTINUOUS
 62
         7
100
AcDbLine
 10
97.9277564089
 20
103.7652270388
 30
0.0
 11
97.9277564089
 21
116.2652270388
 31
0.0
  0
LINE
  5
6F
100
AcDbEntity
  8
TA900_ISI_GW_B_D
  6
CONTINUOUS
 62
         7
100
AcDbLine
 10
133.6777564089
 20
91.7652270388
 30
0.0
 11
133.6777564089
 21
97.7652270388
 31
0.0
  0
LINE
  5
70
100
AcDbEntity
  8
TA900_ISI_GW_B_D
  6
CONTINUOUS
 62
         7
100
AcDbLine
 10
18.4277564089
 20
91.7652270388
 30
0.0
 11
18.1777564089
 21
91.5152270388
 31
0.0
  0
LINE
  5
71
100
AcDbEntity
  8
TA900_ISI_GW_B_D
  6
CONTINUOUS
 62
         7
100
AcDbLine
 10
18.1777564089
 20
97.7652270388
 30
0.0
 11
18.1777564089
 21
91.7652270388
 31
0.0
  0
LINE
  5
72
100
AcDbEntity
  8
TA900_ISI_GW_B_D
  6
CONTINUOUS
 62
         7
100
AcDbLine
 10
133.6777564089
 20
91.5152270388
 30
0.0
 11
133.4277564089
 21
91.7652270388
 31
0.0
  0
LINE
  5
73
100
AcDbEntity
  8
TA900_ISI_GW_B_D
  6
CONTINUOUS
 62
         7
100
AcDbLine
 10
17.3515290549
 20
11.6477086208
 30
0.0
 11
19.1777564089
 21
16.6652270388
 31
0.0
  0
LINE
  5
74
100
AcDbEntity
  8
TA900_ISI_GW_B_D
  6
CONTINUOUS
 62
         7
100
AcDbLine
 10
18.1777564089
 20
91.5152270388
 30
0.0
 11
18.1777564089
 21
84.600223219
 31
0.0
  0
LINE
  5
75
100
AcDbEntity
  8
TA900_ISI_GW_B_D
  6
CONTINUOUS
 62
         7
100
AcDbLine
 10
52.9277564089
 20
155.2652270388
 30
0.0
 11
52.9277564089
 21
117.2652270388
 31
0.0
  0
LINE
  5
76
100
AcDbEntity
  8
TA900_ISI_GW_B_D
  6
CONTINUOUS
 62
         7
100
AcDbLine
 10
98.9277564089
 20
155.2652270388
 30
0.0
 11
107.5880104468
 21
160.2652270388
 31
0.0
  0
LINE
  5
77
100
AcDbEntity
  8
TA900_ISI_GW_B_D
  6
CONTINUOUS
 62
         7
100
AcDbLine
 10
119.9277564089
 20
160.2652270388
 30
0.0
 11
120.4530262431
 21
160.4059726667
 31
0.0
  0
LINE
  5
78
100
AcDbEntity
  8
TA900_ISI_GW_B_D
  6
CONTINUOUS
 62
         7
100
AcDbLine
 10
38.1695784868
 20
6.1652270388
 30
0.0
 11
113.6859343311
 21
6.1652270388
 31
0.0
  0
LINE
  5
79
100
AcDbEntity
  8
TA900_ISI_GW_B_D
  6
CONTINUOUS
 62
         7
100
AcDbLine
 10
133.6777564089
 20
84.600223219
 30
0.0
 11
133.6777564089
 21
91.5152270388
 31
0.0
  0
ARC
  5
7A
100
AcDbEntity
  8
TA900_ISI_GW_B_D
  6
CONTINUOUS
 62
         7
100
AcDbCircle
 10
75.9277564089
 20
49.2652270388
 30
0.0
 40
57.3
100
AcDbArc
 50
214.6760231979
 51
228.7797012246
  0
ARC
  5
7B
100
AcDbEntity
  8
TA900_ISI_GW_B_D
  6
CONTINUOUS
 62
         7
100
AcDbCircle
 10
75.9277564089
 20
49.2652270388
 30
0.0
 40
57.3
100
AcDbArc
 50
311.2202987754
 51
325.3239768021
  0
LINE
  5
7C
100
AcDbEntity
  8
TA900_ISI_GW_B_D
  6
CONTINUOUS
 62
         7
100
AcDbLine
 10
123.0502563426
 20
16.6652270388
 30
0.0
 11
132.6777564089
 21
16.6652270388
 31
0.0
  0
LINE
  5
7D
100
AcDbEntity
  8
TA900_ISI_GW_B_D
  6
CONTINUOUS
 62
         7
100
AcDbLine
 10
19.1777564089
 20
16.6652270388
 30
0.0
 11
28.8052564753
 21
16.6652270388
 31
0.0
  0
LINE
  5
7E
100
AcDbEntity
  8
TA900_ISI_GW_B_D
  6
CONTINUOUS
 62
         7
100
AcDbLine
 10
134.503983763
 20
86.8827454568
 30
0.0
 11
133.6735230792
 21
84.6010734804
 31
0.0
  0
LINE
  5
7F
100
AcDbEntity
  8
TA900_ISI_GW_B_D
  6
CONTINUOUS
 62
         7
100
AcDbLine
 10
145.1110873829
 20
11.6477086208
 30
0.0
 11
146.4277564089
 21
15.2652270388
 31
0.0
  0
LINE
  5
80
100
AcDbEntity
  8
TA900_ISI_GW_B_D
  6
CONTINUOUS
 62
         7
100
AcDbLine
 10
6.744425435
 20
86.8827454568
 30
0.0
 11
5.4277564089
 21
83.2652270388
 31
0.0
  0
LINE
  5
81
100
AcDbEntity
  8
TA900_ISI_GW_B_D
  6
CONTINUOUS
 62
         7
100
AcDbLine
 10
47.0263022438
 20
163.0786935593
 30
0.0
 11
47.0263022438
 21
182.6963835598
 31
0.0
  0
SPLINE
  5
82
100
AcDbEntity
  8
TA900_ISI_GW_B_D
  6
CONTINUOUS
 62
         7
100
AcDbSpline
210
0.0
220
0.0
230
1.0
 70
         8
 71
         3
 72
        20
 73
        16
 74
         0
 42
0.0
 43
0.0
 40
0.0
 40
0.0
 40
0.0
 40
0.0
 40
0.1250000000000003
 40
0.1250000000000003
 40
0.2500000000000005
 40
0.2500000000000005
 40
0.5000000000000004
 40
0.5000000000000004
 40
0.6250000000000003
 40
0.6250000000000003
 40
0.7500000000000002
 40
0.7500000000000002
 40
0.8750000000000002
 40
0.8750000000000002
 40
1.0
 40
1.0
 40
1.0
 40
1.0
 10
47.026302243812097
 20
182.69638355978901
 30
0.0
 10
47.585467628685677
 20
183.06494826099132
 30
0.0
 10
47.958334381015014
 20
183.40558659839459
 30
0.0
 10
48.325746575674522
 20
184.03102494306179
 30
0.0
 10
48.310882815202888
 20
184.30677522154136
 30
0.0
 10
47.657992835529534
 20
184.99240165583797
 30
0.0
 10
46.370342716465629
 20
185.25081166676009
 30
0.0
 10
43.523616925430389
 20
185.25223758237317
 30
0.0
 10
42.409898301298597
 20
185.18952178630204
 30
0.0
 10
40.029708635105564
 20
184.94850765458185
 30
0.0
 10
38.731184601217315
 20
184.76703998641042
 30
0.0
 10
36.11821741924242
 20
184.31213507337861
 30
0.0
 10
34.768444265219713
 20
184.03264986575351
 30
0.0
 10
32.177648919736384
 20
183.41218919459286
 30
0.0
 10
30.907611872919396
 20
183.06502404571376
 30
0.0
 10
29.722172902827403
 20
182.69638355978901
 30
0.0
  0
LINE
  5
83
100
AcDbEntity
  8
TA900_ISI_GW_B_D
  6
CONTINUOUS
 62
         7
100
AcDbLine
 10
63.6918892094
 20
182.6963835598
 30
0.0
 11
47.0263022438
 21
182.6963835598
 31
0.0
  0
LINE
  5
84
100
AcDbEntity
  8
TA900_ISI_GW_B_D
  6
CONTINUOUS
 62
         7
100
AcDbLine
 10
104.8292105741
 20
182.6963835598
 30
0.0
 11
88.1636236085
 21
182.6963835598
 31
0.0
  0
LINE
  5
85
100
AcDbEntity
  8
TA900_ISI_GW_B_D
  6
CONTINUOUS
 62
         7
100
AcDbLine
 10
129.0364520611
 20
182.6963835598
 30
0.0
 11
122.1333399151
 21
182.6963835598
 31
0.0
  0
LINE
  5
86
100
AcDbEntity
  8
TA900_ISI_GW_B_D
  6
CONTINUOUS
 62
         7
100
AcDbLine
 10
29.7221729028
 20
182.6963835598
 30
0.0
 11
22.8190607568
 21
182.6963835598
 31
0.0
  0
LINE
  5
87
100
AcDbEntity
  8
TA900_ISI_GW_B_D
  6
CONTINUOUS
 62
         7
100
AcDbLine
 10
63.6918892094
 20
182.6963835598
 30
0.0
 11
63.6918892094
 21
163.0786935593
 31
0.0
  0
LINE
  5
88
100
AcDbEntity
  8
TA900_ISI_GW_B_D
  6
CONTINUOUS
 62
         7
100
AcDbLine
 10
104.8292105741
 20
163.0786935593
 30
0.0
 11
88.1636236085
 21
163.0786935593
 31
0.0
  0
ARC
  5
89
100
AcDbEntity
  8
TA900_ISI_GW_B_D
  6
CONTINUOUS
 62
         7
100
AcDbCircle
 10
75.9277564089
 20
189.530473221
 30
0.0
 40
29.1446923709
100
AcDbArc
 50
245.1760343823
 51
294.8239656177
  0
LINE
  5
8A
100
AcDbEntity
  8
TA900_ISI_GW_B_D
  6
CONTINUOUS
 62
         7
100
AcDbLine
 10
88.1636236085
 20
163.0786935593
 30
0.0
 11
88.1636236085
 21
182.6963835598
 31
0.0
  0
SPLINE
  5
8B
100
AcDbEntity
  8
TA900_ISI_GW_B_D
  6
CONTINUOUS
 62
         7
100
AcDbSpline
210
0.0
220
0.0
230
1.0
 70
         8
 71
         3
 72
        22
 73
        18
 74
         0
 42
0.0
 43
0.0
 40
0.0
 40
0.0
 40
0.0
 40
0.0
 40
0.1250000000000002
 40
0.1250000000000002
 40
0.2500000000000004
 40
0.2500000000000004
 40
0.3750000000000007
 40
0.3750000000000007
 40
0.5000000000000009
 40
0.5000000000000009
 40
0.6250000000000007
 40
0.6250000000000007
 40
0.7500000000000004
 40
0.7500000000000004
 40
0.8750000000000002
 40
0.8750000000000002
 40
1.0
 40
1.0
 40
1.0
 40
1.0
 10
104.8292105740768
 20
163.07869355934073
 30
0.0
 10
104.26731708979612
 20
162.728297836255
 30
0.0
 10
103.89517193624656
 20
162.39197957730923
 30
0.0
 10
103.52954468692862
 20
161.75372237283469
 30
0.0
 10
103.54529191330855
 20
161.46033236718904
 30
0.0
 10
103.98012195075994
 20
160.96099109364232
 30
0.0
 10
104.40439783062241
 20
160.75492678056202
 30
0.0
 10
105.62244690710136
 20
160.47540367724349
 30
0.0
 10
106.43262860517555
 20
160.39981474219383
 30
0.0
 10
108.33133871365681
 20
160.39859623957446
 30
0.0
 10
109.44647671442192
 20
160.47296945442929
 30
0.0
 10
111.82656519374662
 20
160.75075901118723
 30
0.0
 10
113.12296830292959
 20
160.95710741002011
 30
0.0
 10
115.7318992842323
 20
161.45459978105043
 30
0.0
 10
117.07890213645369
 20
161.7517764614993
 30
0.0
 10
119.6695342816741
 20
162.38536736505171
 30
0.0
 10
120.94211846284456
 20
162.72822611973223
 30
0.0
 10
122.13333991506148
 20
163.07869355934073
 30
0.0
  0
LINE
  5
8C
100
AcDbEntity
  8
TA900_ISI_GW_B_D
  6
CONTINUOUS
 62
         7
100
AcDbLine
 10
52.9277564089
 20
117.2652270388
 30
0.0
 11
98.9277564089
 21
117.2652270388
 31
0.0
  0
SPLINE
  5
8D
100
AcDbEntity
  8
TA900_ISI_GW_B_D
  6
CONTINUOUS
 62
         7
100
AcDbSpline
210
0.0
220
0.0
230
1.0
 70
         8
 71
         3
 72
        20
 73
        16
 74
         0
 42
0.0
 43
0.0
 40
0.0
 40
0.0
 40
0.0
 40
0.0
 40
0.1250000000000003
 40
0.1250000000000003
 40
0.2500000000000006
 40
0.2500000000000006
 40
0.5000000000000007
 40
0.5000000000000007
 40
0.6250000000000004
 40
0.6250000000000004
 40
0.7500000000000002
 40
0.7500000000000002
 40
0.8750000000000001
 40
0.8750000000000001
 40
1.0
 40
1.0
 40
1.0
 40
1.0
 10
122.13333991506148
 20
182.69638355978901
 30
0.0
 10
120.94814464626316
 20
183.06494826099132
 30
0.0
 10
119.70383932425007
 20
183.40558659839459
 30
0.0
 10
117.09542710431509
 20
184.03102494306182
 30
0.0
 10
115.76493220537112
 20
184.30677522154139
 30
0.0
 10
111.83606669898063
 20
184.99240165583794
 30
0.0
 10
109.30741831091395
 20
185.25081166676003
 30
0.0
 10
106.45385426002768
 20
185.25223758237317
 30
0.0
 10
105.64103256315033
 20
185.18952178630204
 30
0.0
 10
104.41559046938777
 20
184.94850765458182
 30
0.0
 10
103.98602964018599
 20
184.76703998641037
 30
0.0
 10
103.54668069141434
 20
184.31213507337861
 30
0.0
 10
103.53036184427478
 20
184.03264986575354
 30
0.0
 10
103.89177000917604
 20
183.41218919459291
 30
0.0
 10
104.2699302129362
 20
183.06502404571378
 30
0.0
 10
104.82921057407678
 20
182.69638355978898
 30
0.0
  0
SPLINE
  5
8E
100
AcDbEntity
  8
TA900_ISI_GW_B_D
  6
CONTINUOUS
 62
         7
100
AcDbSpline
210
0.0
220
0.0
230
1.0
 70
         8
 71
         3
 72
        14
 73
        10
 74
         0
 42
0.0
 43
0.0
 40
0.5004891494101076
 40
0.5004891494101076
 40
0.5004891494101076
 40
0.5004891494101076
 40
0.625
 40
0.625
 40
0.75
 40
0.75
 40
0.875
 40
0.875
 40
1.0
 40
1.0
 40
1.0
 40
1.0
 10
120.42775668867979
 20
185.25176495442415
 30
0.0
 10
120.42782215543818
 20
185.25174585909537
 30
0.0
 10
120.64051784797323
 20
185.18905021862065
 30
0.0
 10
121.45545006664111
 20
184.94850765458182
 30
0.0
 10
122.06989984127651
 20
184.7670399864104
 30
0.0
 10
123.60688003368526
 20
184.31213507337861
 30
0.0
 10
124.54977461648473
 20
184.03264986575351
 30
0.0
 10
126.63729773812041
 20
183.41218919459288
 30
0.0
 10
127.80274919073659
 20
183.06502404571378
 30
0.0
 10
129.03645206111835
 20
182.69638355978901
 30
0.0
  0
ARC
  5
8F
100
AcDbEntity
  8
TA900_ISI_GW_B_D
  6
CONTINUOUS
 62
         7
100
AcDbCircle
 10
75.9277564089
 20
155.3178208625
 30
0.0
 40
29.9883667694
100
AcDbArc
 50
65.9194562974
 51
114.0805437026
  0
SPLINE
  5
90
100
AcDbEntity
  8
TA900_ISI_GW_B_D
  6
CONTINUOUS
 62
         7
100
AcDbSpline
210
0.0
220
0.0
230
1.0
 70
         8
 71
         3
 72
        14
 73
        10
 74
         0
 42
0.0
 43
0.0
 40
0.0
 40
0.0
 40
0.0
 40
0.0
 40
0.125
 40
0.125
 40
0.25
 40
0.25
 40
0.5
 40
0.5
 40
0.5004866412740202
 40
0.5004866412740202
 40
0.5004866412740202
 40
0.5004866412740202
 10
22.819060756770522
 20
182.69638355978904
 30
0.0
 10
24.052510003816945
 20
183.06494826099132
 30
0.0
 10
25.196023343929973
 20
183.40558659839462
 30
0.0
 10
27.300248967110225
 20
184.03102494306179
 30
0.0
 10
28.230540666664194
 20
184.30677522154139
 30
0.0
 10
30.547005176607044
 20
184.99240165583797
 30
0.0
 10
31.424523468059679
 20
185.25081166676003
 30
0.0
 10
31.42775332958897
 20
185.25176412759382
 30
0.0
 10
31.427756355297216
 20
185.25176502026531
 30
0.0
 10
31.427756132906527
 20
185.25176495550184
 30
0.0
  0
ARC
  5
91
100
AcDbEntity
  8
TA900_ISI_GW_B_D
  6
CONTINUOUS
 62
         7
100
AcDbCircle
 10
75.9277564089
 20
270.4291116459
 30
0.0
 40
192.3272711062
100
AcDbArc
 50
258.6780070786
 51
281.3219929214
  0
LINE
  5
92
100
AcDbEntity
  8
TA900_ISI_GW_B_D
  6
CONTINUOUS
 62
         7
100
AcDbLine
 10
18.5487487276
 20
82.0984870236
 30
0.0
 11
18.9692558745
 21
81.8446499022
 31
0.0
  0
SPLINE
  5
93
100
AcDbEntity
  8
TA900_ISI_GW_B_D
  6
CONTINUOUS
 62
         7
100
AcDbSpline
210
0.0
220
0.0
230
1.0
 70
         8
 71
         3
 72
        10
 73
         6
 74
         0
 42
0.0
 43
0.0
 40
0.5002071837968813
 40
0.5002071837968813
 40
0.5002071837968813
 40
0.5002071837968813
 40
0.7499999999999999
 40
0.7499999999999999
 40
1.0
 40
1.0
 40
1.0
 40
1.0
 10
18.177756410740294
 20
84.612704449668428
 30
0.0
 10
18.177757955828106
 20
84.612696866185317
 30
0.0
 10
18.211654610256971
 20
84.391184771522703
 30
0.0
 10
18.340445924562207
 20
83.530831556753512
 30
0.0
 10
18.43363765339976
 20
82.902904590612394
 30
0.0
 10
18.548748727593239
 20
82.098487023588746
 30
0.0
  0
ARC
  5
94
100
AcDbEntity
  8
TA900_ISI_GW_B_D
  6
CONTINUOUS
 62
         7
100
AcDbCircle
 10
78.0772343751
 20
-84.9761460229
 30
0.0
 40
177.3628304102
100
AcDbArc
 50
106.9336704506
 51
109.6109206664
  0
LINE
  5
95
100
AcDbEntity
  8
TA900_ISI_GW_B_D
  6
CONTINUOUS
 62
         7
100
AcDbLine
 10
113.6859343311
 20
81.8446499022
 30
0.0
 11
113.6859343311
 21
49.2652270388
 31
0.0
  0
LINE
  5
96
100
AcDbEntity
  8
TA900_ISI_GW_B_D
  6
CONTINUOUS
 62
         7
100
AcDbLine
 10
38.1695784868
 20
81.8446499022
 30
0.0
 11
38.1695784868
 21
49.2652270388
 31
0.0
  0
LINE
  5
97
100
AcDbEntity
  8
TA900_ISI_GW_B_D
  6
CONTINUOUS
 62
         7
100
AcDbLine
 10
38.1695784868
 20
6.1652270388
 30
0.0
 11
38.1695784868
 21
49.2652270388
 31
0.0
  0
LINE
  5
98
100
AcDbEntity
  8
TA900_ISI_GW_B_D
  6
CONTINUOUS
 62
         7
100
AcDbLine
 10
113.6859343311
 20
6.1652270388
 30
0.0
 11
113.6859343311
 21
49.2652270388
 31
0.0
  0
LINE
  5
99
100
AcDbEntity
  8
TA900_ISI_GW_B_D
  6
CONTINUOUS
 62
         7
100
AcDbLine
 10
26.4177516205
 20
91.5152270388
 30
0.0
 11
18.1777564089
 21
91.5152270388
 31
0.0
  0
LINE
  5
9A
100
AcDbEntity
  8
TA900_ISI_GW_B_D
  6
CONTINUOUS
 62
         7
100
AcDbLine
 10
125.4377611974
 20
91.5152270388
 30
0.0
 11
133.6777564089
 21
91.5152270388
 31
0.0
  0
LINE
  5
9B
100
AcDbEntity
  8
TA900_ISI_GW_B_D
  6
CONTINUOUS
 62
         7
100
AcDbLine
 10
125.4377611974
 20
91.5152270388
 30
0.0
 11
122.4588339943
 21
91.5152270388
 31
0.0
  0
LINE
  5
9C
100
AcDbEntity
  8
TA900_ISI_GW_B_D
  6
CONTINUOUS
 62
         7
100
AcDbLine
 10
29.3966788236
 20
91.5152270388
 30
0.0
 11
26.4177516205
 21
91.5152270388
 31
0.0
  0
LINE
  5
9D
100
AcDbEntity
  8
TA900_ISI_GW_B_D
  6
CONTINUOUS
 62
         7
100
AcDbLine
 10
122.4588339943
 20
91.5152270388
 30
0.0
 11
29.3966788236
 21
91.5152270388
 31
0.0
  0
LINE
  5
9E
100
AcDbEntity
  8
TA900_ISI_GW_B_D
  6
CONTINUOUS
 62
         7
100
AcDbLine
 10
113.027756409
 20
103.7652270388
 30
0.0
 11
109.0375090052
 21
103.7652270388
 31
0.0
  0
LINE
  5
9F
100
AcDbEntity
  8
TA900_ISI_GW_B_D
  6
CONTINUOUS
 62
         7
100
AcDbLine
 10
42.8180038127
 20
103.7652270388
 30
0.0
 11
38.827756409
 21
103.7652270388
 31
0.0
  0
LINE
  5
A0
100
AcDbEntity
  8
TA900_ISI_GW_B_D
  6
CONTINUOUS
 62
         7
100
AcDbLine
 10
26.827756409
 20
103.7652270388
 30
0.0
 11
21.9277564089
 21
103.7652270388
 31
0.0
  0
LINE
  5
A1
100
AcDbEntity
  8
TA900_ISI_GW_B_D
  6
CONTINUOUS
 62
         7
100
AcDbLine
 10
109.0375090052
 20
103.7652270388
 30
0.0
 11
42.8180038127
 21
103.7652270388
 31
0.0
  0
LINE
  5
A2
100
AcDbEntity
  8
TA900_ISI_GW_B_D
  6
CONTINUOUS
 62
         7
100
AcDbLine
 10
125.027756409
 20
103.7652270388
 30
0.0
 11
129.9277564089
 21
103.7652270388
 31
0.0
  0
LINE
  5
A3
100
AcDbEntity
  8
TA900_ISI_GW_B_D
  6
CONTINUOUS
 62
         7
100
AcDbLine
 10
109.0375090052
 20
103.7652270388
 30
0.0
 11
109.0375090052
 21
97.7652270388
 31
0.0
  0
LINE
  5
A4
100
AcDbEntity
  8
TA900_ISI_GW_B_D
  6
CONTINUOUS
 62
         7
100
AcDbLine
 10
26.827756409
 20
105.7652270388
 30
0.0
 11
38.827756409
 21
105.7652270388
 31
0.0
  0
LINE
  5
A5
100
AcDbEntity
  8
TA900_ISI_GW_B_D
  6
CONTINUOUS
 62
         7
100
AcDbLine
 10
42.8180038127
 20
97.7652270388
 30
0.0
 11
42.8180038127
 21
103.7652270388
 31
0.0
  0
LINE
  5
A6
100
AcDbEntity
  8
TA900_ISI_GW_B_D
  6
CONTINUOUS
 62
         7
100
AcDbLine
 10
113.027756409
 20
105.7652270388
 30
0.0
 11
125.027756409
 21
105.7652270388
 31
0.0
  0
LINE
  5
A7
100
AcDbEntity
  8
TA900_ISI_GW_B_D
  6
CONTINUOUS
 62
         7
100
AcDbLine
 10
76.7641777959
 20
71.2652270388
 30
0.0
 11
73.7943524915
 21
61.2652270388
 31
0.0
  0
LINE
  5
A8
100
AcDbEntity
  8
TA900_ISI_GW_B_D
  6
CONTINUOUS
 62
         7
100
AcDbLine
 10
83.7096515916
 20
61.2652270388
 30
0.0
 11
80.7398262872
 21
71.2652270388
 31
0.0
  0
LINE
  5
A9
100
AcDbEntity
  8
TA900_ISI_GW_B_D
  6
CONTINUOUS
 62
         7
100
AcDbLine
 10
80.7398262872
 20
71.2652270388
 30
0.0
 11
76.7641777959
 21
71.2652270388
 31
0.0
  0
LINE
  5
AA
100
AcDbEntity
  8
TA900_ISI_GW_B_D
  6
CONTINUOUS
 62
         7
100
AcDbLine
 10
73.7943524915
 20
61.2652270388
 30
0.0
 11
78.7546489447
 21
61.2652270388
 31
0.0
  0
LINE
  5
AB
100
AcDbEntity
  8
TA900_ISI_GW_B_D
  6
CONTINUOUS
 62
         7
100
AcDbLine
 10
78.7546489447
 20
61.2652270388
 30
0.0
 11
79.5328384629
 21
63.843310681
 31
0.0
  0
LINE
  5
AC
100
AcDbEntity
  8
TA900_ISI_GW_B_D
  6
CONTINUOUS
 62
         7
100
AcDbLine
 10
79.5328384629
 20
63.843310681
 30
0.0
 11
77.5847177642
 21
63.843310681
 31
0.0
  0
LINE
  5
AD
100
AcDbEntity
  8
TA900_ISI_GW_B_D
  6
CONTINUOUS
 62
         7
100
AcDbLine
 10
77.5847177642
 20
63.843310681
 30
0.0
 11
78.7546489447
 21
68.7877257154
 31
0.0
  0
LINE
  5
AE
100
AcDbEntity
  8
TA900_ISI_GW_B_D
  6
CONTINUOUS
 62
         7
100
AcDbLine
 10
78.7546489447
 20
68.7877257154
 30
0.0
 11
80.5492492623
 21
61.2652270388
 31
0.0
  0
LINE
  5
AF
100
AcDbEntity
  8
TA900_ISI_GW_B_D
  6
CONTINUOUS
 62
         7
100
AcDbLine
 10
80.5492492623
 20
61.2652270388
 30
0.0
 11
83.7096515916
 21
61.2652270388
 31
0.0
  0
LINE
  5
B0
100
AcDbEntity
  8
TA900_ISI_GW_B_D
  6
CONTINUOUS
 62
         7
100
AcDbLine
 10
70.5121926186
 20
61.2652270388
 30
0.0
 11
70.5121926186
 21
68.5071539843
 31
0.0
  0
LINE
  5
B1
100
AcDbEntity
  8
TA900_ISI_GW_B_D
  6
CONTINUOUS
 62
         7
100
AcDbLine
 10
73.4926055355
 20
61.2652270388
 30
0.0
 11
70.5121926186
 21
61.2652270388
 31
0.0
  0
LINE
  5
B2
100
AcDbEntity
  8
TA900_ISI_GW_B_D
  6
CONTINUOUS
 62
         7
100
AcDbLine
 10
73.4926055355
 20
68.5071539843
 30
0.0
 11
73.4926055355
 21
61.2652270388
 31
0.0
  0
LINE
  5
B3
100
AcDbEntity
  8
TA900_ISI_GW_B_D
  6
CONTINUOUS
 62
         7
100
AcDbLine
 10
75.1072164407
 20
68.5071539843
 30
0.0
 11
73.4926055355
 21
68.5071539843
 31
0.0
  0
LINE
  5
B4
100
AcDbEntity
  8
TA900_ISI_GW_B_D
  6
CONTINUOUS
 62
         7
100
AcDbLine
 10
75.9277564089
 20
71.2652270388
 30
0.0
 11
75.1072164407
 21
68.5071539843
 31
0.0
  0
LINE
  5
B5
100
AcDbEntity
  8
TA900_ISI_GW_B_D
  6
CONTINUOUS
 62
         7
100
AcDbLine
 10
69.1252153819
 20
71.2652270388
 30
0.0
 11
75.9277564089
 21
71.2652270388
 31
0.0
  0
LINE
  5
B6
100
AcDbEntity
  8
TA900_ISI_GW_B_D
  6
CONTINUOUS
 62
         7
100
AcDbLine
 10
68.3152630262
 20
68.5071539843
 30
0.0
 11
69.1252153819
 21
71.2652270388
 31
0.0
  0
LINE
  5
B7
100
AcDbEntity
  8
TA900_ISI_GW_B_D
  6
CONTINUOUS
 62
         7
100
AcDbLine
 10
70.5121926186
 20
68.5071539843
 30
0.0
 11
68.3152630262
 21
68.5071539843
 31
0.0
  0
LINE
  5
B8
100
AcDbEntity
  8
TA900_ISI_GW_B_D
  6
CONTINUOUS
 62
         7
100
AcDbLine
 10
98.9277564089
 20
117.2652270388
 30
0.0
 11
98.9277564089
 21
155.2652270388
 31
0.0
  0
LINE
  5
B9
100
AcDbEntity
  8
TA900_ISI_GW_B_D
  6
CONTINUOUS
 62
         7
100
AcDbLine
 10
44.2675023711
 20
160.2652270388
 30
0.0
 11
52.9277564089
 21
155.2652270388
 31
0.0
  0
LINE
  5
BA
100
AcDbEntity
  8
TA900_ISI_GW_B_D
  6
CONTINUOUS
 62
         7
100
AcDbLine
 10
31.4024865748
 20
160.4059726667
 30
0.0
 11
31.9277564089
 21
160.2652270388
 31
0.0
  0
ARC
  5
BB
100
AcDbEntity
  8
TA900_ISI_GW_B_D
  6
CONTINUOUS
 62
         7
100
AcDbCircle
 10
75.9277564089
 20
-9.7347729612
 30
0.0
 40
200.0
100
AcDbArc
 50
77.1352494923
 51
102.8647637327
  0
LINE
  5
BC
100
AcDbEntity
  8
TA900_ISI_GW_B_D
  6
CONTINUOUS
 62
         7
100
AcDbLine
 10
18.9692558745
 20
81.8446499022
 30
0.0
 11
19.1777564089
 21
80.8885175064
 31
0.0
  0
ARC
  5
BD
100
AcDbEntity
  8
TA900_ISI_GW_B_D
  6
CONTINUOUS
 62
         7
100
AcDbCircle
 10
-35.4221742355
 20
46.9887730835
 30
0.0
 40
64.2677609562
100
AcDbArc
 50
2.0299212571
 51
31.8351214724
  0
LINE
  5
BE
100
AcDbEntity
  8
TA900_ISI_GW_B_D
  6
CONTINUOUS
 62
         7
100
AcDbLine
 10
38.1695784868
 20
81.8446499022
 30
0.0
 11
18.9692558745
 21
81.8446499022
 31
0.0
  0
ARC
  5
BF
100
AcDbEntity
  8
TA900_ISI_GW_B_D
  6
CONTINUOUS
 62
         7
100
AcDbCircle
 10
123.9482975958
 20
75.6477714853
 30
0.0
 40
9.1706835676
100
AcDbArc
 50
80.6528561401
 51
99.3471438599
  0
ARC
  5
C0
100
AcDbEntity
  8
TA900_ISI_GW_B_D
  6
CONTINUOUS
 62
         7
100
AcDbCircle
 10
75.9277564089
 20
481.0986078089
 30
0.0
 40
399.1235663675
100
AcDbArc
 50
263.3050535786
 51
276.6949464214
  0
ARC
  5
C1
100
AcDbEntity
  8
TA900_ISI_GW_B_D
  6
CONTINUOUS
 62
         7
100
AcDbCircle
 10
-69.3768678673
 20
36.4118684537
 30
0.0
 40
87.6756731347
100
AcDbArc
 50
350.7232040212
 51
8.4300119434
  0
ARC
  5
C2
100
AcDbEntity
  8
TA900_ISI_GW_B_D
  6
CONTINUOUS
 62
         7
100
AcDbCircle
 10
424.5733458841
 20
40.4043197745
 30
0.0
 40
294.2356627815
100
AcDbArc
 50
171.3586885304
 51
171.8535785582
  0
LINE
  5
C3
100
AcDbEntity
  8
TA900_ISI_GW_B_D
  6
CONTINUOUS
 62
         7
100
AcDbLine
 10
21.9277564089
 20
103.7652270388
 30
0.0
 11
21.9277564089
 21
97.7652270388
 31
0.0
  0
LINE
  5
C4
100
AcDbEntity
  8
TA900_ISI_GW_B_D
  6
CONTINUOUS
 62
         7
100
AcDbLine
 10
129.9277564089
 20
97.7652270388
 30
0.0
 11
129.9277564089
 21
103.7652270388
 31
0.0
  0
ARC
  5
C5
100
AcDbEntity
  8
TA900_ISI_GW_B_D
  6
CONTINUOUS
 62
         7
100
AcDbCircle
 10
131.9613020507
 20
81.8123244665
 30
0.0
 40
14.0934744936
100
AcDbArc
 50
336.7644040266
 51
21.0861224681
  0
ARC
  5
C6
100
AcDbEntity
  8
TA900_ISI_GW_B_D
  6
CONTINUOUS
 62
         7
100
AcDbCircle
 10
58.3826904607
 20
36.4118684537
 30
0.0
 40
87.6756731347
100
AcDbArc
 50
350.7232040212
 51
8.4300119434
  0
LINE
  5
C7
100
AcDbEntity
  8
TA900_ISI_GW_B_D
  6
CONTINUOUS
 62
         7
100
AcDbLine
 10
17.3515290549
 20
11.6477086208
 30
0.0
 11
6.744425435
 21
11.6477086208
 31
0.0
  0
LINE
  5
C8
100
AcDbEntity
  8
TA900_ISI_GW_B_D
  6
CONTINUOUS
 62
         7
100
AcDbLine
 10
17.1521024026
 20
22.2781865681
 30
0.0
 11
6.9438520873
 21
22.2781865681
 31
0.0
  0
ARC
  5
C9
100
AcDbEntity
  8
TA900_ISI_GW_B_D
  6
CONTINUOUS
 62
         7
100
AcDbCircle
 10
221.2323806852
 20
62.118585624
 30
0.0
 40
87.6756731347
100
AcDbArc
 50
170.7232040212
 51
188.4300119434
  0
ARC
  5
CA
100
AcDbEntity
  8
TA900_ISI_GW_B_D
  6
CONTINUOUS
 62
         7
100
AcDbCircle
 10
147.6537690951
 20
81.8123244665
 30
0.0
 40
14.0934744936
100
AcDbArc
 50
158.9138775319
 51
203.2355959734
  0
LINE
  5
CB
100
AcDbEntity
  8
TA900_ISI_GW_B_D
  6
CONTINUOUS
 62
         7
100
AcDbLine
 10
17.3515290549
 20
49.2652270388
 30
0.0
 11
6.744425435
 21
49.2652270388
 31
0.0
  0
LINE
  5
CC
100
AcDbEntity
  8
TA900_ISI_GW_B_D
  6
CONTINUOUS
 62
         7
100
AcDbLine
 10
17.3515290549
 20
86.8827454568
 30
0.0
 11
6.744425435
 21
86.8827454568
 31
0.0
  0
LINE
  5
CD
100
AcDbEntity
  8
TA900_ISI_GW_B_D
  6
CONTINUOUS
 62
         7
100
AcDbLine
 10
145.1110873829
 20
86.8827454568
 30
0.0
 11
134.503983763
 21
86.8827454568
 31
0.0
  0
LINE
  5
CE
100
AcDbEntity
  8
TA900_ISI_GW_B_D
  6
CONTINUOUS
 62
         7
100
AcDbLine
 10
144.9116607306
 20
76.2522675096
 30
0.0
 11
134.7034104153
 21
76.2522675096
 31
0.0
  0
LINE
  5
CF
100
AcDbEntity
  8
TA900_ISI_GW_B_D
  6
CONTINUOUS
 62
         7
100
AcDbLine
 10
17.1521024026
 20
76.2522675096
 30
0.0
 11
6.9438520873
 21
76.2522675096
 31
0.0
  0
ARC
  5
D0
100
AcDbEntity
  8
TA900_ISI_GW_B_D
  6
CONTINUOUS
 62
         7
100
AcDbCircle
 10
19.8942107672
 20
81.8123244665
 30
0.0
 40
14.0934744936
100
AcDbArc
 50
158.9138775319
 51
203.2355959734
  0
ARC
  5
D1
100
AcDbEntity
  8
TA900_ISI_GW_B_D
  6
CONTINUOUS
 62
         7
100
AcDbCircle
 10
93.4728223572
 20
62.118585624
 30
0.0
 40
87.6756731347
100
AcDbArc
 50
170.7232040212
 51
188.4300119434
  0
ARC
  5
D2
100
AcDbEntity
  8
TA900_ISI_GW_B_D
  6
CONTINUOUS
 62
         7
100
AcDbCircle
 10
4.2017437228
 20
81.8123244665
 30
0.0
 40
14.0934744936
100
AcDbArc
 50
336.7644040266
 51
21.0861224681
  0
ARC
  5
D3
100
AcDbEntity
  8
TA900_ISI_GW_B_D
  6
CONTINUOUS
 62
         7
100
AcDbCircle
 10
19.8942107672
 20
16.7181296112
 30
0.0
 40
14.0934744936
100
AcDbArc
 50
156.7644040266
 51
201.0861224681
  0
ARC
  5
D4
100
AcDbEntity
  8
TA900_ISI_GW_B_D
  6
CONTINUOUS
 62
         7
100
AcDbCircle
 10
147.6537690951
 20
16.7181296112
 30
0.0
 40
14.0934744936
100
AcDbArc
 50
156.7644040266
 51
201.0861224681
  0
ARC
  5
D5
100
AcDbEntity
  8
TA900_ISI_GW_B_D
  6
CONTINUOUS
 62
         7
100
AcDbCircle
 10
-69.3768678673
 20
62.118585624
 30
0.0
 40
87.6756731347
100
AcDbArc
 50
351.5699880566
 51
9.2767959788
  0
ARC
  5
D6
100
AcDbEntity
  8
TA900_ISI_GW_B_D
  6
CONTINUOUS
 62
         7
100
AcDbCircle
 10
4.2017437228
 20
16.7181296112
 30
0.0
 40
14.0934744936
100
AcDbArc
 50
338.9138775319
 51
23.2355959734
  0
ARC
  5
D7
100
AcDbEntity
  8
TA900_ISI_GW_B_D
  6
CONTINUOUS
 62
         7
100
AcDbCircle
 10
58.3826904607
 20
62.118585624
 30
0.0
 40
87.6756731347
100
AcDbArc
 50
351.5699880566
 51
9.2767959788
  0
LINE
  5
D8
100
AcDbEntity
  8
TA900_ISI_GW_B_D
  6
CONTINUOUS
 62
         7
100
AcDbLine
 10
145.1110873829
 20
49.2652270388
 30
0.0
 11
134.503983763
 21
49.2652270388
 31
0.0
  0
ARC
  5
D9
100
AcDbEntity
  8
TA900_ISI_GW_B_D
  6
CONTINUOUS
 62
         7
100
AcDbCircle
 10
221.2323806852
 20
36.4118684537
 30
0.0
 40
87.6756731347
100
AcDbArc
 50
171.5699880566
 51
189.2767959788
  0
ARC
  5
DA
100
AcDbEntity
  8
TA900_ISI_GW_B_D
  6
CONTINUOUS
 62
         7
100
AcDbCircle
 10
131.9613020507
 20
16.7181296112
 30
0.0
 40
14.0934744936
100
AcDbArc
 50
338.9138775319
 51
23.2355959734
  0
LINE
  5
DB
100
AcDbEntity
  8
TA900_ISI_GW_B_D
  6
CONTINUOUS
 62
         7
100
AcDbLine
 10
144.9116607306
 20
22.2781865681
 30
0.0
 11
134.7034104153
 21
22.2781865681
 31
0.0
  0
LINE
  5
DC
100
AcDbEntity
  8
TA900_ISI_GW_B_D
  6
CONTINUOUS
 62
         7
100
AcDbLine
 10
145.1110873829
 20
11.6477086208
 30
0.0
 11
134.503983763
 21
11.6477086208
 31
0.0
  0
LINE
  5
DD
100
AcDbEntity
  8
TA900_ISI_GW_B_D
  6
CONTINUOUS
 62
         7
100
AcDbLine
 10
19.1777564089
 20
16.6652270388
 30
0.0
 11
19.1777564089
 21
80.8885175064
 31
0.0
  0
LINE
  5
DE
100
AcDbEntity
  8
TA900_ISI_GW_B_D
  6
CONTINUOUS
 62
         7
100
AcDbLine
 10
146.4277564089
 20
83.2652270388
 30
0.0
 11
146.4277564089
 21
15.2652270388
 31
0.0
  0
LINE
  5
DF
100
AcDbEntity
  8
TA900_ISI_GW_B_D
  6
CONTINUOUS
 62
         7
100
AcDbLine
 10
132.6777564089
 20
80.8885175064
 30
0.0
 11
132.6777564089
 21
16.6652270388
 31
0.0
  0
LINE
  5
E0
100
AcDbEntity
  8
TA900_ISI_GW_B_D
  6
CONTINUOUS
 62
         7
100
AcDbLine
 10
132.6777564089
 20
80.8885175064
 30
0.0
 11
132.8862569434
 21
81.8446499022
 31
0.0
  0
LINE
  5
E1
100
AcDbEntity
  8
TA900_ISI_GW_B_D
  6
CONTINUOUS
 62
         7
100
AcDbLine
 10
5.4277564089
 20
83.2652270388
 30
0.0
 11
5.4277564089
 21
15.2652270388
 31
0.0
  0
LINE
  5
E2
100
AcDbEntity
  8
TA900_ISI_GW_B_D
  6
CONTINUOUS
 62
         7
100
AcDbLine
 10
28.8052564753
 20
16.6652270388
 30
0.0
 11
28.8052564753
 21
49.2652270388
 31
0.0
  0
LINE
  5
E3
100
AcDbEntity
  8
TA900_ISI_GW_B_D
  6
CONTINUOUS
 62
         7
100
AcDbLine
 10
123.0502563426
 20
16.6652270388
 30
0.0
 11
123.0502563426
 21
49.2652270388
 31
0.0
  0
LINE
  5
E4
100
AcDbEntity
  8
TA900_ISI_GW_B_D
  6
CONTINUOUS
 62
         7
100
AcDbLine
 10
29.3966788236
 20
97.7652270388
 30
0.0
 11
26.4177516205
 21
97.7652270388
 31
0.0
  0
LINE
  5
E5
100
AcDbEntity
  8
TA900_ISI_GW_B_D
  6
CONTINUOUS
 62
         7
100
AcDbLine
 10
125.4377611974
 20
97.7652270388
 30
0.0
 11
133.6777564089
 21
97.7652270388
 31
0.0
  0
LINE
  5
E6
100
AcDbEntity
  8
TA900_ISI_GW_B_D
  6
CONTINUOUS
 62
         7
100
AcDbLine
 10
26.4177516205
 20
97.7652270388
 30
0.0
 11
18.1777564089
 21
97.7652270388
 31
0.0
  0
LINE
  5
E7
100
AcDbEntity
  8
TA900_ISI_GW_B_D
  6
CONTINUOUS
 62
         7
100
AcDbLine
 10
29.3966788236
 20
91.7652270388
 30
0.0
 11
26.4177516205
 21
91.7652270388
 31
0.0
  0
LINE
  5
E8
100
AcDbEntity
  8
TA900_ISI_GW_B_D
  6
CONTINUOUS
 62
         7
100
AcDbLine
 10
125.4377611974
 20
97.7652270388
 30
0.0
 11
122.4588339943
 21
97.7652270388
 31
0.0
  0
LINE
  5
E9
100
AcDbEntity
  8
TA900_ISI_GW_B_D
  6
CONTINUOUS
 62
         7
100
AcDbLine
 10
122.4588339943
 20
97.7652270388
 30
0.0
 11
29.3966788236
 21
97.7652270388
 31
0.0
  0
LINE
  5
EA
100
AcDbEntity
  8
TA900_ISI_GW_B_D
  6
CONTINUOUS
 62
         7
100
AcDbLine
 10
125.4377611974
 20
91.7652270388
 30
0.0
 11
133.6777564089
 21
91.7652270388
 31
0.0
  0
LINE
  5
EB
100
AcDbEntity
  8
TA900_ISI_GW_B_D
  6
CONTINUOUS
 62
         7
100
AcDbLine
 10
26.4177516205
 20
91.7652270388
 30
0.0
 11
18.1777564089
 21
91.7652270388
 31
0.0
  0
LINE
  5
EC
100
AcDbEntity
  8
TA900_ISI_GW_B_D
  6
CONTINUOUS
 62
         7
100
AcDbLine
 10
125.4377611974
 20
91.7652270388
 30
0.0
 11
122.4588339943
 21
91.7652270388
 31
0.0
  0
LINE
  5
ED
100
AcDbEntity
  8
TA900_ISI_GW_B_D
  6
CONTINUOUS
 62
         7
100
AcDbLine
 10
122.4588339943
 20
91.7652270388
 30
0.0
 11
29.3966788236
 21
91.7652270388
 31
0.0
  0
LINE
  5
EE
100
AcDbEntity
  8
TA900_ISI_GW_B_D
  6
CONTINUOUS
 62
         7
100
AcDbLine
 10
53.9277564089
 20
116.2652270388
 30
0.0
 11
97.9277564089
 21
116.2652270388
 31
0.0
  0
ARC
  5
EF
100
AcDbEntity
  8
TA900_ISI_GW_B_D
  6
CONTINUOUS
 62
         7
100
AcDbCircle
 10
72.6541114175
 20
-88.3808345569
 30
0.0
 40
180.9473496981
100
AcDbArc
 50
70.4156018275
 51
73.0398070555
  0
LINE
  5
F0
100
AcDbEntity
  8
TA900_ISI_GW_B_D
  6
CONTINUOUS
 62
         7
100
AcDbLine
 10
132.8862569434
 20
81.8446499022
 30
0.0
 11
133.3067640903
 21
82.0984870236
 31
0.0
  0
ARC
  5
F1
100
AcDbEntity
  8
TA900_ISI_GW_B_D
  6
CONTINUOUS
 62
         7
100
AcDbCircle
 10
187.2790659769
 20
46.9883532795
 30
0.0
 40
64.2691538854
100
AcDbArc
 50
148.1652090031
 51
177.9697482673
  0
LINE
  5
F2
100
AcDbEntity
  8
TA900_ISI_GW_B_D
  6
CONTINUOUS
 62
         7
100
AcDbLine
 10
132.8862569434
 20
81.8446499022
 30
0.0
 11
113.6859343311
 21
81.8446499022
 31
0.0
  0
ARC
  5
F3
100
AcDbEntity
  8
TA900_ISI_GW_B_D
  6
CONTINUOUS
 62
         7
100
AcDbCircle
 10
93.4728223572
 20
36.4118684537
 30
0.0
 40
87.6756731347
100
AcDbArc
 50
171.5699880566
 51
189.2767959788
  0
ENDBLK
  5
F4
100
AcDbEntity
  8
TA900_ISI_GW_B_D
  6
CONTINUOUS
 62
         7
100
AcDbBlockEnd
  0
BLOCK
  5
146
100
AcDbEntity
  8
0
 62
         1
 48
0.0
100
AcDbBlockBegin
  2
SE2
 70
         0
 10
0.0
 20
0.0
 30
0.0
  3
SE2
  1

  0
ENDBLK
  5
147
100
AcDbEntity
  8
0
 62
         1
 48
0.0
100
AcDbBlockEnd
  0
BLOCK
  5
F7
100
AcDbEntity
  8
0
 62
         1
 48
0.0
100
AcDbBlockBegin
  2
SE3
 70
         0
 10
0.0
 20
0.0
 30
0.0
  3
SE3
  1

  0
ARC
  5
F8
100
AcDbEntity
  8
TA900_ISI_GW_B_D
  6
CONTINUOUS
 62
         7
100
AcDbCircle
 10
31.1136927566
 20
333.164015185
 30
0.0
 40
5.0
100
AcDbArc
 50
110.0843263802
 51
159.9156736198
  0
LINE
  5
F9
100
AcDbEntity
  8
TA900_ISI_GW_B_D
  6
CONTINUOUS
 62
         7
100
AcDbLine
 10
19.1777564089
 20
320.9499515327
 30
0.0
 11
17.3515290549
 21
325.9674699507
 31
0.0
  0
LINE
  5
FA
100
AcDbEntity
  8
TA900_ISI_GW_B_D
  6
CONTINUOUS
 62
         7
100
AcDbLine
 10
123.0502563426
 20
255.7499515327
 30
0.0
 11
132.6777564089
 21
255.7499515327
 31
0.0
  0
LINE
  5
FB
100
AcDbEntity
  8
TA900_ISI_GW_B_D
  6
CONTINUOUS
 62
         7
100
AcDbLine
 10
19.1777564089
 20
255.7499515327
 30
0.0
 11
28.8052564753
 21
255.7499515327
 31
0.0
  0
LINE
  5
FC
100
AcDbEntity
  8
TA900_ISI_GW_B_D
  6
CONTINUOUS
 62
         7
100
AcDbLine
 10
132.6777564089
 20
255.7499515327
 30
0.0
 11
134.503983763
 21
250.7324331147
 31
0.0
  0
LINE
  5
FD
100
AcDbEntity
  8
TA900_ISI_GW_B_D
  6
CONTINUOUS
 62
         7
100
AcDbLine
 10
146.4277564089
 20
322.3499515327
 30
0.0
 11
145.1110873829
 21
325.9674699507
 31
0.0
  0
LINE
  5
FE
100
AcDbEntity
  8
TA900_ISI_GW_B_D
  6
CONTINUOUS
 62
         7
100
AcDbLine
 10
5.4277564089
 20
254.3499515327
 30
0.0
 11
6.744425435
 21
250.7324331147
 31
0.0
  0
LINE
  5
FF
100
AcDbEntity
  8
TA900_ISI_GW_B_D
  6
CONTINUOUS
 62
         7
100
AcDbLine
 10
17.3515290549
 20
250.7324331147
 30
0.0
 11
19.1777564089
 21
255.7499515327
 31
0.0
  0
LINE
  5
100
100
AcDbEntity
  8
TA900_ISI_GW_B_D
  6
CONTINUOUS
 62
         7
100
AcDbLine
 10
132.6777564089
 20
320.9499515327
 30
0.0
 11
123.0502563426
 21
320.9499515327
 31
0.0
  0
LINE
  5
101
100
AcDbEntity
  8
TA900_ISI_GW_B_D
  6
CONTINUOUS
 62
         7
100
AcDbLine
 10
28.8052564753
 20
320.9499515327
 30
0.0
 11
19.1777564089
 21
320.9499515327
 31
0.0
  0
LINE
  5
102
100
AcDbEntity
  8
TA900_ISI_GW_B_D
  6
CONTINUOUS
 62
         7
100
AcDbLine
 10
134.503983763
 20
325.9674699507
 30
0.0
 11
132.6777564089
 21
320.9499515327
 31
0.0
  0
LINE
  5
103
100
AcDbEntity
  8
TA900_ISI_GW_B_D
  6
CONTINUOUS
 62
         7
100
AcDbLine
 10
145.1110873829
 20
250.7324331147
 30
0.0
 11
146.4277564089
 21
254.3499515327
 31
0.0
  0
LINE
  5
104
100
AcDbEntity
  8
TA900_ISI_GW_B_D
  6
CONTINUOUS
 62
         7
100
AcDbLine
 10
6.744425435
 20
325.9674699507
 30
0.0
 11
5.4277564089
 21
322.3499515327
 31
0.0
  0
ARC
  5
105
100
AcDbEntity
  8
TA900_ISI_GW_B_D
  6
CONTINUOUS
 62
         7
100
AcDbCircle
 10
75.9277564089
 20
366.0999515327
 30
0.0
 40
135.5
100
AcDbArc
 50
249.9156736198
 51
290.0843263802
  0
ARC
  5
106
100
AcDbEntity
  8
TA900_ISI_GW_B_D
  6
CONTINUOUS
 62
         7
100
AcDbCircle
 10
153.6777564089
 20
288.3499515327
 30
0.0
 40
135.5
100
AcDbArc
 50
159.9156736198
 51
166.0748889222
  0
ARC
  5
107
100
AcDbEntity
  8
TA900_ISI_GW_B_D
  6
CONTINUOUS
 62
         7
100
AcDbCircle
 10
75.9277564089
 20
288.3499515327
 30
0.0
 40
57.3
100
AcDbArc
 50
311.2202987754
 51
325.3239768021
  0
LINE
  5
108
100
AcDbEntity
  8
TA900_ISI_GW_B_D
  6
CONTINUOUS
 62
         7
100
AcDbLine
 10
113.6859343311
 20
245.2499515327
 30
0.0
 11
38.1695784868
 21
245.2499515327
 31
0.0
  0
ARC
  5
109
100
AcDbEntity
  8
TA900_ISI_GW_B_D
  6
CONTINUOUS
 62
         7
100
AcDbCircle
 10
153.6777564089
 20
288.3499515327
 30
0.0
 40
135.5
100
AcDbArc
 50
193.9228443729
 51
200.0843263802
  0
ARC
  5
10A
100
AcDbEntity
  8
TA900_ISI_GW_B_D
  6
CONTINUOUS
 62
         7
100
AcDbCircle
 10
75.9277564089
 20
288.3499515327
 30
0.0
 40
57.3
100
AcDbArc
 50
34.6760231979
 51
48.7797012246
  0
LINE
  5
10B
100
AcDbEntity
  8
TA900_ISI_GW_B_D
  6
CONTINUOUS
 62
         7
100
AcDbLine
 10
113.6859343311
 20
331.4499515327
 30
0.0
 11
38.1695784868
 21
331.4499515327
 31
0.0
  0
LINE
  5
10C
100
AcDbEntity
  8
TA900_ISI_GW_B_D
  6
CONTINUOUS
 62
         7
100
AcDbLine
 10
113.6859343311
 20
331.4499515327
 30
0.0
 11
113.6859343311
 21
245.2499515327
 31
0.0
  0
ARC
  5
10D
100
AcDbEntity
  8
TA900_ISI_GW_B_D
  6
CONTINUOUS
 62
         7
100
AcDbCircle
 10
75.9277564089
 20
288.3499515327
 30
0.0
 40
57.3
100
AcDbArc
 50
131.2202987754
 51
145.3239768021
  0
ARC
  5
10E
100
AcDbEntity
  8
TA900_ISI_GW_B_D
  6
CONTINUOUS
 62
         7
100
AcDbCircle
 10
75.9277564089
 20
288.3499515327
 30
0.0
 40
57.3
100
AcDbArc
 50
214.6760231979
 51
228.7797012246
  0
LINE
  5
10F
100
AcDbEntity
  8
TA900_ISI_GW_B_D
  6
CONTINUOUS
 62
         7
100
AcDbLine
 10
38.1695784868
 20
331.4499515327
 30
0.0
 11
38.1695784868
 21
245.2499515327
 31
0.0
  0
ARC
  5
110
100
AcDbEntity
  8
TA900_ISI_GW_B_D
  6
CONTINUOUS
 62
         7
100
AcDbCircle
 10
31.1136927566
 20
243.5358878804
 30
0.0
 40
5.0
100
AcDbArc
 50
200.0843263802
 51
249.9156736198
  0
LINE
  5
111
100
AcDbEntity
  8
TA900_ISI_GW_B_D
  6
CONTINUOUS
 62
         7
100
AcDbLine
 10
79.5328384629
 20
331.7499515327
 30
0.0
 11
79.5328384629
 21
331.4499515327
 31
0.0
  0
LINE
  5
112
100
AcDbEntity
  8
TA900_ISI_GW_B_D
  6
CONTINUOUS
 62
         7
100
AcDbLine
 10
78.7546489447
 20
331.7499515327
 30
0.0
 11
78.7546489447
 21
331.4499515327
 31
0.0
  0
LINE
  5
113
100
AcDbEntity
  8
TA900_ISI_GW_B_D
  6
CONTINUOUS
 62
         7
100
AcDbLine
 10
73.7943524915
 20
331.7499515327
 30
0.0
 11
73.7943524915
 21
331.4499515327
 31
0.0
  0
LINE
  5
114
100
AcDbEntity
  8
TA900_ISI_GW_B_D
  6
CONTINUOUS
 62
         7
100
AcDbLine
 10
83.7096515916
 20
331.7499515327
 30
0.0
 11
83.7096515916
 21
331.4499515327
 31
0.0
  0
LINE
  5
115
100
AcDbEntity
  8
TA900_ISI_GW_B_D
  6
CONTINUOUS
 62
         7
100
AcDbLine
 10
80.5492492623
 20
331.7499515327
 30
0.0
 11
80.5492492623
 21
331.4499515327
 31
0.0
  0
LINE
  5
116
100
AcDbEntity
  8
TA900_ISI_GW_B_D
  6
CONTINUOUS
 62
         7
100
AcDbLine
 10
80.5492492623
 20
331.7499515327
 30
0.0
 11
83.7096515916
 21
331.7499515327
 31
0.0
  0
LINE
  5
117
100
AcDbEntity
  8
TA900_ISI_GW_B_D
  6
CONTINUOUS
 62
         7
100
AcDbLine
 10
79.5328384629
 20
331.7499515327
 30
0.0
 11
80.5492492623
 21
331.7499515327
 31
0.0
  0
LINE
  5
118
100
AcDbEntity
  8
TA900_ISI_GW_B_D
  6
CONTINUOUS
 62
         7
100
AcDbLine
 10
78.7546489447
 20
331.7499515327
 30
0.0
 11
79.5328384629
 21
331.7499515327
 31
0.0
  0
LINE
  5
119
100
AcDbEntity
  8
TA900_ISI_GW_B_D
  6
CONTINUOUS
 62
         7
100
AcDbLine
 10
73.7943524915
 20
331.7499515327
 30
0.0
 11
78.7546489447
 21
331.7499515327
 31
0.0
  0
LINE
  5
11A
100
AcDbEntity
  8
TA900_ISI_GW_B_D
  6
CONTINUOUS
 62
         7
100
AcDbLine
 10
68.3152630262
 20
331.7499515327
 30
0.0
 11
68.3152630262
 21
331.4499515327
 31
0.0
  0
LINE
  5
11B
100
AcDbEntity
  8
TA900_ISI_GW_B_D
  6
CONTINUOUS
 62
         7
100
AcDbLine
 10
73.4926055355
 20
331.7499515327
 30
0.0
 11
73.4926055355
 21
331.4499515327
 31
0.0
  0
LINE
  5
11C
100
AcDbEntity
  8
TA900_ISI_GW_B_D
  6
CONTINUOUS
 62
         7
100
AcDbLine
 10
70.5121926186
 20
331.7499515327
 30
0.0
 11
70.5121926186
 21
331.4499515327
 31
0.0
  0
LINE
  5
11D
100
AcDbEntity
  8
TA900_ISI_GW_B_D
  6
CONTINUOUS
 62
         7
100
AcDbLine
 10
70.5121926186
 20
331.7499515327
 30
0.0
 11
68.3152630262
 21
331.7499515327
 31
0.0
  0
LINE
  5
11E
100
AcDbEntity
  8
TA900_ISI_GW_B_D
  6
CONTINUOUS
 62
         7
100
AcDbLine
 10
73.7943524915
 20
331.7499515327
 30
0.0
 11
73.4926055355
 21
331.7499515327
 31
0.0
  0
LINE
  5
11F
100
AcDbEntity
  8
TA900_ISI_GW_B_D
  6
CONTINUOUS
 62
         7
100
AcDbLine
 10
73.4926055355
 20
331.7499515327
 30
0.0
 11
70.5121926186
 21
331.7499515327
 31
0.0
  0
ARC
  5
120
100
AcDbEntity
  8
TA900_ISI_GW_B_D
  6
CONTINUOUS
 62
         7
100
AcDbCircle
 10
120.7418200613
 20
333.164015185
 30
0.0
 40
5.0
100
AcDbArc
 50
20.0843263802
 51
69.9156736198
  0
ARC
  5
121
100
AcDbEntity
  8
TA900_ISI_GW_B_D
  6
CONTINUOUS
 62
         7
100
AcDbCircle
 10
75.9277564089
 20
210.5999515327
 30
0.0
 40
135.5
100
AcDbArc
 50
69.9156736198
 51
110.0843263802
  0
ARC
  5
122
100
AcDbEntity
  8
TA900_ISI_GW_B_D
  6
CONTINUOUS
 62
         7
100
AcDbCircle
 10
4.2017437228
 20
320.8970489604
 30
0.0
 40
14.0934744936
100
AcDbArc
 50
336.7644040266
 51
21.0861224681
  0
ARC
  5
123
100
AcDbEntity
  8
TA900_ISI_GW_B_D
  6
CONTINUOUS
 62
         7
100
AcDbCircle
 10
131.9613020507
 20
320.8970489604
 30
0.0
 40
14.0934744936
100
AcDbArc
 50
336.7644040266
 51
21.0861224681
  0
LINE
  5
124
100
AcDbEntity
  8
TA900_ISI_GW_B_D
  6
CONTINUOUS
 62
         7
100
AcDbLine
 10
17.3515290549
 20
325.9674699507
 30
0.0
 11
6.744425435
 21
325.9674699507
 31
0.0
  0
LINE
  5
125
100
AcDbEntity
  8
TA900_ISI_GW_B_D
  6
CONTINUOUS
 62
         7
100
AcDbLine
 10
17.1521024026
 20
261.362911062
 30
0.0
 11
6.9438520873
 21
261.362911062
 31
0.0
  0
LINE
  5
126
100
AcDbEntity
  8
TA900_ISI_GW_B_D
  6
CONTINUOUS
 62
         7
100
AcDbLine
 10
17.1521024026
 20
315.3369920035
 30
0.0
 11
6.9438520873
 21
315.3369920035
 31
0.0
  0
LINE
  5
127
100
AcDbEntity
  8
TA900_ISI_GW_B_D
  6
CONTINUOUS
 62
         7
100
AcDbLine
 10
17.3515290549
 20
288.3499515327
 30
0.0
 11
6.744425435
 21
288.3499515327
 31
0.0
  0
LINE
  5
128
100
AcDbEntity
  8
TA900_ISI_GW_B_D
  6
CONTINUOUS
 62
         7
100
AcDbLine
 10
17.3515290549
 20
250.7324331147
 30
0.0
 11
6.744425435
 21
250.7324331147
 31
0.0
  0
ARC
  5
129
100
AcDbEntity
  8
TA900_ISI_GW_B_D
  6
CONTINUOUS
 62
         7
100
AcDbCircle
 10
147.6537690951
 20
255.8028541051
 30
0.0
 40
14.0934744936
100
AcDbArc
 50
156.7644040266
 51
201.0861224681
  0
ARC
  5
12A
100
AcDbEntity
  8
TA900_ISI_GW_B_D
  6
CONTINUOUS
 62
         7
100
AcDbCircle
 10
19.8942107672
 20
255.8028541051
 30
0.0
 40
14.0934744936
100
AcDbArc
 50
156.7644040266
 51
201.0861224681
  0
ARC
  5
12B
100
AcDbEntity
  8
TA900_ISI_GW_B_D
  6
CONTINUOUS
 62
         7
100
AcDbCircle
 10
93.4728223572
 20
275.4965929476
 30
0.0
 40
87.6756731347
100
AcDbArc
 50
171.5699880566
 51
189.2767959788
  0
ARC
  5
12C
100
AcDbEntity
  8
TA900_ISI_GW_B_D
  6
CONTINUOUS
 62
         7
100
AcDbCircle
 10
93.4728223572
 20
301.2033101179
 30
0.0
 40
87.6756731347
100
AcDbArc
 50
170.7232040212
 51
188.4300119434
  0
ARC
  5
12D
100
AcDbEntity
  8
TA900_ISI_GW_B_D
  6
CONTINUOUS
 62
         7
100
AcDbCircle
 10
221.2323806852
 20
275.4965929476
 30
0.0
 40
87.6756731347
100
AcDbArc
 50
171.5699880566
 51
189.2767959788
  0
ARC
  5
12E
100
AcDbEntity
  8
TA900_ISI_GW_B_D
  6
CONTINUOUS
 62
         7
100
AcDbCircle
 10
221.2323806852
 20
301.2033101179
 30
0.0
 40
87.6756731347
100
AcDbArc
 50
170.7232040212
 51
188.4300119434
  0
ARC
  5
12F
100
AcDbEntity
  8
TA900_ISI_GW_B_D
  6
CONTINUOUS
 62
         7
100
AcDbCircle
 10
-69.3768678673
 20
301.2033101179
 30
0.0
 40
87.6756731347
100
AcDbArc
 50
351.5699880566
 51
9.2767959788
  0
ARC
  5
130
100
AcDbEntity
  8
TA900_ISI_GW_B_D
  6
CONTINUOUS
 62
         7
100
AcDbCircle
 10
-69.3768678673
 20
275.4965929476
 30
0.0
 40
87.6756731347
100
AcDbArc
 50
350.7232040212
 51
8.4300119434
  0
ARC
  5
131
100
AcDbEntity
  8
TA900_ISI_GW_B_D
  6
CONTINUOUS
 62
         7
100
AcDbCircle
 10
4.2017437228
 20
255.8028541051
 30
0.0
 40
14.0934744936
100
AcDbArc
 50
338.9138775319
 51
23.2355959734
  0
LINE
  5
132
100
AcDbEntity
  8
TA900_ISI_GW_B_D
  6
CONTINUOUS
 62
         7
100
AcDbLine
 10
145.1110873829
 20
325.9674699507
 30
0.0
 11
134.503983763
 21
325.9674699507
 31
0.0
  0
ARC
  5
133
100
AcDbEntity
  8
TA900_ISI_GW_B_D
  6
CONTINUOUS
 62
         7
100
AcDbCircle
 10
147.6537690951
 20
320.8970489604
 30
0.0
 40
14.0934744936
100
AcDbArc
 50
158.9138775319
 51
203.2355959734
  0
ARC
  5
134
100
AcDbEntity
  8
TA900_ISI_GW_B_D
  6
CONTINUOUS
 62
         7
100
AcDbCircle
 10
58.3826904607
 20
275.4965929476
 30
0.0
 40
87.6756731347
100
AcDbArc
 50
350.7232040212
 51
8.4300119434
  0
ARC
  5
135
100
AcDbEntity
  8
TA900_ISI_GW_B_D
  6
CONTINUOUS
 62
         7
100
AcDbCircle
 10
131.9613020507
 20
255.8028541051
 30
0.0
 40
14.0934744936
100
AcDbArc
 50
338.9138775319
 51
23.2355959734
  0
ARC
  5
136
100
AcDbEntity
  8
TA900_ISI_GW_B_D
  6
CONTINUOUS
 62
         7
100
AcDbCircle
 10
58.3826904607
 20
301.2033101179
 30
0.0
 40
87.6756731347
100
AcDbArc
 50
351.5699880566
 51
9.2767959788
  0
LINE
  5
137
100
AcDbEntity
  8
TA900_ISI_GW_B_D
  6
CONTINUOUS
 62
         7
100
AcDbLine
 10
144.9116607306
 20
315.3369920035
 30
0.0
 11
134.7034104153
 21
315.3369920035
 31
0.0
  0
LINE
  5
138
100
AcDbEntity
  8
TA900_ISI_GW_B_D
  6
CONTINUOUS
 62
         7
100
AcDbLine
 10
145.1110873829
 20
250.7324331147
 30
0.0
 11
134.503983763
 21
250.7324331147
 31
0.0
  0
LINE
  5
139
100
AcDbEntity
  8
TA900_ISI_GW_B_D
  6
CONTINUOUS
 62
         7
100
AcDbLine
 10
145.1110873829
 20
288.3499515327
 30
0.0
 11
134.503983763
 21
288.3499515327
 31
0.0
  0
LINE
  5
13A
100
AcDbEntity
  8
TA900_ISI_GW_B_D
  6
CONTINUOUS
 62
         7
100
AcDbLine
 10
144.9116607306
 20
261.362911062
 30
0.0
 11
134.7034104153
 21
261.362911062
 31
0.0
  0
LINE
  5
13B
100
AcDbEntity
  8
TA900_ISI_GW_B_D
  6
CONTINUOUS
 62
         7
100
AcDbLine
 10
146.4277564089
 20
254.3499515327
 30
0.0
 11
146.4277564089
 21
322.3499515327
 31
0.0
  0
LINE
  5
13C
100
AcDbEntity
  8
TA900_ISI_GW_B_D
  6
CONTINUOUS
 62
         7
100
AcDbLine
 10
132.6777564089
 20
320.9499515327
 30
0.0
 11
132.6777564089
 21
255.7499515327
 31
0.0
  0
LINE
  5
13D
100
AcDbEntity
  8
TA900_ISI_GW_B_D
  6
CONTINUOUS
 62
         7
100
AcDbLine
 10
19.1777564089
 20
320.9499515327
 30
0.0
 11
19.1777564089
 21
255.7499515327
 31
0.0
  0
LINE
  5
13E
100
AcDbEntity
  8
TA900_ISI_GW_B_D
  6
CONTINUOUS
 62
         7
100
AcDbLine
 10
5.4277564089
 20
254.3499515327
 30
0.0
 11
5.4277564089
 21
322.3499515327
 31
0.0
  0
LINE
  5
13F
100
AcDbEntity
  8
TA900_ISI_GW_B_D
  6
CONTINUOUS
 62
         7
100
AcDbLine
 10
123.0502563426
 20
320.9499515327
 30
0.0
 11
123.0502563426
 21
255.7499515327
 31
0.0
  0
LINE
  5
140
100
AcDbEntity
  8
TA900_ISI_GW_B_D
  6
CONTINUOUS
 62
         7
100
AcDbLine
 10
28.8052564753
 20
255.7499515327
 30
0.0
 11
28.8052564753
 21
320.9499515327
 31
0.0
  0
ARC
  5
141
100
AcDbEntity
  8
TA900_ISI_GW_B_D
  6
CONTINUOUS
 62
         7
100
AcDbCircle
 10
120.7418200613
 20
243.5358878804
 30
0.0
 40
5.0
100
AcDbArc
 50
290.0843263802
 51
339.9156736198
  0
ARC
  5
142
100
AcDbEntity
  8
TA900_ISI_GW_B_D
  6
CONTINUOUS
 62
         7
100
AcDbCircle
 10
-1.8222435911
 20
288.3499515327
 30
0.0
 40
135.5
100
AcDbArc
 50
339.9156736198
 51
346.0748889222
  0
ARC
  5
143
100
AcDbEntity
  8
TA900_ISI_GW_B_D
  6
CONTINUOUS
 62
         7
100
AcDbCircle
 10
-1.8222435911
 20
288.3499515327
 30
0.0
 40
135.5
100
AcDbArc
 50
13.9228443729
 51
20.0843263802
  0
ARC
  5
144
100
AcDbEntity
  8
TA900_ISI_GW_B_D
  6
CONTINUOUS
 62
         7
100
AcDbCircle
 10
19.8942107672
 20
320.8970489604
 30
0.0
 40
14.0934744936
100
AcDbArc
 50
158.9138775319
 51
203.2355959734
  0
ENDBLK
  5
145
100
AcDbEntity
  8
TA900_ISI_GW_B_D
  6
CONTINUOUS
 62
         7
100
AcDbBlockEnd
  0
BLOCK
  5
1B3
100
AcDbEntity
  8
0
 62
         1
 48
0.0
100
AcDbBlockBegin
  2
SE4
 70
         0
 10
0.0
 20
0.0
 30
0.0
  3
SE4
  1

  0
ENDBLK
  5
1B4
100
AcDbEntity
  8
0
 62
         1
 48
0.0
100
AcDbBlockEnd
  0
BLOCK
  5
148
100
AcDbEntity
  8
0
 62
         1
 48
0.0
100
AcDbBlockBegin
  2
SE5
 70
         0
 10
0.0
 20
0.0
 30
0.0
  3
SE5
  1

  0
SPLINE
  5
149
100
AcDbEntity
  8
TA900_ISI_GW_B_D
  6
CONTINUOUS
 62
         7
100
AcDbSpline
210
0.0
220
0.0
230
1.0
 70
         8
 71
         3
 72
        22
 73
        18
 74
         0
 42
0.0
 43
0.0
 40
0.0
 40
0.0
 40
0.0
 40
0.0
 40
0.1250000000000001
 40
0.1250000000000001
 40
0.2500000000000002
 40
0.2500000000000002
 40
0.3750000000000003
 40
0.3750000000000003
 40
0.5000000000000004
 40
0.5000000000000004
 40
0.6250000000000003
 40
0.6250000000000003
 40
0.7500000000000002
 40
0.7500000000000002
 40
0.8750000000000001
 40
0.8750000000000001
 40
1.0
 40
1.0
 40
1.0
 40
1.0
 10
228.62358590912686
 20
317.251405697861
 30
0.0
 10
228.97398163221257
 20
316.68951221358026
 30
0.0
 10
229.31029989115837
 20
316.31736706003079
 30
0.0
 10
229.94855709563288
 20
315.95173981071281
 30
0.0
 10
230.24194710127856
 20
315.96748703709272
 30
0.0
 10
230.74128837482527
 20
316.40231707454416
 30
0.0
 10
230.94735268790552
 20
316.82659295440658
 30
0.0
 10
231.22687579122407
 20
318.04464203088554
 30
0.0
 10
231.30246472627374
 20
318.85482372895973
 30
0.0
 10
231.30368322889308
 20
320.75353383744101
 30
0.0
 10
231.2293100140383
 20
321.86867183820613
 30
0.0
 10
230.95152045728028
 20
324.24876031753081
 30
0.0
 10
230.74517205844742
 20
325.54516342671383
 30
0.0
 10
230.2476796874171
 20
328.15409440801653
 30
0.0
 10
229.95050300696823
 20
329.50109726023788
 30
0.0
 10
229.31691210341586
 20
332.0917294054583
 30
0.0
 10
228.97405334873534
 20
333.36431358662878
 30
0.0
 10
228.62358590912686
 20
334.55553503884568
 30
0.0
  0
LINE
  5
14A
100
AcDbEntity
  8
TA900_ISI_GW_B_D
  6
CONTINUOUS
 62
         7
100
AcDbLine
 10
228.6235859091
 20
300.5858187323
 30
0.0
 11
209.0058959087
 21
300.5858187323
 31
0.0
  0
LINE
  5
14B
100
AcDbEntity
  8
TA900_ISI_GW_B_D
  6
CONTINUOUS
 62
         7
100
AcDbLine
 10
209.0058959087
 20
276.1140843332
 30
0.0
 11
228.6235859091
 21
276.1140843332
 31
0.0
  0
ARC
  5
14C
100
AcDbEntity
  8
TA900_ISI_GW_B_D
  6
CONTINUOUS
 62
         7
100
AcDbCircle
 10
202.1718062475
 20
288.3499515327
 30
0.0
 40
29.1446923709
100
AcDbArc
 50
335.1760343823
 51
24.8239656177
  0
SPLINE
  5
14D
100
AcDbEntity
  8
TA900_ISI_GW_B_D
  6
CONTINUOUS
 62
         7
100
AcDbSpline
210
0.0
220
0.0
230
1.0
 70
         8
 71
         3
 72
        22
 73
        18
 74
         0
 42
0.0
 43
0.0
 40
0.0
 40
0.0
 40
0.0
 40
0.0
 40
0.1250000000000002
 40
0.1250000000000002
 40
0.2500000000000004
 40
0.2500000000000004
 40
0.3750000000000007
 40
0.3750000000000007
 40
0.5000000000000009
 40
0.5000000000000009
 40
0.6250000000000007
 40
0.6250000000000007
 40
0.7500000000000004
 40
0.7500000000000004
 40
0.8750000000000002
 40
0.8750000000000002
 40
1.0
 40
1.0
 40
1.0
 40
1.0
 10
228.62358590912686
 20
242.1443680266116
 30
0.0
 10
228.97398163221254
 20
243.3353457179231
 30
0.0
 10
229.31029989115837
 20
244.5823198704293
 30
0.0
 10
229.94855709563288
 20
247.18968281727453
 30
0.0
 10
230.24194710127853
 20
248.51845069153532
 30
0.0
 10
230.74128837482527
 20
251.13171998163824
 30
0.0
 10
230.94735268790552
 20
252.42274876308485
 30
0.0
 10
231.22687579122405
 20
254.80323104423803
 30
0.0
 10
231.30246472627371
 20
255.91981587516426
 30
0.0
 10
231.30368322889311
 20
257.82350314040275
 30
0.0
 10
231.2293100140383
 20
258.63722495480971
 30
0.0
 10
230.95152045728034
 20
259.86240353393674
 30
0.0
 10
230.74517205844748
 20
260.29109572462949
 30
0.0
 10
230.24767968741716
 20
260.73047294123353
 30
0.0
 10
229.95050300696826
 20
260.74763677341707
 30
0.0
 10
229.31691210341586
 20
260.38794301739773
 30
0.0
 10
228.97405334873534
 20
260.01050585626831
 30
0.0
 10
228.62358590912686
 20
259.4484973675963
 30
0.0
  0
LINE
  5
14E
100
AcDbEntity
  8
TA900_ISI_GW_B_D
  6
CONTINUOUS
 62
         7
100
AcDbLine
 10
228.6235859091
 20
235.2412558806
 30
0.0
 11
209.0058959087
 21
235.2412558806
 31
0.0
  0
ARC
  5
14F
100
AcDbEntity
  8
TA900_ISI_GW_B_D
  6
CONTINUOUS
 62
         7
100
AcDbCircle
 10
380.7418332074
 20
192.6151756226
 30
0.0
 40
157.9776689259
100
AcDbArc
 50
161.0758253153
 51
164.3462384006
  0
LINE
  5
150
100
AcDbEntity
  8
TA900_ISI_GW_B_D
  6
CONTINUOUS
 62
         7
100
AcDbLine
 10
236.4370524297
 20
311.3499515327
 30
0.0
 11
236.4370524297
 21
265.3499515327
 31
0.0
  0
LINE
  5
151
100
AcDbEntity
  8
TA900_ISI_GW_B_D
  6
CONTINUOUS
 62
         7
100
AcDbLine
 10
228.6235859091
 20
341.4586471849
 30
0.0
 11
228.6235859091
 21
334.5555350388
 31
0.0
  0
LINE
  5
152
100
AcDbEntity
  8
TA900_ISI_GW_B_D
  6
CONTINUOUS
 62
         7
100
AcDbLine
 10
231.4370524297
 20
332.3499515327
 30
0.0
 11
231.4370524297
 21
244.3499515327
 31
0.0
  0
LINE
  5
153
100
AcDbEntity
  8
TA900_ISI_GW_B_D
  6
CONTINUOUS
 62
         7
100
AcDbLine
 10
228.6235859091
 20
317.2514056979
 30
0.0
 11
228.6235859091
 21
300.5858187323
 31
0.0
  0
LINE
  5
154
100
AcDbEntity
  8
TA900_ISI_GW_B_D
  6
CONTINUOUS
 62
         7
100
AcDbLine
 10
228.6235859091
 20
276.1140843332
 30
0.0
 11
228.6235859091
 21
259.4484973676
 31
0.0
  0
LINE
  5
155
100
AcDbEntity
  8
TA900_ISI_GW_B_D
  6
CONTINUOUS
 62
         7
100
AcDbLine
 10
228.6235859091
 20
242.1443680266
 30
0.0
 11
228.6235859091
 21
235.2412558806
 31
0.0
  0
LINE
  5
156
100
AcDbEntity
  8
TA900_ISI_GW_B_D
  6
CONTINUOUS
 62
         7
100
AcDbLine
 10
209.0058959087
 20
242.1443680266
 30
0.0
 11
209.0058959087
 21
235.2412558806
 31
0.0
  0
LINE
  5
157
100
AcDbEntity
  8
TA900_ISI_GW_B_D
  6
CONTINUOUS
 62
         7
100
AcDbLine
 10
228.6235859091
 20
259.4484973676
 30
0.0
 11
209.0058959087
 21
259.4484973676
 31
0.0
  0
SPLINE
  5
158
100
AcDbEntity
  8
TA900_ISI_GW_B_D
  6
CONTINUOUS
 62
         7
100
AcDbSpline
210
0.0
220
0.0
230
1.0
 70
         8
 71
         3
 72
        20
 73
        16
 74
         0
 42
0.0
 43
0.0
 40
0.0
 40
0.0
 40
0.0
 40
0.0
 40
0.1250000000000004
 40
0.1250000000000004
 40
0.2500000000000007
 40
0.2500000000000007
 40
0.5000000000000009
 40
0.5000000000000009
 40
0.6250000000000007
 40
0.6250000000000007
 40
0.7500000000000004
 40
0.7500000000000004
 40
0.8750000000000003
 40
0.8750000000000003
 40
1.0
 40
1.0
 40
1.0
 40
1.0
 10
209.00589590867858
 20
259.4484973675963
 30
0.0
 10
208.63733120747631
 20
260.00766275246991
 30
0.0
 10
208.29669287007303
 20
260.38052950479926
 30
0.0
 10
207.6712545254058
 20
260.74794169945869
 30
0.0
 10
207.39550424692627
 20
260.73307793898709
 30
0.0
 10
206.70987781262968
 20
260.08018795931378
 30
0.0
 10
206.45146780170748
 20
258.79253784024979
 30
0.0
 10
206.45004188609445
 20
255.94581204921457
 30
0.0
 10
206.51275768216553
 20
254.83209342508277
 30
0.0
 10
206.75377181388578
 20
252.45190375888976
 30
0.0
 10
206.93523948205723
 20
251.15337972500157
 30
0.0
 10
207.39014439508895
 20
248.5404125430266
 30
0.0
 10
207.66962960271402
 20
247.19063938900393
 30
0.0
 10
208.29009027387468
 20
244.59984404352059
 30
0.0
 10
208.63725542275381
 20
243.32980699670358
 30
0.0
 10
209.00589590867853
 20
242.1443680266116
 30
0.0
  0
LINE
  5
159
100
AcDbEntity
  8
TA900_ISI_GW_B_D
  6
CONTINUOUS
 62
         7
100
AcDbLine
 10
209.0058959087
 20
276.1140843332
 30
0.0
 11
209.0058959087
 21
259.4484973676
 31
0.0
  0
LINE
  5
15A
100
AcDbEntity
  8
TA900_ISI_GW_B_D
  6
CONTINUOUS
 62
         7
100
AcDbLine
 10
209.0058959087
 20
242.1443680266
 30
0.0
 11
228.6235859091
 21
242.1443680266
 31
0.0
  0
LINE
  5
15B
100
AcDbEntity
  8
TA900_ISI_GW_B_D
  6
CONTINUOUS
 62
         7
100
AcDbLine
 10
209.0058959087
 20
317.2514056979
 30
0.0
 11
228.6235859091
 21
317.2514056979
 31
0.0
  0
ARC
  5
15C
100
AcDbEntity
  8
TA900_ISI_GW_B_D
  6
CONTINUOUS
 62
         7
100
AcDbCircle
 10
316.0545079832
 20
336.3704927196
 30
0.0
 40
9.1706835676
100
AcDbArc
 50
170.6528561401
 51
189.3471438599
  0
LINE
  5
15D
100
AcDbEntity
  8
TA900_ISI_GW_B_D
  6
CONTINUOUS
 62
         7
100
AcDbLine
 10
285.9370524297
 20
239.2499515327
 30
0.0
 11
293.9370524297
 21
239.2499515327
 31
0.0
  0
LINE
  5
15E
100
AcDbEntity
  8
TA900_ISI_GW_B_D
  6
CONTINUOUS
 62
         7
100
AcDbLine
 10
285.9370524297
 20
325.4499515327
 30
0.0
 11
293.9370524297
 21
325.4499515327
 31
0.0
  0
LINE
  5
15F
100
AcDbEntity
  8
TA900_ISI_GW_B_D
  6
CONTINUOUS
 62
         7
100
AcDbLine
 10
274.4370524297
 20
282.3499515327
 30
0.0
 11
275.4370524297
 21
282.3499515327
 31
0.0
  0
LINE
  5
160
100
AcDbEntity
  8
TA900_ISI_GW_B_D
  6
CONTINUOUS
 62
         7
100
AcDbLine
 10
275.4370524297
 20
266.3499515327
 30
0.0
 11
287.9370524297
 21
266.3499515327
 31
0.0
  0
LINE
  5
161
100
AcDbEntity
  8
TA900_ISI_GW_B_D
  6
CONTINUOUS
 62
         7
100
AcDbLine
 10
293.9370524297
 20
251.2499515327
 30
0.0
 11
285.9370524297
 21
251.2499515327
 31
0.0
  0
LINE
  5
162
100
AcDbEntity
  8
TA900_ISI_GW_B_D
  6
CONTINUOUS
 62
         7
100
AcDbLine
 10
287.9370524297
 20
234.3499515327
 30
0.0
 11
293.9370524297
 21
234.3499515327
 31
0.0
  0
LINE
  5
163
100
AcDbEntity
  8
TA900_ISI_GW_B_D
  6
CONTINUOUS
 62
         7
100
AcDbLine
 10
293.9370524297
 20
337.4499515327
 30
0.0
 11
285.9370524297
 21
337.4499515327
 31
0.0
  0
LINE
  5
164
100
AcDbEntity
  8
TA900_ISI_GW_B_D
  6
CONTINUOUS
 62
         7
100
AcDbLine
 10
275.4370524297
 20
294.3499515327
 30
0.0
 11
274.4370524297
 21
294.3499515327
 31
0.0
  0
LINE
  5
165
100
AcDbEntity
  8
TA900_ISI_GW_B_D
  6
CONTINUOUS
 62
         7
100
AcDbLine
 10
287.9370524297
 20
310.3499515327
 30
0.0
 11
275.4370524297
 21
310.3499515327
 31
0.0
  0
LINE
  5
166
100
AcDbEntity
  8
TA900_ISI_GW_B_D
  6
CONTINUOUS
 62
         7
100
AcDbLine
 10
299.9370524297
 20
346.0999515327
 30
0.0
 11
293.9370524297
 21
346.0999515327
 31
0.0
  0
LINE
  5
167
100
AcDbEntity
  8
TA900_ISI_GW_B_D
  6
CONTINUOUS
 62
         7
100
AcDbLine
 10
293.9370524297
 20
230.5999515327
 30
0.0
 11
299.9370524297
 21
230.5999515327
 31
0.0
  0
LINE
  5
168
100
AcDbEntity
  8
TA900_ISI_GW_B_D
  6
CONTINUOUS
 62
         7
100
AcDbLine
 10
299.9370524297
 20
230.8499515327
 30
0.0
 11
300.1870524297
 21
230.5999515327
 31
0.0
  0
LINE
  5
169
100
AcDbEntity
  8
TA900_ISI_GW_B_D
  6
CONTINUOUS
 62
         7
100
AcDbLine
 10
300.1870524297
 20
346.0999515327
 30
0.0
 11
299.9370524297
 21
345.8499515327
 31
0.0
  0
LINE
  5
16A
100
AcDbEntity
  8
TA900_ISI_GW_B_D
  6
CONTINUOUS
 62
         7
100
AcDbLine
 10
309.7370524297
 20
230.5999515327
 30
0.0
 11
313.6625080988
 21
245.2499515327
 31
0.0
  0
LINE
  5
16B
100
AcDbEntity
  8
TA900_ISI_GW_B_D
  6
CONTINUOUS
 62
         7
100
AcDbLine
 10
309.7370524297
 20
346.0999515327
 30
0.0
 11
300.1870524297
 21
346.0999515327
 31
0.0
  0
LINE
  5
16C
100
AcDbEntity
  8
TA900_ISI_GW_B_D
  6
CONTINUOUS
 62
         7
100
AcDbLine
 10
300.1870524297
 20
230.5999515327
 30
0.0
 11
309.7370524297
 21
230.5999515327
 31
0.0
  0
LINE
  5
16D
100
AcDbEntity
  8
TA900_ISI_GW_B_D
  6
CONTINUOUS
 62
         7
100
AcDbLine
 10
236.4370524297
 20
265.3499515327
 30
0.0
 11
274.4370524297
 21
265.3499515327
 31
0.0
  0
LINE
  5
16E
100
AcDbEntity
  8
TA900_ISI_GW_B_D
  6
CONTINUOUS
 62
         7
100
AcDbLine
 10
236.4370524297
 20
311.3499515327
 30
0.0
 11
231.4370524297
 21
320.0102055706
 31
0.0
  0
LINE
  5
16F
100
AcDbEntity
  8
TA900_ISI_GW_B_D
  6
CONTINUOUS
 62
         7
100
AcDbLine
 10
231.4370524297
 20
332.3499515327
 30
0.0
 11
231.2986262144
 21
332.8665652013
 31
0.0
  0
ARC
  5
170
100
AcDbEntity
  8
TA900_ISI_GW_B_D
  6
CONTINUOUS
 62
         7
100
AcDbCircle
 10
401.4370524297
 20
288.3499515327
 30
0.0
 40
200.0
100
AcDbArc
 50
180.0
 51
192.8599287506
  0
LINE
  5
171
100
AcDbEntity
  8
TA900_ISI_GW_B_D
  6
CONTINUOUS
 62
         7
100
AcDbLine
 10
313.6625080988
 20
331.4499515327
 30
0.0
 11
309.7370524297
 21
346.0999515327
 31
0.0
  0
LINE
  5
172
100
AcDbEntity
  8
TA900_ISI_GW_B_D
  6
CONTINUOUS
 62
         7
100
AcDbLine
 10
228.6235859091
 20
334.5555350388
 30
0.0
 11
209.0058959087
 21
334.5555350388
 31
0.0
  0
LINE
  5
173
100
AcDbEntity
  8
TA900_ISI_GW_B_D
  6
CONTINUOUS
 62
         7
100
AcDbLine
 10
209.0058959087
 20
341.4586471849
 30
0.0
 11
228.6235859091
 21
341.4586471849
 31
0.0
  0
SPLINE
  5
174
100
AcDbEntity
  8
TA900_ISI_GW_B_D
  6
CONTINUOUS
 62
         7
100
AcDbSpline
210
0.0
220
0.0
230
1.0
 70
         8
 71
         3
 72
        20
 73
        16
 74
         0
 42
0.0
 43
0.0
 40
0.0
 40
0.0
 40
0.0
 40
0.0
 40
0.1250000000000003
 40
0.1250000000000003
 40
0.2500000000000005
 40
0.2500000000000005
 40
0.5000000000000004
 40
0.5000000000000004
 40
0.6250000000000003
 40
0.6250000000000003
 40
0.7500000000000002
 40
0.7500000000000002
 40
0.8750000000000002
 40
0.8750000000000002
 40
1.0
 40
1.0
 40
1.0
 40
1.0
 10
209.00589590867858
 20
334.55553503884568
 30
0.0
 10
208.63733120747625
 20
333.37033977004739
 30
0.0
 10
208.29669287007297
 20
332.12603444803426
 30
0.0
 10
207.6712545254058
 20
329.5176222280993
 30
0.0
 10
207.39550424692621
 20
328.18712732915532
 30
0.0
 10
206.70987781262963
 20
324.25826182276484
 30
0.0
 10
206.45146780170748
 20
321.72961343469814
 30
0.0
 10
206.4500418860944
 20
318.87604938381185
 30
0.0
 10
206.51275768216553
 20
318.06322768693451
 30
0.0
 10
206.75377181388572
 20
316.83778559317193
 30
0.0
 10
206.93523948205717
 20
316.40822476397017
 30
0.0
 10
207.39014439508895
 20
315.96887581519849
 30
0.0
 10
207.66962960271405
 20
315.95255696805896
 30
0.0
 10
208.29009027387474
 20
316.31396513296022
 30
0.0
 10
208.63725542275381
 20
316.69212533672038
 30
0.0
 10
209.00589590867858
 20
317.251405697861
 30
0.0
  0
LINE
  5
175
100
AcDbEntity
  8
TA900_ISI_GW_B_D
  6
CONTINUOUS
 62
         7
100
AcDbLine
 10
209.0058959087
 20
341.4586471849
 30
0.0
 11
209.0058959087
 21
334.5555350388
 31
0.0
  0
LINE
  5
176
100
AcDbEntity
  8
TA900_ISI_GW_B_D
  6
CONTINUOUS
 62
         7
100
AcDbLine
 10
209.0058959087
 20
317.2514056979
 30
0.0
 11
209.0058959087
 21
300.5858187323
 31
0.0
  0
ARC
  5
177
100
AcDbEntity
  8
TA900_ISI_GW_B_D
  6
CONTINUOUS
 62
         7
100
AcDbCircle
 10
380.7418332074
 20
384.0847274429
 30
0.0
 40
157.9776689259
100
AcDbArc
 50
195.6537615994
 51
198.9241746847
  0
LINE
  5
178
100
AcDbEntity
  8
TA900_ISI_GW_B_D
  6
CONTINUOUS
 62
         7
100
AcDbLine
 10
274.4370524297
 20
311.3499515327
 30
0.0
 11
274.4370524297
 21
265.3499515327
 31
0.0
  0
SPLINE
  5
179
100
AcDbEntity
  8
TA900_ISI_GW_B_D
  6
CONTINUOUS
 62
         7
100
AcDbSpline
210
0.0
220
0.0
230
1.0
 70
         8
 71
         3
 72
        14
 73
        10
 74
         0
 42
0.0
 43
0.0
 40
0.5004831504501357
 40
0.5004831504501357
 40
0.5004831504501357
 40
0.5004831504501357
 40
0.6250000000000002
 40
0.6250000000000002
 40
0.7500000000000001
 40
0.7500000000000001
 40
0.8750000000000001
 40
0.8750000000000001
 40
1.0
 40
1.0
 40
1.0
 40
1.0
 10
206.45051451171983
 20
332.84995180448215
 30
0.0
 10
206.45052756812598
 20
332.84999678422281
 30
0.0
 10
206.51322346651045
 20
333.06269337843815
 30
0.0
 10
206.75377181388578
 20
333.87764519042531
 30
0.0
 10
206.93523948205717
 20
334.49209496506069
 30
0.0
 10
207.39014439508901
 20
336.02907515746944
 30
0.0
 10
207.66962960271405
 20
336.97196974026895
 30
0.0
 10
208.29009027387468
 20
339.05949286190463
 30
0.0
 10
208.63725542275381
 20
340.22494431452077
 30
0.0
 10
209.00589590867858
 20
341.45864718490253
 30
0.0
  0
SPLINE
  5
17A
100
AcDbEntity
  8
TA900_ISI_GW_B_D
  6
CONTINUOUS
 62
         7
100
AcDbSpline
210
0.0
220
0.0
230
1.0
 70
         8
 71
         3
 72
        14
 73
        10
 74
         0
 42
0.0
 43
0.0
 40
0.0
 40
0.0
 40
0.0
 40
0.0
 40
0.1250000000000001
 40
0.1250000000000001
 40
0.2500000000000002
 40
0.2500000000000002
 40
0.5000000000000002
 40
0.5000000000000002
 40
0.5004819485909668
 40
0.5004819485909668
 40
0.5004819485909668
 40
0.5004819485909668
 10
209.00589590867858
 20
235.24125588055472
 30
0.0
 10
208.63733120747631
 20
236.47470512760114
 30
0.0
 10
208.29669287007303
 20
237.6182184677142
 30
0.0
 10
207.6712545254058
 20
239.72244409089444
 30
0.0
 10
207.39550424692615
 20
240.65273579044839
 30
0.0
 10
206.70987781262963
 20
242.96920030039124
 30
0.0
 10
206.45146780170754
 20
243.84671859184388
 30
0.0
 10
206.45051535871738
 20
243.84994839286409
 30
0.0
 10
206.45051446550738
 20
243.84995142042544
 30
0.0
 10
206.4505145113593
 20
243.84995126221816
 30
0.0
  0
ARC
  5
17B
100
AcDbEntity
  8
TA900_ISI_GW_B_D
  6
CONTINUOUS
 62
         7
100
AcDbCircle
 10
236.384458606
 20
288.3499515327
 30
0.0
 40
29.9883667694
100
AcDbArc
 50
155.9194562974
 51
204.0805437026
  0
ARC
  5
17C
100
AcDbEntity
  8
TA900_ISI_GW_B_D
  6
CONTINUOUS
 62
         7
100
AcDbCircle
 10
477.1774907772
 20
290.6772492406
 30
0.0
 40
177.8920518016
100
AcDbArc
 50
196.941641965
 51
199.737885794
  0
ARC
  5
17D
100
AcDbEntity
  8
TA900_ISI_GW_B_D
  6
CONTINUOUS
 62
         7
100
AcDbCircle
 10
-119.8594648277
 20
286.1564325006
 30
0.0
 40
429.6368937494
100
AcDbArc
 50
1.8900164388
 51
6.5118545062
  0
LINE
  5
17E
100
AcDbEntity
  8
TA900_ISI_GW_B_D
  6
CONTINUOUS
 62
         7
100
AcDbLine
 10
300.1870524297
 20
238.8399467443
 30
0.0
 11
300.1870524297
 21
230.5999515327
 31
0.0
  0
LINE
  5
17F
100
AcDbEntity
  8
TA900_ISI_GW_B_D
  6
CONTINUOUS
 62
         7
100
AcDbLine
 10
309.8576295662
 20
331.4499515327
 30
0.0
 11
342.4370524297
 21
331.4499515327
 31
0.0
  0
LINE
  5
180
100
AcDbEntity
  8
TA900_ISI_GW_B_D
  6
CONTINUOUS
 62
         7
100
AcDbLine
 10
309.8576295662
 20
245.2499515327
 30
0.0
 11
342.4370524297
 21
245.2499515327
 31
0.0
  0
ARC
  5
181
100
AcDbEntity
  8
TA900_ISI_GW_B_D
  6
CONTINUOUS
 62
         7
100
AcDbCircle
 10
342.4370524297
 20
288.3499515327
 30
0.0
 40
43.1
100
AcDbArc
 50
270.0
 51
90.0
  0
ARC
  5
182
100
AcDbEntity
  8
TA900_ISI_GW_B_D
  6
CONTINUOUS
 62
         7
100
AcDbCircle
 10
-122.6322380663
 20
290.740787057
 30
0.0
 40
432.4141718356
100
AcDbArc
 50
353.5038355094
 51
358.0948729716
  0
LINE
  5
183
100
AcDbEntity
  8
TA900_ISI_GW_B_D
  6
CONTINUOUS
 62
         7
100
AcDbLine
 10
300.1870524297
 20
334.8810291181
 30
0.0
 11
300.1870524297
 21
241.8188739474
 31
0.0
  0
ARC
  5
184
100
AcDbEntity
  8
TA900_ISI_GW_B_D
  6
CONTINUOUS
 62
         7
100
AcDbCircle
 10
316.0478882524
 20
240.3294103458
 30
0.0
 40
9.1641517939
100
AcDbArc
 50
170.6461341344
 51
189.3538658656
  0
LINE
  5
185
100
AcDbEntity
  8
TA900_ISI_GW_B_D
  6
CONTINUOUS
 62
         7
100
AcDbLine
 10
300.1870524297
 20
337.8599563211
 30
0.0
 11
300.1870524297
 21
346.0999515327
 31
0.0
  0
LINE
  5
186
100
AcDbEntity
  8
TA900_ISI_GW_B_D
  6
CONTINUOUS
 62
         7
100
AcDbLine
 10
300.1870524297
 20
241.8188739474
 30
0.0
 11
300.1870524297
 21
238.8399467443
 31
0.0
  0
LINE
  5
187
100
AcDbEntity
  8
TA900_ISI_GW_B_D
  6
CONTINUOUS
 62
         7
100
AcDbLine
 10
300.1870524297
 20
337.8599563211
 30
0.0
 11
300.1870524297
 21
334.8810291181
 31
0.0
  0
LINE
  5
188
100
AcDbEntity
  8
TA900_ISI_GW_B_D
  6
CONTINUOUS
 62
         7
100
AcDbLine
 10
287.9370524297
 20
325.4499515327
 30
0.0
 11
287.9370524297
 21
321.459704129
 31
0.0
  0
LINE
  5
189
100
AcDbEntity
  8
TA900_ISI_GW_B_D
  6
CONTINUOUS
 62
         7
100
AcDbLine
 10
293.9370524297
 20
255.2401989365
 30
0.0
 11
287.9370524297
 21
255.2401989365
 31
0.0
  0
LINE
  5
18A
100
AcDbEntity
  8
TA900_ISI_GW_B_D
  6
CONTINUOUS
 62
         7
100
AcDbLine
 10
287.9370524297
 20
234.3499515327
 30
0.0
 11
287.9370524297
 21
239.2499515327
 31
0.0
  0
LINE
  5
18B
100
AcDbEntity
  8
TA900_ISI_GW_B_D
  6
CONTINUOUS
 62
         7
100
AcDbLine
 10
287.9370524297
 20
337.4499515327
 30
0.0
 11
287.9370524297
 21
342.3499515327
 31
0.0
  0
LINE
  5
18C
100
AcDbEntity
  8
TA900_ISI_GW_B_D
  6
CONTINUOUS
 62
         7
100
AcDbLine
 10
287.9370524297
 20
255.2401989365
 30
0.0
 11
287.9370524297
 21
251.2499515327
 31
0.0
  0
LINE
  5
18D
100
AcDbEntity
  8
TA900_ISI_GW_B_D
  6
CONTINUOUS
 62
         7
100
AcDbLine
 10
287.9370524297
 20
321.459704129
 30
0.0
 11
293.9370524297
 21
321.459704129
 31
0.0
  0
LINE
  5
18E
100
AcDbEntity
  8
TA900_ISI_GW_B_D
  6
CONTINUOUS
 62
         7
100
AcDbLine
 10
287.9370524297
 20
321.459704129
 30
0.0
 11
287.9370524297
 21
255.2401989365
 31
0.0
  0
LINE
  5
18F
100
AcDbEntity
  8
TA900_ISI_GW_B_D
  6
CONTINUOUS
 62
         7
100
AcDbLine
 10
285.9370524297
 20
325.4499515327
 30
0.0
 11
285.9370524297
 21
337.4499515327
 31
0.0
  0
LINE
  5
190
100
AcDbEntity
  8
TA900_ISI_GW_B_D
  6
CONTINUOUS
 62
         7
100
AcDbLine
 10
285.9370524297
 20
239.2499515327
 30
0.0
 11
285.9370524297
 21
251.2499515327
 31
0.0
  0
LINE
  5
191
100
AcDbEntity
  8
TA900_ISI_GW_B_D
  6
CONTINUOUS
 62
         7
100
AcDbLine
 10
330.4370524297
 20
331.7499515327
 30
0.0
 11
323.1951254842
 21
331.7499515327
 31
0.0
  0
LINE
  5
192
100
AcDbEntity
  8
TA900_ISI_GW_B_D
  6
CONTINUOUS
 62
         7
100
AcDbLine
 10
330.4370524297
 20
331.7499515327
 30
0.0
 11
330.4370524297
 21
331.4499515327
 31
0.0
  0
LINE
  5
193
100
AcDbEntity
  8
TA900_ISI_GW_B_D
  6
CONTINUOUS
 62
         7
100
AcDbLine
 10
323.1951254842
 20
331.7499515327
 30
0.0
 11
323.1951254842
 21
331.4499515327
 31
0.0
  0
LINE
  5
194
100
AcDbEntity
  8
TA900_ISI_GW_B_D
  6
CONTINUOUS
 62
         7
100
AcDbLine
 10
320.4370524297
 20
331.7499515327
 30
0.0
 11
320.4370524297
 21
331.4499515327
 31
0.0
  0
LINE
  5
195
100
AcDbEntity
  8
TA900_ISI_GW_B_D
  6
CONTINUOUS
 62
         7
100
AcDbLine
 10
323.1951254842
 20
331.7499515327
 30
0.0
 11
320.4370524297
 21
331.7499515327
 31
0.0
  0
LINE
  5
196
100
AcDbEntity
  8
TA900_ISI_GW_B_D
  6
CONTINUOUS
 62
         7
100
AcDbLine
 10
274.4370524297
 20
311.3499515327
 30
0.0
 11
236.4370524297
 21
311.3499515327
 31
0.0
  0
LINE
  5
197
100
AcDbEntity
  8
TA900_ISI_GW_B_D
  6
CONTINUOUS
 62
         7
100
AcDbLine
 10
231.4370524297
 20
256.6896974949
 30
0.0
 11
236.4370524297
 21
265.3499515327
 31
0.0
  0
LINE
  5
198
100
AcDbEntity
  8
TA900_ISI_GW_B_D
  6
CONTINUOUS
 62
         7
100
AcDbLine
 10
231.2986262144
 20
243.8333378642
 30
0.0
 11
231.4370524297
 21
244.3499515327
 31
0.0
  0
ARC
  5
199
100
AcDbEntity
  8
TA900_ISI_GW_B_D
  6
CONTINUOUS
 62
         7
100
AcDbCircle
 10
401.4370524297
 20
288.3499515327
 30
0.0
 40
200.0
100
AcDbArc
 50
167.1400532494
 51
180.0
  0
LINE
  5
19A
100
AcDbEntity
  8
TA900_ISI_GW_B_D
  6
CONTINUOUS
 62
         7
100
AcDbLine
 10
309.8576295662
 20
275.5496741546
 30
0.0
 11
309.8576295662
 21
245.2499515327
 31
0.0
  0
LINE
  5
19B
100
AcDbEntity
  8
TA900_ISI_GW_B_D
  6
CONTINUOUS
 62
         7
100
AcDbLine
 10
309.8576295662
 20
331.4499515327
 30
0.0
 11
309.8576295662
 21
301.1470775246
 31
0.0
  0
ARC
  5
19C
100
AcDbEntity
  8
TA900_ISI_GW_B_D
  6
CONTINUOUS
 62
         7
100
AcDbCircle
 10
477.1774907764
 20
286.0226538252
 30
0.0
 40
177.8920518008
100
AcDbArc
 50
160.262114206
 51
163.058358035
  0
LINE
  5
19D
100
AcDbEntity
  8
TA900_ISI_GW_B_D
  6
CONTINUOUS
 62
         7
100
AcDbLine
 10
293.9370524297
 20
342.3499515327
 30
0.0
 11
287.9370524297
 21
342.3499515327
 31
0.0
  0
LINE
  5
19E
100
AcDbEntity
  8
TA900_ISI_GW_B_D
  6
CONTINUOUS
 62
         7
100
AcDbLine
 10
315.4500119589
 20
261.362911062
 30
0.0
 11
342.4370524297
 21
250.7324331147
 31
0.0
  0
LINE
  5
19F
100
AcDbEntity
  8
TA900_ISI_GW_B_D
  6
CONTINUOUS
 62
         7
100
AcDbLine
 10
342.4370524297
 20
325.9674699507
 30
0.0
 11
315.4500119589
 21
315.3369920035
 31
0.0
  0
LINE
  5
1A0
100
AcDbEntity
  8
TA900_ISI_GW_B_D
  6
CONTINUOUS
 62
         7
100
AcDbLine
 10
315.4500119589
 20
315.3369920035
 30
0.0
 11
304.8195340116
 21
288.3499515327
 31
0.0
  0
LINE
  5
1A1
100
AcDbEntity
  8
TA900_ISI_GW_B_D
  6
CONTINUOUS
 62
         7
100
AcDbLine
 10
304.8195340116
 20
288.3499515327
 30
0.0
 11
315.4500119589
 21
261.362911062
 31
0.0
  0
LINE
  5
1A2
100
AcDbEntity
  8
TA900_ISI_GW_B_D
  6
CONTINUOUS
 62
         7
100
AcDbLine
 10
342.4370524297
 20
250.7324331147
 30
0.0
 11
369.4240929004
 21
261.362911062
 31
0.0
  0
LINE
  5
1A3
100
AcDbEntity
  8
TA900_ISI_GW_B_D
  6
CONTINUOUS
 62
         7
100
AcDbLine
 10
369.4240929004
 20
261.362911062
 30
0.0
 11
380.0545708477
 21
288.3499515327
 31
0.0
  0
LINE
  5
1A4
100
AcDbEntity
  8
TA900_ISI_GW_B_D
  6
CONTINUOUS
 62
         7
100
AcDbLine
 10
380.0545708477
 20
288.3499515327
 30
0.0
 11
369.4240929004
 21
315.3369920035
 31
0.0
  0
CIRCLE
  5
1A5
100
AcDbEntity
  8
TA900_ISI_GW_B_D
  6
CONTINUOUS
 62
         7
100
AcDbCircle
 10
342.4370524297
 20
288.3499515327
 30
0.0
 40
34.0
  0
LINE
  5
1A6
100
AcDbEntity
  8
TA900_ISI_GW_B_D
  6
CONTINUOUS
 62
         7
100
AcDbLine
 10
293.9370524297
 20
337.8599563211
 30
0.0
 11
293.9370524297
 21
334.8810291181
 31
0.0
  0
LINE
  5
1A7
100
AcDbEntity
  8
TA900_ISI_GW_B_D
  6
CONTINUOUS
 62
         7
100
AcDbLine
 10
293.9370524297
 20
238.8399467443
 30
0.0
 11
293.9370524297
 21
230.5999515327
 31
0.0
  0
LINE
  5
1A8
100
AcDbEntity
  8
TA900_ISI_GW_B_D
  6
CONTINUOUS
 62
         7
100
AcDbLine
 10
293.9370524297
 20
337.8599563211
 30
0.0
 11
293.9370524297
 21
346.0999515327
 31
0.0
  0
LINE
  5
1A9
100
AcDbEntity
  8
TA900_ISI_GW_B_D
  6
CONTINUOUS
 62
         7
100
AcDbLine
 10
299.9370524297
 20
337.8599563211
 30
0.0
 11
299.9370524297
 21
334.8810291181
 31
0.0
  0
LINE
  5
1AA
100
AcDbEntity
  8
TA900_ISI_GW_B_D
  6
CONTINUOUS
 62
         7
100
AcDbLine
 10
293.9370524297
 20
241.8188739474
 30
0.0
 11
293.9370524297
 21
238.8399467443
 31
0.0
  0
LINE
  5
1AB
100
AcDbEntity
  8
TA900_ISI_GW_B_D
  6
CONTINUOUS
 62
         7
100
AcDbLine
 10
293.9370524297
 20
334.8810291181
 30
0.0
 11
293.9370524297
 21
241.8188739474
 31
0.0
  0
LINE
  5
1AC
100
AcDbEntity
  8
TA900_ISI_GW_B_D
  6
CONTINUOUS
 62
         7
100
AcDbLine
 10
299.9370524297
 20
238.8399467443
 30
0.0
 11
299.9370524297
 21
230.5999515327
 31
0.0
  0
LINE
  5
1AD
100
AcDbEntity
  8
TA900_ISI_GW_B_D
  6
CONTINUOUS
 62
         7
100
AcDbLine
 10
299.9370524297
 20
337.8599563211
 30
0.0
 11
299.9370524297
 21
346.0999515327
 31
0.0
  0
LINE
  5
1AE
100
AcDbEntity
  8
TA900_ISI_GW_B_D
  6
CONTINUOUS
 62
         7
100
AcDbLine
 10
299.9370524297
 20
241.8188739474
 30
0.0
 11
299.9370524297
 21
238.8399467443
 31
0.0
  0
LINE
  5
1AF
100
AcDbEntity
  8
TA900_ISI_GW_B_D
  6
CONTINUOUS
 62
         7
100
AcDbLine
 10
299.9370524297
 20
334.8810291181
 30
0.0
 11
299.9370524297
 21
241.8188739474
 31
0.0
  0
LINE
  5
1B0
100
AcDbEntity
  8
TA900_ISI_GW_B_D
  6
CONTINUOUS
 62
         7
100
AcDbLine
 10
275.4370524297
 20
310.3499515327
 30
0.0
 11
275.4370524297
 21
266.3499515327
 31
0.0
  0
LINE
  5
1B1
100
AcDbEntity
  8
TA900_ISI_GW_B_D
  6
CONTINUOUS
 62
         7
100
AcDbLine
 10
369.4240929004
 20
315.3369920035
 30
0.0
 11
342.4370524297
 21
325.9674699507
 31
0.0
  0
ENDBLK
  5
1B2
100
AcDbEntity
  8
TA900_ISI_GW_B_D
  6
CONTINUOUS
 62
         7
100
AcDbBlockEnd
  0
BLOCK
  5
246
100
AcDbEntity
  8
0
 62
         1
 48
0.0
100
AcDbBlockBegin
  2
SE6
 70
         0
 10
0.0
 20
0.0
 30
0.0
  3
SE6
  1

  0
ENDBLK
  5
247
100
AcDbEntity
  8
0
 62
         1
 48
0.0
100
AcDbBlockEnd
  0
BLOCK
  5
1B5
100
AcDbEntity
  8
0
 62
         1
 48
0.0
100
AcDbBlockBegin
  2
SE7
 70
         0
 10
0.0
 20
0.0
 30
0.0
  3
SE7
  1

  0
LINE
  5
1B6
100
AcDbEntity
  8
TA900_ISI_GW_B_D
  6
CONTINUOUS
 62
         7
100
AcDbLine
 10
349.7583011943
 20
182.6963835598
 30
0.0
 11
349.7583011943
 21
163.0786935593
 31
0.0
  0
ARC
  5
1B7
100
AcDbEntity
  8
TA900_ISI_GW_B_D
  6
CONTINUOUS
 62
         7
100
AcDbCircle
 10
392.3843814522
 20
10.9604462611
 30
0.0
 40
157.9776689258
100
AcDbArc
 50
105.6537615994
 51
108.9241746847
  0
SPLINE
  5
1B8
100
AcDbEntity
  8
TA900_ISI_GW_B_D
  6
CONTINUOUS
 62
         7
100
AcDbSpline
210
0.0
220
0.0
230
1.0
 70
         8
 71
         3
 72
        22
 73
        18
 74
         0
 42
0.0
 43
0.0
 40
0.0
 40
0.0
 40
0.0
 40
0.0
 40
0.1250000000000002
 40
0.1250000000000002
 40
0.2500000000000004
 40
0.2500000000000004
 40
0.3750000000000007
 40
0.3750000000000007
 40
0.5000000000000009
 40
0.5000000000000009
 40
0.6250000000000007
 40
0.6250000000000007
 40
0.7500000000000004
 40
0.7500000000000004
 40
0.8750000000000002
 40
0.8750000000000002
 40
1.0
 40
1.0
 40
1.0
 40
1.0
 10
325.55105970722462
 20
163.07869355934073
 30
0.0
 10
324.98916622294394
 20
162.728297836255
 30
0.0
 10
324.61702106939441
 20
162.39197957730923
 30
0.0
 10
324.25139382007643
 20
161.75372237283469
 30
0.0
 10
324.2671410464564
 20
161.46033236718904
 30
0.0
 10
324.70197108390778
 20
160.96099109364232
 30
0.0
 10
325.12624696377026
 20
160.75492678056202
 30
0.0
 10
326.34429604024922
 20
160.47540367724349
 30
0.0
 10
327.15447773832341
 20
160.39981474219383
 30
0.0
 10
329.05318784680463
 20
160.39859623957446
 30
0.0
 10
330.1683258475698
 20
160.47296945442929
 30
0.0
 10
332.54841432689449
 20
160.75075901118723
 30
0.0
 10
333.84481743607739
 20
160.95710741002011
 30
0.0
 10
336.45374841738021
 20
161.45459978105043
 30
0.0
 10
337.80075126960156
 20
161.7517764614993
 30
0.0
 10
340.39138341482197
 20
162.38536736505171
 30
0.0
 10
341.6639675959924
 20
162.72822611973223
 30
0.0
 10
342.85518904820935
 20
163.07869355934073
 30
0.0
  0
LINE
  5
1B9
100
AcDbEntity
  8
TA900_ISI_GW_B_D
  6
CONTINUOUS
 62
         7
100
AcDbLine
 10
243.5409098899
 20
163.0786935593
 30
0.0
 11
243.5409098899
 21
182.6963835598
 31
0.0
  0
LINE
  5
1BA
100
AcDbEntity
  8
TA900_ISI_GW_B_D
  6
CONTINUOUS
 62
         7
100
AcDbLine
 10
308.8854727416
 20
163.0786935593
 30
0.0
 11
308.8854727416
 21
182.6963835598
 31
0.0
  0
LINE
  5
1BB
100
AcDbEntity
  8
TA900_ISI_GW_B_D
  6
CONTINUOUS
 62
         7
100
AcDbLine
 10
284.4137383426
 20
182.6963835598
 30
0.0
 11
284.4137383426
 21
163.0786935593
 31
0.0
  0
ARC
  5
1BC
100
AcDbEntity
  8
TA900_ISI_GW_B_D
  6
CONTINUOUS
 62
         7
100
AcDbCircle
 10
296.6496055421
 20
189.530473221
 30
0.0
 40
29.1446923709
100
AcDbArc
 50
245.1760343823
 51
294.8239656177
  0
SPLINE
  5
1BD
100
AcDbEntity
  8
TA900_ISI_GW_B_D
  6
CONTINUOUS
 62
         7
100
AcDbSpline
210
0.0
220
0.0
230
1.0
 70
         8
 71
         3
 72
        22
 73
        18
 74
         0
 42
0.0
 43
0.0
 40
0.0
 40
0.0
 40
0.0
 40
0.0
 40
0.125
 40
0.125
 40
0.25
 40
0.25
 40
0.375
 40
0.375
 40
0.5
 40
0.5
 40
0.625
 40
0.625
 40
0.75
 40
0.75
 40
0.875
 40
0.875
 40
1.0
 40
1.0
 40
1.0
 40
1.0
 10
250.44402203597528
 20
163.07869355934073
 30
0.0
 10
251.63499972728675
 20
162.72829783625497
 30
0.0
 10
252.88197387979295
 20
162.39197957730926
 30
0.0
 10
255.48933682663815
 20
161.75372237283466
 30
0.0
 10
256.81810470089897
 20
161.46033236718904
 30
0.0
 10
259.43137399100192
 20
160.96099109364229
 30
0.0
 10
260.7224027724485
 20
160.75492678056202
 30
0.0
 10
263.10288505360171
 20
160.47540367724349
 30
0.0
 10
264.21946988452794
 20
160.39981474219383
 30
0.0
 10
266.12315714976643
 20
160.39859623957443
 30
0.0
 10
266.93687896417339
 20
160.47296945442929
 30
0.0
 10
268.16205754330042
 20
160.75075901118723
 30
0.0
 10
268.59074973399316
 20
160.95710741002011
 30
0.0
 10
269.03012695059721
 20
161.4545997810504
 30
0.0
 10
269.04729078278075
 20
161.7517764614993
 30
0.0
 10
268.68759702676135
 20
162.38536736505168
 30
0.0
 10
268.31015986563193
 20
162.7282261197322
 30
0.0
 10
267.74815137695998
 20
163.07869355934073
 30
0.0
  0
ARC
  5
1BE
100
AcDbEntity
  8
TA900_ISI_GW_B_D
  6
CONTINUOUS
 62
         7
100
AcDbCircle
 10
200.9148296319
 20
10.960446261
 30
0.0
 40
157.977668926
100
AcDbArc
 50
71.0758253153
 51
74.3462384006
  0
LINE
  5
1BF
100
AcDbEntity
  8
TA900_ISI_GW_B_D
  6
CONTINUOUS
 62
         7
100
AcDbLine
 10
319.6496055421
 20
155.2652270388
 30
0.0
 11
273.6496055421
 21
155.2652270388
 31
0.0
  0
LINE
  5
1C0
100
AcDbEntity
  8
TA900_ISI_GW_B_D
  6
CONTINUOUS
 62
         7
100
AcDbLine
 10
250.444022036
 20
163.0786935593
 30
0.0
 11
243.5409098899
 21
163.0786935593
 31
0.0
  0
LINE
  5
1C1
100
AcDbEntity
  8
TA900_ISI_GW_B_D
  6
CONTINUOUS
 62
         7
100
AcDbLine
 10
340.6496055421
 20
160.2652270388
 30
0.0
 11
252.6496055421
 21
160.2652270388
 31
0.0
  0
LINE
  5
1C2
100
AcDbEntity
  8
TA900_ISI_GW_B_D
  6
CONTINUOUS
 62
         7
100
AcDbLine
 10
349.7583011943
 20
163.0786935593
 30
0.0
 11
342.8551890482
 21
163.0786935593
 31
0.0
  0
LINE
  5
1C3
100
AcDbEntity
  8
TA900_ISI_GW_B_D
  6
CONTINUOUS
 62
         7
100
AcDbLine
 10
325.5510597072
 20
163.0786935593
 30
0.0
 11
308.8854727416
 21
163.0786935593
 31
0.0
  0
LINE
  5
1C4
100
AcDbEntity
  8
TA900_ISI_GW_B_D
  6
CONTINUOUS
 62
         7
100
AcDbLine
 10
284.4137383426
 20
163.0786935593
 30
0.0
 11
267.748151377
 21
163.0786935593
 31
0.0
  0
LINE
  5
1C5
100
AcDbEntity
  8
TA900_ISI_GW_B_D
  6
CONTINUOUS
 62
         7
100
AcDbLine
 10
250.444022036
 20
182.6963835598
 30
0.0
 11
250.444022036
 21
163.0786935593
 31
0.0
  0
LINE
  5
1C6
100
AcDbEntity
  8
TA900_ISI_GW_B_D
  6
CONTINUOUS
 62
         7
100
AcDbLine
 10
267.748151377
 20
163.0786935593
 30
0.0
 11
267.748151377
 21
182.6963835598
 31
0.0
  0
LINE
  5
1C7
100
AcDbEntity
  8
TA900_ISI_GW_B_D
  6
CONTINUOUS
 62
         7
100
AcDbLine
 10
250.444022036
 20
182.6963835598
 30
0.0
 11
243.5409098899
 21
182.6963835598
 31
0.0
  0
LINE
  5
1C8
100
AcDbEntity
  8
TA900_ISI_GW_B_D
  6
CONTINUOUS
 62
         7
100
AcDbLine
 10
284.4137383426
 20
182.6963835598
 30
0.0
 11
267.748151377
 21
182.6963835598
 31
0.0
  0
LINE
  5
1C9
100
AcDbEntity
  8
TA900_ISI_GW_B_D
  6
CONTINUOUS
 62
         7
100
AcDbLine
 10
325.5510597072
 20
182.6963835598
 30
0.0
 11
308.8854727416
 21
182.6963835598
 31
0.0
  0
LINE
  5
1CA
100
AcDbEntity
  8
TA900_ISI_GW_B_D
  6
CONTINUOUS
 62
         7
100
AcDbLine
 10
342.8551890482
 20
163.0786935593
 30
0.0
 11
342.8551890482
 21
182.6963835598
 31
0.0
  0
SPLINE
  5
1CB
100
AcDbEntity
  8
TA900_ISI_GW_B_D
  6
CONTINUOUS
 62
         7
100
AcDbSpline
210
0.0
220
0.0
230
1.0
 70
         8
 71
         3
 72
        20
 73
        16
 74
         0
 42
0.0
 43
0.0
 40
0.0
 40
0.0
 40
0.0
 40
0.0
 40
0.1250000000000004
 40
0.1250000000000004
 40
0.2500000000000007
 40
0.2500000000000007
 40
0.5000000000000009
 40
0.5000000000000009
 40
0.6250000000000007
 40
0.6250000000000007
 40
0.7500000000000004
 40
0.7500000000000004
 40
0.8750000000000003
 40
0.8750000000000003
 40
1.0
 40
1.0
 40
1.0
 40
1.0
 10
342.85518904820935
 20
182.69638355978901
 30
0.0
 10
341.66999377941096
 20
183.06494826099129
 30
0.0
 10
340.42568845739788
 20
183.40558659839456
 30
0.0
 10
337.81727623746292
 20
184.03102494306179
 30
0.0
 10
336.48678133851894
 20
184.30677522154133
 30
0.0
 10
332.55791583212851
 20
184.99240165583791
 30
0.0
 10
330.02926744406182
 20
185.25081166676009
 30
0.0
 10
327.17570339317552
 20
185.25223758237314
 30
0.0
 10
326.36288169629819
 20
185.18952178630204
 30
0.0
 10
325.13743960253561
 20
184.94850765458182
 30
0.0
 10
324.70787877333385
 20
184.76703998641037
 30
0.0
 10
324.26852982456217
 20
184.31213507337861
 30
0.0
 10
324.25221097742264
 20
184.03264986575354
 30
0.0
 10
324.6136191423239
 20
183.41218919459288
 30
0.0
 10
324.99177934608406
 20
183.06502404571378
 30
0.0
 10
325.55105970722462
 20
182.69638355978904
 30
0.0
  0
LINE
  5
1CC
100
AcDbEntity
  8
TA900_ISI_GW_B_D
  6
CONTINUOUS
 62
         7
100
AcDbLine
 10
349.7583011943
 20
182.6963835598
 30
0.0
 11
342.8551890482
 21
182.6963835598
 31
0.0
  0
LINE
  5
1CD
100
AcDbEntity
  8
TA900_ISI_GW_B_D
  6
CONTINUOUS
 62
         7
100
AcDbLine
 10
325.5510597072
 20
182.6963835598
 30
0.0
 11
325.5510597072
 21
163.0786935593
 31
0.0
  0
LINE
  5
1CE
100
AcDbEntity
  8
TA900_ISI_GW_B_D
  6
CONTINUOUS
 62
         7
100
AcDbLine
 10
333.7496055421
 20
105.7652270388
 30
0.0
 11
333.7496055421
 21
97.7652270388
 31
0.0
  0
LINE
  5
1CF
100
AcDbEntity
  8
TA900_ISI_GW_B_D
  6
CONTINUOUS
 62
         7
100
AcDbLine
 10
247.5496055421
 20
105.7652270388
 30
0.0
 11
247.5496055421
 21
97.7652270388
 31
0.0
  0
LINE
  5
1D0
100
AcDbEntity
  8
TA900_ISI_GW_B_D
  6
CONTINUOUS
 62
         7
100
AcDbLine
 10
290.6496055421
 20
117.2652270388
 30
0.0
 11
290.6496055421
 21
116.2652270388
 31
0.0
  0
LINE
  5
1D1
100
AcDbEntity
  8
TA900_ISI_GW_B_D
  6
CONTINUOUS
 62
         7
100
AcDbLine
 10
274.6496055421
 20
116.2652270388
 30
0.0
 11
274.6496055421
 21
103.7652270388
 31
0.0
  0
LINE
  5
1D2
100
AcDbEntity
  8
TA900_ISI_GW_B_D
  6
CONTINUOUS
 62
         7
100
AcDbLine
 10
353.3996055421
 20
16.6652270388
 30
0.0
 11
355.2258328961
 21
11.6477086208
 31
0.0
  0
LINE
  5
1D3
100
AcDbEntity
  8
TA900_ISI_GW_B_D
  6
CONTINUOUS
 62
         7
100
AcDbLine
 10
238.9038388718
 20
84.6010734804
 30
0.0
 11
238.0733781881
 21
86.8827454568
 31
0.0
  0
LINE
  5
1D4
100
AcDbEntity
  8
TA900_ISI_GW_B_D
  6
CONTINUOUS
 62
         7
100
AcDbLine
 10
226.1496055421
 20
15.2652270388
 30
0.0
 11
227.4662745682
 21
11.6477086208
 31
0.0
  0
LINE
  5
1D5
100
AcDbEntity
  8
TA900_ISI_GW_B_D
  6
CONTINUOUS
 62
         7
100
AcDbLine
 10
367.1496055421
 20
83.2652270388
 30
0.0
 11
365.832936516
 21
86.8827454568
 31
0.0
  0
LINE
  5
1D6
100
AcDbEntity
  8
TA900_ISI_GW_B_D
  6
CONTINUOUS
 62
         7
100
AcDbLine
 10
345.7496055421
 20
97.7652270388
 30
0.0
 11
345.7496055421
 21
105.7652270388
 31
0.0
  0
LINE
  5
1D7
100
AcDbEntity
  8
TA900_ISI_GW_B_D
  6
CONTINUOUS
 62
         7
100
AcDbLine
 10
259.5496055421
 20
97.7652270388
 30
0.0
 11
259.5496055421
 21
105.7652270388
 31
0.0
  0
LINE
  5
1D8
100
AcDbEntity
  8
TA900_ISI_GW_B_D
  6
CONTINUOUS
 62
         7
100
AcDbLine
 10
302.6496055421
 20
116.2652270388
 30
0.0
 11
302.6496055421
 21
117.2652270388
 31
0.0
  0
LINE
  5
1D9
100
AcDbEntity
  8
TA900_ISI_GW_B_D
  6
CONTINUOUS
 62
         7
100
AcDbLine
 10
318.6496055421
 20
103.7652270388
 30
0.0
 11
318.6496055421
 21
116.2652270388
 31
0.0
  0
LINE
  5
1DA
100
AcDbEntity
  8
TA900_ISI_GW_B_D
  6
CONTINUOUS
 62
         7
100
AcDbLine
 10
238.8996055421
 20
97.7652270388
 30
0.0
 11
238.8996055421
 21
91.7652270388
 31
0.0
  0
LINE
  5
1DB
100
AcDbEntity
  8
TA900_ISI_GW_B_D
  6
CONTINUOUS
 62
         7
100
AcDbLine
 10
354.3996055421
 20
91.7652270388
 30
0.0
 11
354.3996055421
 21
97.7652270388
 31
0.0
  0
LINE
  5
1DC
100
AcDbEntity
  8
TA900_ISI_GW_B_D
  6
CONTINUOUS
 62
         7
100
AcDbLine
 10
354.3996055421
 20
91.5152270388
 30
0.0
 11
354.1496055421
 21
91.7652270388
 31
0.0
  0
LINE
  5
1DD
100
AcDbEntity
  8
TA900_ISI_GW_B_D
  6
CONTINUOUS
 62
         7
100
AcDbLine
 10
239.1496055421
 20
91.7652270388
 30
0.0
 11
238.8996055421
 21
91.5152270388
 31
0.0
  0
LINE
  5
1DE
100
AcDbEntity
  8
TA900_ISI_GW_B_D
  6
CONTINUOUS
 62
         7
100
AcDbLine
 10
355.2258328961
 20
86.8827454568
 30
0.0
 11
354.3953722124
 21
84.6010734804
 31
0.0
  0
LINE
  5
1DF
100
AcDbEntity
  8
TA900_ISI_GW_B_D
  6
CONTINUOUS
 62
         7
100
AcDbLine
 10
354.3996055421
 20
84.600223219
 30
0.0
 11
354.3996055421
 21
91.5152270388
 31
0.0
  0
LINE
  5
1E0
100
AcDbEntity
  8
TA900_ISI_GW_B_D
  6
CONTINUOUS
 62
         7
100
AcDbLine
 10
273.6496055421
 20
155.2652270388
 30
0.0
 11
273.6496055421
 21
117.2652270388
 31
0.0
  0
LINE
  5
1E1
100
AcDbEntity
  8
TA900_ISI_GW_B_D
  6
CONTINUOUS
 62
         7
100
AcDbLine
 10
319.6496055421
 20
155.2652270388
 30
0.0
 11
328.3098595799
 21
160.2652270388
 31
0.0
  0
LINE
  5
1E2
100
AcDbEntity
  8
TA900_ISI_GW_B_D
  6
CONTINUOUS
 62
         7
100
AcDbLine
 10
340.6496055421
 20
160.2652270388
 30
0.0
 11
341.1748753762
 21
160.4059726667
 31
0.0
  0
ARC
  5
1E3
100
AcDbEntity
  8
TA900_ISI_GW_B_D
  6
CONTINUOUS
 62
         7
100
AcDbCircle
 10
296.6496055421
 20
-9.7347729612
 30
0.0
 40
200.0
100
AcDbArc
 50
90.0
 51
102.8647712726
  0
LINE
  5
1E4
100
AcDbEntity
  8
TA900_ISI_GW_B_D
  6
CONTINUOUS
 62
         7
100
AcDbLine
 10
258.89142762
 20
6.1652270388
 30
0.0
 11
334.4077834642
 21
6.1652270388
 31
0.0
  0
LINE
  5
1E5
100
AcDbEntity
  8
TA900_ISI_GW_B_D
  6
CONTINUOUS
 62
         7
100
AcDbLine
 10
238.8996055421
 20
91.5152270388
 30
0.0
 11
238.8996055421
 21
84.600223219
 31
0.0
  0
ARC
  5
1E6
100
AcDbEntity
  8
TA900_ISI_GW_B_D
  6
CONTINUOUS
 62
         7
100
AcDbCircle
 10
296.6496055421
 20
49.2652270388
 30
0.0
 40
57.3
100
AcDbArc
 50
311.2202987754
 51
325.3239768021
  0
ARC
  5
1E7
100
AcDbEntity
  8
TA900_ISI_GW_B_D
  6
CONTINUOUS
 62
         7
100
AcDbCircle
 10
296.6496055421
 20
49.2652270388
 30
0.0
 40
57.3
100
AcDbArc
 50
214.6760231979
 51
228.7797012246
  0
LINE
  5
1E8
100
AcDbEntity
  8
TA900_ISI_GW_B_D
  6
CONTINUOUS
 62
         7
100
AcDbLine
 10
239.8996055421
 20
16.6652270388
 30
0.0
 11
249.5271056084
 21
16.6652270388
 31
0.0
  0
LINE
  5
1E9
100
AcDbEntity
  8
TA900_ISI_GW_B_D
  6
CONTINUOUS
 62
         7
100
AcDbLine
 10
343.7721054758
 20
16.6652270388
 30
0.0
 11
353.3996055421
 21
16.6652270388
 31
0.0
  0
LINE
  5
1EA
100
AcDbEntity
  8
TA900_ISI_GW_B_D
  6
CONTINUOUS
 62
         7
100
AcDbLine
 10
238.0733781881
 20
11.6477086208
 30
0.0
 11
239.8996055421
 21
16.6652270388
 31
0.0
  0
LINE
  5
1EB
100
AcDbEntity
  8
TA900_ISI_GW_B_D
  6
CONTINUOUS
 62
         7
100
AcDbLine
 10
227.4662745682
 20
86.8827454568
 30
0.0
 11
226.1496055421
 21
83.2652270388
 31
0.0
  0
LINE
  5
1EC
100
AcDbEntity
  8
TA900_ISI_GW_B_D
  6
CONTINUOUS
 62
         7
100
AcDbLine
 10
365.832936516
 20
11.6477086208
 30
0.0
 11
367.1496055421
 21
15.2652270388
 31
0.0
  0
LINE
  5
1ED
100
AcDbEntity
  8
TA900_ISI_GW_B_D
  6
CONTINUOUS
 62
         7
100
AcDbLine
 10
319.6496055421
 20
117.2652270388
 30
0.0
 11
273.6496055421
 21
117.2652270388
 31
0.0
  0
ARC
  5
1EE
100
AcDbEntity
  8
TA900_ISI_GW_B_D
  6
CONTINUOUS
 62
         7
100
AcDbCircle
 10
957.7575218497
 20
-2207.6135143363
 30
0.0
 40
2494.7318045793
100
AcDbArc
 50
106.4297298414
 51
106.6359697726
  0
SPLINE
  5
1EF
100
AcDbEntity
  8
TA900_ISI_GW_B_D
  6
CONTINUOUS
 62
         7
100
AcDbSpline
210
0.0
220
0.0
230
1.0
 70
         8
 71
         3
 72
        20
 73
        16
 74
         0
 42
0.0
 43
0.0
 40
0.0
 40
0.0
 40
0.0
 40
0.0
 40
0.1250000000000003
 40
0.1250000000000003
 40
0.2500000000000006
 40
0.2500000000000006
 40
0.5000000000000007
 40
0.5000000000000007
 40
0.6250000000000004
 40
0.6250000000000004
 40
0.7500000000000002
 40
0.7500000000000002
 40
0.8750000000000001
 40
0.8750000000000001
 40
1.0
 40
1.0
 40
1.0
 40
1.0
 10
267.74815137695998
 20
182.69638355978901
 30
0.0
 10
268.30731676183348
 20
183.06494826099132
 30
0.0
 10
268.68018351416282
 20
183.40558659839459
 30
0.0
 10
269.04759570882237
 20
184.03102494306182
 30
0.0
 10
269.03273194835077
 20
184.30677522154139
 30
0.0
 10
268.3798419686774
 20
184.99240165583794
 30
0.0
 10
267.09219184961347
 20
185.25081166676003
 30
0.0
 10
264.24546605857824
 20
185.25223758237317
 30
0.0
 10
263.13174743444642
 20
185.18952178630204
 30
0.0
 10
260.75155776825341
 20
184.94850765458182
 30
0.0
 10
259.45303373436525
 20
184.76703998641037
 30
0.0
 10
256.84006655239028
 20
184.31213507337861
 30
0.0
 10
255.49029339836758
 20
184.03264986575354
 30
0.0
 10
252.89949805288424
 20
183.41218919459291
 30
0.0
 10
251.6294610060672
 20
183.06502404571378
 30
0.0
 10
250.44402203597528
 20
182.69638355978898
 30
0.0
  0
ARC
  5
1F0
100
AcDbEntity
  8
TA900_ISI_GW_B_D
  6
CONTINUOUS
 62
         7
100
AcDbCircle
 10
-364.4583105721
 20
-2207.6135136851
 30
0.0
 40
2494.7318039
100
AcDbArc
 50
73.3640302274
 51
73.5702701587
  0
ARC
  5
1F1
100
AcDbEntity
  8
TA900_ISI_GW_B_D
  6
CONTINUOUS
 62
         7
100
AcDbCircle
 10
296.6496055421
 20
155.3178208625
 30
0.0
 40
29.9883667694
100
AcDbArc
 50
65.9194562974
 51
114.0805437026
  0
SPLINE
  5
1F2
100
AcDbEntity
  8
TA900_ISI_GW_B_D
  6
CONTINUOUS
 62
         7
100
AcDbSpline
210
0.0
220
0.0
230
1.0
 70
         8
 71
         3
 72
        12
 73
         8
 74
         0
 42
0.0
 43
0.0
 40
0.0
 40
0.0
 40
0.0
 40
0.0
 40
0.2499999999999999
 40
0.2499999999999999
 40
0.4999999999999999
 40
0.4999999999999999
 40
0.5002071837968813
 40
0.5002071837968813
 40
0.5002071837968813
 40
0.5002071837968813
 10
354.02861322344347
 20
82.098487023588774
 30
0.0
 10
354.14366367589031
 20
82.902480954586636
 30
0.0
 10
354.23656468269968
 20
83.528450266340087
 30
0.0
 10
354.3650914517678
 20
84.387104471574887
 30
0.0
 10
354.39955074482583
 20
84.612343845752363
 30
0.0
 10
354.39960551954164
 20
84.612704309866047
 30
0.0
 10
354.39960554157801
 20
84.612704455958337
 30
0.0
 10
354.39960554029648
 20
84.612704449668428
 30
0.0
  0
ARC
  5
1F3
100
AcDbEntity
  8
TA900_ISI_GW_B_D
  6
CONTINUOUS
 62
         7
100
AcDbCircle
 10
296.6496055421
 20
481.0986078089
 30
0.0
 40
399.1235663675
100
AcDbArc
 50
263.3050535786
 51
276.6949464214
  0
LINE
  5
1F4
100
AcDbEntity
  8
TA900_ISI_GW_B_D
  6
CONTINUOUS
 62
         7
100
AcDbLine
 10
343.1806831274
 20
91.5152270388
 30
0.0
 11
250.1185279567
 21
91.5152270388
 31
0.0
  0
LINE
  5
1F5
100
AcDbEntity
  8
TA900_ISI_GW_B_D
  6
CONTINUOUS
 62
         7
100
AcDbLine
 10
334.4077834642
 20
81.8446499022
 30
0.0
 11
334.4077834642
 21
49.2652270388
 31
0.0
  0
LINE
  5
1F6
100
AcDbEntity
  8
TA900_ISI_GW_B_D
  6
CONTINUOUS
 62
         7
100
AcDbLine
 10
258.89142762
 20
81.8446499022
 30
0.0
 11
258.89142762
 21
49.2652270388
 31
0.0
  0
ARC
  5
1F7
100
AcDbEntity
  8
TA900_ISI_GW_B_D
  6
CONTINUOUS
 62
         7
100
AcDbCircle
 10
185.2996748976
 20
46.9887730835
 30
0.0
 40
64.2677609562
100
AcDbArc
 50
2.0299212571
 51
31.8351214724
  0
LINE
  5
1F8
100
AcDbEntity
  8
TA900_ISI_GW_B_D
  6
CONTINUOUS
 62
         7
100
AcDbLine
 10
334.4077834642
 20
6.1652270388
 30
0.0
 11
334.4077834642
 21
49.2652270388
 31
0.0
  0
LINE
  5
1F9
100
AcDbEntity
  8
TA900_ISI_GW_B_D
  6
CONTINUOUS
 62
         7
100
AcDbLine
 10
258.89142762
 20
6.1652270388
 30
0.0
 11
258.89142762
 21
49.2652270388
 31
0.0
  0
ARC
  5
1FA
100
AcDbEntity
  8
TA900_ISI_GW_B_D
  6
CONTINUOUS
 62
         7
100
AcDbCircle
 10
293.3759605507
 20
-88.3808345568
 30
0.0
 40
180.9473496981
100
AcDbArc
 50
70.4156018275
 51
73.0398070555
  0
LINE
  5
1FB
100
AcDbEntity
  8
TA900_ISI_GW_B_D
  6
CONTINUOUS
 62
         7
100
AcDbLine
 10
354.3996055421
 20
91.5152270388
 30
0.0
 11
346.1596103305
 21
91.5152270388
 31
0.0
  0
ARC
  5
1FC
100
AcDbEntity
  8
TA900_ISI_GW_B_D
  6
CONTINUOUS
 62
         7
100
AcDbCircle
 10
344.670146729
 20
75.6477714853
 30
0.0
 40
9.1706835676
100
AcDbArc
 50
80.6528561401
 51
99.3471438599
  0
LINE
  5
1FD
100
AcDbEntity
  8
TA900_ISI_GW_B_D
  6
CONTINUOUS
 62
         7
100
AcDbLine
 10
238.8996055421
 20
91.5152270388
 30
0.0
 11
247.1396007537
 21
91.5152270388
 31
0.0
  0
LINE
  5
1FE
100
AcDbEntity
  8
TA900_ISI_GW_B_D
  6
CONTINUOUS
 62
         7
100
AcDbLine
 10
250.1185279567
 20
91.5152270388
 30
0.0
 11
247.1396007537
 21
91.5152270388
 31
0.0
  0
LINE
  5
1FF
100
AcDbEntity
  8
TA900_ISI_GW_B_D
  6
CONTINUOUS
 62
         7
100
AcDbLine
 10
346.1596103305
 20
91.5152270388
 30
0.0
 11
343.1806831274
 21
91.5152270388
 31
0.0
  0
LINE
  5
200
100
AcDbEntity
  8
TA900_ISI_GW_B_D
  6
CONTINUOUS
 62
         7
100
AcDbLine
 10
263.5398529459
 20
97.7652270388
 30
0.0
 11
263.5398529459
 21
103.7652270388
 31
0.0
  0
LINE
  5
201
100
AcDbEntity
  8
TA900_ISI_GW_B_D
  6
CONTINUOUS
 62
         7
100
AcDbLine
 10
329.7593581383
 20
103.7652270388
 30
0.0
 11
329.7593581383
 21
97.7652270388
 31
0.0
  0
LINE
  5
202
100
AcDbEntity
  8
TA900_ISI_GW_B_D
  6
CONTINUOUS
 62
         7
100
AcDbLine
 10
345.7496055421
 20
103.7652270388
 30
0.0
 11
350.6496055421
 21
103.7652270388
 31
0.0
  0
LINE
  5
203
100
AcDbEntity
  8
TA900_ISI_GW_B_D
  6
CONTINUOUS
 62
         7
100
AcDbLine
 10
333.7496055421
 20
103.7652270388
 30
0.0
 11
329.7593581383
 21
103.7652270388
 31
0.0
  0
LINE
  5
204
100
AcDbEntity
  8
TA900_ISI_GW_B_D
  6
CONTINUOUS
 62
         7
100
AcDbLine
 10
329.7593581383
 20
103.7652270388
 30
0.0
 11
263.5398529459
 21
103.7652270388
 31
0.0
  0
LINE
  5
205
100
AcDbEntity
  8
TA900_ISI_GW_B_D
  6
CONTINUOUS
 62
         7
100
AcDbLine
 10
242.6496055421
 20
103.7652270388
 30
0.0
 11
247.5496055421
 21
103.7652270388
 31
0.0
  0
LINE
  5
206
100
AcDbEntity
  8
TA900_ISI_GW_B_D
  6
CONTINUOUS
 62
         7
100
AcDbLine
 10
263.5398529459
 20
103.7652270388
 30
0.0
 11
259.5496055421
 21
103.7652270388
 31
0.0
  0
LINE
  5
207
100
AcDbEntity
  8
TA900_ISI_GW_B_D
  6
CONTINUOUS
 62
         7
100
AcDbLine
 10
333.7496055421
 20
105.7652270388
 30
0.0
 11
345.7496055421
 21
105.7652270388
 31
0.0
  0
LINE
  5
208
100
AcDbEntity
  8
TA900_ISI_GW_B_D
  6
CONTINUOUS
 62
         7
100
AcDbLine
 10
247.5496055421
 20
105.7652270388
 30
0.0
 11
259.5496055421
 21
105.7652270388
 31
0.0
  0
LINE
  5
209
100
AcDbEntity
  8
TA900_ISI_GW_B_D
  6
CONTINUOUS
 62
         7
100
AcDbLine
 10
319.6496055421
 20
117.2652270388
 30
0.0
 11
319.6496055421
 21
155.2652270388
 31
0.0
  0
LINE
  5
20A
100
AcDbEntity
  8
TA900_ISI_GW_B_D
  6
CONTINUOUS
 62
         7
100
AcDbLine
 10
264.9893515042
 20
160.2652270388
 30
0.0
 11
273.6496055421
 21
155.2652270388
 31
0.0
  0
LINE
  5
20B
100
AcDbEntity
  8
TA900_ISI_GW_B_D
  6
CONTINUOUS
 62
         7
100
AcDbLine
 10
252.124335708
 20
160.4059726667
 30
0.0
 11
252.6496055421
 21
160.2652270388
 31
0.0
  0
ARC
  5
20C
100
AcDbEntity
  8
TA900_ISI_GW_B_D
  6
CONTINUOUS
 62
         7
100
AcDbCircle
 10
296.6496055421
 20
-9.7347729612
 30
0.0
 40
200.0
100
AcDbArc
 50
77.1352812571
 51
90.0
  0
ARC
  5
20D
100
AcDbEntity
  8
TA900_ISI_GW_B_D
  6
CONTINUOUS
 62
         7
100
AcDbCircle
 10
408.00091511
 20
46.9883532795
 30
0.0
 40
64.2691538854
100
AcDbArc
 50
148.1652090031
 51
177.9697482673
  0
LINE
  5
20E
100
AcDbEntity
  8
TA900_ISI_GW_B_D
  6
CONTINUOUS
 62
         7
100
AcDbLine
 10
353.3996055421
 20
80.8885175064
 30
0.0
 11
353.6081060765
 21
81.8446499022
 31
0.0
  0
ARC
  5
20F
100
AcDbEntity
  8
TA900_ISI_GW_B_D
  6
CONTINUOUS
 62
         7
100
AcDbCircle
 10
296.6496055421
 20
270.4291116459
 30
0.0
 40
192.3272711062
100
AcDbArc
 50
258.6780070786
 51
281.3219929214
  0
LINE
  5
210
100
AcDbEntity
  8
TA900_ISI_GW_B_D
  6
CONTINUOUS
 62
         7
100
AcDbLine
 10
353.6081060765
 20
81.8446499022
 30
0.0
 11
334.4077834642
 21
81.8446499022
 31
0.0
  0
SPLINE
  5
211
100
AcDbEntity
  8
TA900_ISI_GW_B_D
  6
CONTINUOUS
 62
         7
100
AcDbSpline
210
0.0
220
0.0
230
1.0
 70
         8
 71
         3
 72
        10
 73
         6
 74
         0
 42
0.0
 43
0.0
 40
0.5002071837968811
 40
0.5002071837968811
 40
0.5002071837968811
 40
0.5002071837968811
 40
0.75
 40
0.75
 40
1.0
 40
1.0
 40
1.0
 40
1.0
 10
238.89960554388819
 20
84.612704449668428
 30
0.0
 10
238.89960708897598
 20
84.612696866185317
 30
0.0
 10
238.93350374340483
 20
84.391184771522731
 30
0.0
 10
239.06229505771006
 20
83.530831556753526
 30
0.0
 10
239.15548678654761
 20
82.902904590612394
 30
0.0
 10
239.27059786074108
 20
82.098487023588746
 30
0.0
  0
LINE
  5
212
100
AcDbEntity
  8
TA900_ISI_GW_B_D
  6
CONTINUOUS
 62
         7
100
AcDbLine
 10
350.6496055421
 20
97.7652270388
 30
0.0
 11
350.6496055421
 21
103.7652270388
 31
0.0
  0
LINE
  5
213
100
AcDbEntity
  8
TA900_ISI_GW_B_D
  6
CONTINUOUS
 62
         7
100
AcDbLine
 10
242.6496055421
 20
103.7652270388
 30
0.0
 11
242.6496055421
 21
97.7652270388
 31
0.0
  0
LINE
  5
214
100
AcDbEntity
  8
TA900_ISI_GW_B_D
  6
CONTINUOUS
 62
         7
100
AcDbLine
 10
355.2258328961
 20
11.6477086208
 30
0.0
 11
365.832936516
 21
11.6477086208
 31
0.0
  0
LINE
  5
215
100
AcDbEntity
  8
TA900_ISI_GW_B_D
  6
CONTINUOUS
 62
         7
100
AcDbLine
 10
355.4252595484
 20
22.2781865681
 30
0.0
 11
365.6335098637
 21
22.2781865681
 31
0.0
  0
LINE
  5
216
100
AcDbEntity
  8
TA900_ISI_GW_B_D
  6
CONTINUOUS
 62
         7
100
AcDbLine
 10
227.4662745682
 20
86.8827454568
 30
0.0
 11
238.0733781881
 21
86.8827454568
 31
0.0
  0
LINE
  5
217
100
AcDbEntity
  8
TA900_ISI_GW_B_D
  6
CONTINUOUS
 62
         7
100
AcDbLine
 10
355.2258328961
 20
86.8827454568
 30
0.0
 11
365.832936516
 21
86.8827454568
 31
0.0
  0
LINE
  5
218
100
AcDbEntity
  8
TA900_ISI_GW_B_D
  6
CONTINUOUS
 62
         7
100
AcDbLine
 10
355.4252595484
 20
76.2522675096
 30
0.0
 11
365.6335098637
 21
76.2522675096
 31
0.0
  0
LINE
  5
219
100
AcDbEntity
  8
TA900_ISI_GW_B_D
  6
CONTINUOUS
 62
         7
100
AcDbLine
 10
355.2258328961
 20
49.2652270388
 30
0.0
 11
365.832936516
 21
49.2652270388
 31
0.0
  0
ARC
  5
21A
100
AcDbEntity
  8
TA900_ISI_GW_B_D
  6
CONTINUOUS
 62
         7
100
AcDbCircle
 10
224.9235928559
 20
81.8123244665
 30
0.0
 40
14.0934744936
100
AcDbArc
 50
336.7644040266
 51
21.0861224681
  0
ARC
  5
21B
100
AcDbEntity
  8
TA900_ISI_GW_B_D
  6
CONTINUOUS
 62
         7
100
AcDbCircle
 10
151.3449812658
 20
62.118585624
 30
0.0
 40
87.6756731347
100
AcDbArc
 50
351.5699880566
 51
9.2767959788
  0
ARC
  5
21C
100
AcDbEntity
  8
TA900_ISI_GW_B_D
  6
CONTINUOUS
 62
         7
100
AcDbCircle
 10
151.3449812658
 20
36.4118684537
 30
0.0
 40
87.6756731347
100
AcDbArc
 50
350.7232040212
 51
8.4300119434
  0
ARC
  5
21D
100
AcDbEntity
  8
TA900_ISI_GW_B_D
  6
CONTINUOUS
 62
         7
100
AcDbCircle
 10
279.1045395938
 20
62.118585624
 30
0.0
 40
87.6756731347
100
AcDbArc
 50
351.5699880566
 51
9.2767959788
  0
ARC
  5
21E
100
AcDbEntity
  8
TA900_ISI_GW_B_D
  6
CONTINUOUS
 62
         7
100
AcDbCircle
 10
352.6831511839
 20
81.8123244665
 30
0.0
 40
14.0934744936
100
AcDbArc
 50
336.7644040266
 51
21.0861224681
  0
ARC
  5
21F
100
AcDbEntity
  8
TA900_ISI_GW_B_D
  6
CONTINUOUS
 62
         7
100
AcDbCircle
 10
279.1045395938
 20
36.4118684537
 30
0.0
 40
87.6756731347
100
AcDbArc
 50
350.7232040212
 51
8.4300119434
  0
ARC
  5
220
100
AcDbEntity
  8
TA900_ISI_GW_B_D
  6
CONTINUOUS
 62
         7
100
AcDbCircle
 10
368.3756182283
 20
81.8123244665
 30
0.0
 40
14.0934744936
100
AcDbArc
 50
158.9138775319
 51
203.2355959734
  0
ARC
  5
221
100
AcDbEntity
  8
TA900_ISI_GW_B_D
  6
CONTINUOUS
 62
         7
100
AcDbCircle
 10
224.9235928559
 20
16.7181296112
 30
0.0
 40
14.0934744936
100
AcDbArc
 50
338.9138775319
 51
23.2355959734
  0
ARC
  5
222
100
AcDbEntity
  8
TA900_ISI_GW_B_D
  6
CONTINUOUS
 62
         7
100
AcDbCircle
 10
352.6831511839
 20
16.7181296112
 30
0.0
 40
14.0934744936
100
AcDbArc
 50
338.9138775319
 51
23.2355959734
  0
ARC
  5
223
100
AcDbEntity
  8
TA900_ISI_GW_B_D
  6
CONTINUOUS
 62
         7
100
AcDbCircle
 10
368.3756182283
 20
16.7181296112
 30
0.0
 40
14.0934744936
100
AcDbArc
 50
156.7644040266
 51
201.0861224681
  0
ARC
  5
224
100
AcDbEntity
  8
TA900_ISI_GW_B_D
  6
CONTINUOUS
 62
         7
100
AcDbCircle
 10
441.9542298183
 20
62.118585624
 30
0.0
 40
87.6756731347
100
AcDbArc
 50
170.7232040212
 51
188.4300119434
  0
ARC
  5
225
100
AcDbEntity
  8
TA900_ISI_GW_B_D
  6
CONTINUOUS
 62
         7
100
AcDbCircle
 10
441.9542298183
 20
36.4118684537
 30
0.0
 40
87.6756731347
100
AcDbArc
 50
171.5699880566
 51
189.2767959788
  0
ARC
  5
226
100
AcDbEntity
  8
TA900_ISI_GW_B_D
  6
CONTINUOUS
 62
         7
100
AcDbCircle
 10
240.6160599003
 20
16.7181296112
 30
0.0
 40
14.0934744936
100
AcDbArc
 50
156.7644040266
 51
201.0861224681
  0
ARC
  5
227
100
AcDbEntity
  8
TA900_ISI_GW_B_D
  6
CONTINUOUS
 62
         7
100
AcDbCircle
 10
240.6160599003
 20
81.8123244665
 30
0.0
 40
14.0934744936
100
AcDbArc
 50
158.9138775319
 51
203.2355959734
  0
ARC
  5
228
100
AcDbEntity
  8
TA900_ISI_GW_B_D
  6
CONTINUOUS
 62
         7
100
AcDbCircle
 10
314.1946714904
 20
62.118585624
 30
0.0
 40
87.6756731347
100
AcDbArc
 50
170.7232040212
 51
188.4300119434
  0
ARC
  5
229
100
AcDbEntity
  8
TA900_ISI_GW_B_D
  6
CONTINUOUS
 62
         7
100
AcDbCircle
 10
314.1946714904
 20
36.4118684537
 30
0.0
 40
87.6756731347
100
AcDbArc
 50
171.5699880566
 51
189.2767959788
  0
LINE
  5
22A
100
AcDbEntity
  8
TA900_ISI_GW_B_D
  6
CONTINUOUS
 62
         7
100
AcDbLine
 10
227.4662745682
 20
11.6477086208
 30
0.0
 11
238.0733781881
 21
11.6477086208
 31
0.0
  0
LINE
  5
22B
100
AcDbEntity
  8
TA900_ISI_GW_B_D
  6
CONTINUOUS
 62
         7
100
AcDbLine
 10
227.4662745682
 20
49.2652270388
 30
0.0
 11
238.0733781881
 21
49.2652270388
 31
0.0
  0
LINE
  5
22C
100
AcDbEntity
  8
TA900_ISI_GW_B_D
  6
CONTINUOUS
 62
         7
100
AcDbLine
 10
226.1496055421
 20
83.2652270388
 30
0.0
 11
226.1496055421
 21
15.2652270388
 31
0.0
  0
LINE
  5
22D
100
AcDbEntity
  8
TA900_ISI_GW_B_D
  6
CONTINUOUS
 62
         7
100
AcDbLine
 10
227.6657012205
 20
76.2522675096
 30
0.0
 11
237.8739515358
 21
76.2522675096
 31
0.0
  0
LINE
  5
22E
100
AcDbEntity
  8
TA900_ISI_GW_B_D
  6
CONTINUOUS
 62
         7
100
AcDbLine
 10
353.3996055421
 20
16.6652270388
 30
0.0
 11
353.3996055421
 21
80.8885175064
 31
0.0
  0
LINE
  5
22F
100
AcDbEntity
  8
TA900_ISI_GW_B_D
  6
CONTINUOUS
 62
         7
100
AcDbLine
 10
239.8996055421
 20
80.8885175064
 30
0.0
 11
239.8996055421
 21
16.6652270388
 31
0.0
  0
LINE
  5
230
100
AcDbEntity
  8
TA900_ISI_GW_B_D
  6
CONTINUOUS
 62
         7
100
AcDbLine
 10
227.6657012205
 20
22.2781865681
 30
0.0
 11
237.8739515358
 21
22.2781865681
 31
0.0
  0
LINE
  5
231
100
AcDbEntity
  8
TA900_ISI_GW_B_D
  6
CONTINUOUS
 62
         7
100
AcDbLine
 10
367.1496055421
 20
83.2652270388
 30
0.0
 11
367.1496055421
 21
15.2652270388
 31
0.0
  0
LINE
  5
232
100
AcDbEntity
  8
TA900_ISI_GW_B_D
  6
CONTINUOUS
 62
         7
100
AcDbLine
 10
343.7721054758
 20
16.6652270388
 30
0.0
 11
343.7721054758
 21
49.2652270388
 31
0.0
  0
LINE
  5
233
100
AcDbEntity
  8
TA900_ISI_GW_B_D
  6
CONTINUOUS
 62
         7
100
AcDbLine
 10
249.5271056084
 20
16.6652270388
 30
0.0
 11
249.5271056084
 21
49.2652270388
 31
0.0
  0
LINE
  5
234
100
AcDbEntity
  8
TA900_ISI_GW_B_D
  6
CONTINUOUS
 62
         7
100
AcDbLine
 10
353.6081060765
 20
81.8446499022
 30
0.0
 11
354.0286132234
 21
82.0984870236
 31
0.0
  0
LINE
  5
235
100
AcDbEntity
  8
TA900_ISI_GW_B_D
  6
CONTINUOUS
 62
         7
100
AcDbLine
 10
346.1596103305
 20
97.7652270388
 30
0.0
 11
354.3996055421
 21
97.7652270388
 31
0.0
  0
LINE
  5
236
100
AcDbEntity
  8
TA900_ISI_GW_B_D
  6
CONTINUOUS
 62
         7
100
AcDbLine
 10
238.8996055421
 20
97.7652270388
 30
0.0
 11
247.1396007537
 21
97.7652270388
 31
0.0
  0
LINE
  5
237
100
AcDbEntity
  8
TA900_ISI_GW_B_D
  6
CONTINUOUS
 62
         7
100
AcDbLine
 10
250.1185279567
 20
97.7652270388
 30
0.0
 11
247.1396007537
 21
97.7652270388
 31
0.0
  0
LINE
  5
238
100
AcDbEntity
  8
TA900_ISI_GW_B_D
  6
CONTINUOUS
 62
         7
100
AcDbLine
 10
346.1596103305
 20
97.7652270388
 30
0.0
 11
343.1806831274
 21
97.7652270388
 31
0.0
  0
LINE
  5
239
100
AcDbEntity
  8
TA900_ISI_GW_B_D
  6
CONTINUOUS
 62
         7
100
AcDbLine
 10
343.1806831274
 20
97.7652270388
 30
0.0
 11
250.1185279567
 21
97.7652270388
 31
0.0
  0
LINE
  5
23A
100
AcDbEntity
  8
TA900_ISI_GW_B_D
  6
CONTINUOUS
 62
         7
100
AcDbLine
 10
346.1596103305
 20
91.7652270388
 30
0.0
 11
354.3996055421
 21
91.7652270388
 31
0.0
  0
LINE
  5
23B
100
AcDbEntity
  8
TA900_ISI_GW_B_D
  6
CONTINUOUS
 62
         7
100
AcDbLine
 10
238.8996055421
 20
91.7652270388
 30
0.0
 11
247.1396007537
 21
91.7652270388
 31
0.0
  0
LINE
  5
23C
100
AcDbEntity
  8
TA900_ISI_GW_B_D
  6
CONTINUOUS
 62
         7
100
AcDbLine
 10
250.1185279567
 20
91.7652270388
 30
0.0
 11
247.1396007537
 21
91.7652270388
 31
0.0
  0
LINE
  5
23D
100
AcDbEntity
  8
TA900_ISI_GW_B_D
  6
CONTINUOUS
 62
         7
100
AcDbLine
 10
346.1596103305
 20
91.7652270388
 30
0.0
 11
343.1806831274
 21
91.7652270388
 31
0.0
  0
LINE
  5
23E
100
AcDbEntity
  8
TA900_ISI_GW_B_D
  6
CONTINUOUS
 62
         7
100
AcDbLine
 10
343.1806831274
 20
91.7652270388
 30
0.0
 11
250.1185279567
 21
91.7652270388
 31
0.0
  0
LINE
  5
23F
100
AcDbEntity
  8
TA900_ISI_GW_B_D
  6
CONTINUOUS
 62
         7
100
AcDbLine
 10
318.6496055421
 20
116.2652270388
 30
0.0
 11
274.6496055421
 21
116.2652270388
 31
0.0
  0
ARC
  5
240
100
AcDbEntity
  8
TA900_ISI_GW_B_D
  6
CONTINUOUS
 62
         7
100
AcDbCircle
 10
248.6290643552
 20
75.6543912161
 30
0.0
 40
9.1641517939
100
AcDbArc
 50
80.6461341344
 51
99.3538658656
  0
ARC
  5
241
100
AcDbEntity
  8
TA900_ISI_GW_B_D
  6
CONTINUOUS
 62
         7
100
AcDbCircle
 10
298.7990835083
 20
-84.9761460229
 30
0.0
 40
177.3628304102
100
AcDbArc
 50
106.9336704506
 51
109.6109206664
  0
LINE
  5
242
100
AcDbEntity
  8
TA900_ISI_GW_B_D
  6
CONTINUOUS
 62
         7
100
AcDbLine
 10
239.6911050076
 20
81.8446499022
 30
0.0
 11
239.8996055421
 21
80.8885175064
 31
0.0
  0
LINE
  5
243
100
AcDbEntity
  8
TA900_ISI_GW_B_D
  6
CONTINUOUS
 62
         7
100
AcDbLine
 10
258.89142762
 20
81.8446499022
 30
0.0
 11
239.6911050076
 21
81.8446499022
 31
0.0
  0
LINE
  5
244
100
AcDbEntity
  8
TA900_ISI_GW_B_D
  6
CONTINUOUS
 62
         7
100
AcDbLine
 10
239.2705978607
 20
82.0984870236
 30
0.0
 11
239.6911050076
 21
81.8446499022
 31
0.0
  0
ENDBLK
  5
245
100
AcDbEntity
  8
TA900_ISI_GW_B_D
  6
CONTINUOUS
 62
         7
100
AcDbBlockEnd
  0
ENDSEC
  0
SECTION
  2
ENTITIES
  0
INSERT
  5
3A
102
{ACAD_XDICTIONARY
360
3B
102
}
100
AcDbEntity
  8
0
 62
         0
 48
0.0
100
AcDbBlockReference
  2
SE1
 10
0.0
 20
0.0
 30
0.0
  0
INSERT
  5
3E
100
AcDbEntity
  8
0
 62
         0
 48
0.0
100
AcDbBlockReference
  2
SE0
 10
0.0
 20
0.0
 30
0.0
  0
INSERT
  5
41
102
{ACAD_XDICTIONARY
360
42
102
}
100
AcDbEntity
  8
0
 62
         0
 48
0.0
100
AcDbBlockReference
  2
SE3
 10
0.0
 20
0.0
 30
0.0
  0
INSERT
  5
45
100
AcDbEntity
  8
0
 62
         0
 48
0.0
100
AcDbBlockReference
  2
SE2
 10
0.0
 20
0.0
 30
0.0
  0
INSERT
  5
48
102
{ACAD_XDICTIONARY
360
49
102
}
100
AcDbEntity
  8
0
 62
         0
 48
0.0
100
AcDbBlockReference
  2
SE5
 10
0.0
 20
0.0
 30
0.0
  0
INSERT
  5
4C
100
AcDbEntity
  8
0
 62
         0
 48
0.0
100
AcDbBlockReference
  2
SE4
 10
0.0
 20
0.0
 30
0.0
  0
INSERT
  5
4F
102
{ACAD_XDICTIONARY
360
50
102
}
100
AcDbEntity
  8
0
 62
         0
 48
0.0
100
AcDbBlockReference
  2
SE7
 10
0.0
 20
0.0
 30
0.0
  0
INSERT
  5
53
100
AcDbEntity
  8
0
 62
         0
 48
0.0
100
AcDbBlockReference
  2
SE6
 10
0.0
 20
0.0
 30
0.0
  0
ENDSEC
  0
SECTION
  2
OBJECTS
  0
DICTIONARY
  5
19
100
AcDbDictionary
  3
ACAD_GROUP
350
1A
  3
ACAD_MLINESTYLE
350
1B
  3
ACDBVARIABLEDICTIONARY
350
248
  0
DICTIONARY
  5
1A
102
{ACAD_REACTORS
330
19
102
}
100
AcDbDictionary
  0
DICTIONARY
  5
1B
102
{ACAD_REACTORS
330
19
102
}
100
AcDbDictionary
  3
STANDARD
350
1C
  0
MLINESTYLE
  5
1C
102
{ACAD_REACTORS
330
1B
102
}
100
AcDbMlineStyle
  2
Standard
 70
         0
  3

 62
         0
 51
90.0
 52
90.0
 71
         2
 49
0.5
 62
       256
  6
ByLayer
 49
-0.5
 62
       256
  6
ByLayer
  0
DICTIONARY
  5
22
102
{ACAD_REACTORS
330
19
102
}
100
AcDbDictionary
  0
DICTIONARY
  5
3B
100
AcDbDictionary
  3
ACAD_FILTER
350
3C
  0
DICTIONARY
  5
3C
100
AcDbDictionary
  3
SPATIAL
350
3D
  0
SPATIAL_FILTER
  5
3D
100
AcDbFilter
100
AcDbSpatialFilter
 70
         2
 10
-0.9222435911
 20
-0.1847729612
 10
152.7777564089
 20
196.6152270388
210
0.0
220
0.0
230
1.0
 11
0.0
 21
0.0
 31
0.0
 71
         1
 72
         0
 73
         0
 40
1.0
 40
0.0
 40
0.0
 40
0.0
 40
0.0
 40
1.0
 40
0.0
 40
0.0
 40
0.0
 40
0.0
 40
1.0
 40
0.0
 40
1.0
 40
0.0
 40
0.0
 40
0.0
 40
0.0
 40
1.0
 40
0.0
 40
0.0
 40
0.0
 40
0.0
 40
1.0
 40
0.0
  0
DICTIONARY
  5
42
100
AcDbDictionary
  3
ACAD_FILTER
350
43
  0
DICTIONARY
  5
43
100
AcDbDictionary
  3
SPATIAL
350
44
  0
SPATIAL_FILTER
  5
44
100
AcDbFilter
100
AcDbSpatialFilter
 70
         2
 10
-0.9222435911
 20
224.2499515327
 10
152.7777564089
 20
352.4499515327
210
0.0
220
0.0
230
1.0
 11
0.0
 21
0.0
 31
0.0
 71
         1
 72
         0
 73
         0
 40
1.0
 40
0.0
 40
0.0
 40
0.0
 40
0.0
 40
1.0
 40
0.0
 40
0.0
 40
0.0
 40
0.0
 40
1.0
 40
0.0
 40
1.0
 40
0.0
 40
0.0
 40
0.0
 40
0.0
 40
1.0
 40
0.0
 40
0.0
 40
0.0
 40
0.0
 40
1.0
 40
0.0
  0
DICTIONARY
  5
49
100
AcDbDictionary
  3
ACAD_FILTER
350
4A
  0
DICTIONARY
  5
4A
100
AcDbDictionary
  3
SPATIAL
350
4B
  0
SPATIAL_FILTER
  5
4B
100
AcDbFilter
100
AcDbSpatialFilter
 70
         2
 10
195.0870524297
 20
224.2499515327
 10
391.8870524297
 20
352.4499515327
210
0.0
220
0.0
230
1.0
 11
0.0
 21
0.0
 31
0.0
 71
         1
 72
         0
 73
         0
 40
1.0
 40
0.0
 40
0.0
 40
0.0
 40
0.0
 40
1.0
 40
0.0
 40
0.0
 40
0.0
 40
0.0
 40
1.0
 40
0.0
 40
1.0
 40
0.0
 40
0.0
 40
0.0
 40
0.0
 40
1.0
 40
0.0
 40
0.0
 40
0.0
 40
0.0
 40
1.0
 40
0.0
  0
DICTIONARY
  5
50
100
AcDbDictionary
  3
ACAD_FILTER
350
51
  0
DICTIONARY
  5
51
100
AcDbDictionary
  3
SPATIAL
350
52
  0
SPATIAL_FILTER
  5
52
100
AcDbFilter
100
AcDbSpatialFilter
 70
         2
 10
219.7996055421
 20
-0.1847729612
 10
373.4996055421
 20
196.6152270388
210
0.0
220
0.0
230
1.0
 11
0.0
 21
0.0
 31
0.0
 71
         1
 72
         0
 73
         0
 40
1.0
 40
0.0
 40
0.0
 40
0.0
 40
0.0
 40
1.0
 40
0.0
 40
0.0
 40
0.0
 40
0.0
 40
1.0
 40
0.0
 40
1.0
 40
0.0
 40
0.0
 40
0.0
 40
0.0
 40
1.0
 40
0.0
 40
0.0
 40
0.0
 40
0.0
 40
1.0
 40
0.0
  0
DICTIONARY
  5
248
100
AcDbDictionary
  3
DIMASSOC
350
249
  0
DICTIONARYVAR
  5
249
100
DictionaryVariables
280
         0
  1
2
  0
ENDSEC
  0
EOF
