  0
SECTION
  2
HEADER
  9
$ACADVER
  1
AC1014
  9
$ACADMAINTVER
 70
         0
  9
$DWGCODEPAGE
  3
ANSI_1252
  9
$INSBASE
 10
0.0
 20
0.0
 30
0.0
  9
$EXTMIN
 10
0.0
 20
0.0
 30
0.0
  9
$EXTMAX
 10
420.0
 20
297.0
 30
0.0
  9
$LIMMIN
 10
0.0
 20
0.0
  9
$LIMMAX
 10
420.0
 20
297.0
  9
$ORTHOMODE
 70
         0
  9
$REGENMODE
 70
         1
  9
$FILLMODE
 70
         1
  9
$QTEXTMODE
 70
         0
  9
$MIRRTEXT
 70
         1
  9
$DRAGMODE
 70
         2
  9
$LTSCALE
 40
25.4
  9
$OSMODE
 70
         0
  9
$ATTMODE
 70
         1
  9
$TEXTSIZE
 40
0.2
  9
$TRACEWID
 40
0.05
  9
$TEXTSTYLE
  7
Standard
  9
$CLAYER
  8
0
  9
$CELTYPE
  6
CONTINUOUS
  9
$CECOLOR
 62
       256
  9
$CELTSCALE
 40
1.0
  9
$DELOBJ
 70
         1
  9
$DISPSILH
 70
         0
  9
$DIMSCALE
 40
1.0
  9
$DIMASZ
 40
0.18
  9
$DIMEXO
 40
0.0625
  9
$DIMDLI
 40
0.38
  9
$DIMRND
 40
0.0
  9
$DIMDLE
 40
0.0
  9
$DIMEXE
 40
0.18
  9
$DIMTP
 40
0.0
  9
$DIMTM
 40
0.0
  9
$DIMTXT
 40
0.18
  9
$DIMCEN
 40
0.09
  9
$DIMTSZ
 40
0.0
  9
$DIMTOL
 70
         0
  9
$DIMLIM
 70
         0
  9
$DIMTIH
 70
         1
  9
$DIMTOH
 70
         1
  9
$DIMSE1
 70
         0
  9
$DIMSE2
 70
         0
  9
$DIMTAD
 70
         0
  9
$DIMZIN
 70
         0
  9
$DIMBLK
  1

  9
$DIMASO
 70
         1
  9
$DIMSHO
 70
         1
  9
$DIMPOST
  1

  9
$DIMAPOST
  1

  9
$DIMALT
 70
         0
  9
$DIMALTD
 70
         2
  9
$DIMALTF
 40
25.4
  9
$DIMLFAC
 40
1.0
  9
$DIMTOFL
 70
         0
  9
$DIMTVP
 40
0.0
  9
$DIMTIX
 70
         0
  9
$DIMSOXD
 70
         0
  9
$DIMSAH
 70
         0
  9
$DIMBLK1
  1

  9
$DIMBLK2
  1

  9
$DIMSTYLE
  2
Standard
  9
$DIMCLRD
 70
         0
  9
$DIMCLRE
 70
         0
  9
$DIMCLRT
 70
         0
  9
$DIMTFAC
 40
1.0
  9
$DIMGAP
 40
0.09
  9
$DIMJUST
 70
         0
  9
$DIMSD1
 70
         0
  9
$DIMSD2
 70
         0
  9
$DIMTOLJ
 70
         1
  9
$DIMTZIN
 70
         0
  9
$DIMALTZ
 70
         0
  9
$DIMALTTZ
 70
         0
  9
$DIMFIT
 70
         3
  9
$DIMUPT
 70
         0
  9
$DIMUNIT
 70
         2
  9
$DIMDEC
 70
         4
  9
$DIMTDEC
 70
         4
  9
$DIMALTU
 70
         2
  9
$DIMALTTD
 70
         2
  9
$DIMTXSTY
  7
Standard
  9
$DIMAUNIT
 70
         0
  9
$LUNITS
 70
         2
  9
$LUPREC
 70
         4
  9
$SKETCHINC
 40
0.1
  9
$FILLETRAD
 40
0.0
  9
$AUNITS
 70
         0
  9
$AUPREC
 70
         0
  9
$MENU
  1
acad
  9
$ELEVATION
 40
0.0
  9
$PELEVATION
 40
0.0
  9
$THICKNESS
 40
0.0
  9
$LIMCHECK
 70
         0
  9
$BLIPMODE
 70
         1
  9
$CHAMFERA
 40
0.0
  9
$CHAMFERB
 40
0.0
  9
$CHAMFERC
 40
0.0
  9
$CHAMFERD
 40
0.0
  9
$SKPOLY
 70
         0
  9
$TDCREATE
 40
0.000000000
  9
$TDUPDATE
 40
0.000000000
  9
$TDINDWG
 40
0.0000000000
  9
$TDUSRTIMER
 40
0.0000000000
  9
$USRTIMER
 70
         1
  9
$ANGBASE
 50
0.0
  9
$ANGDIR
 70
         0
  9
$PDMODE
 70
         0
  9
$PDSIZE
 40
0.0
  9
$PLINEWID
 40
0.0
  9
$COORDS
 70
         0
  9
$SPLFRAME
 70
         0
  9
$SPLINETYPE
 70
         6
  9
$SPLINESEGS
 70
         8
  9
$ATTDIA
 70
         0
  9
$ATTREQ
 70
         1
  9
$HANDLING
 70
         1
  9
$HANDSEED
  5
240
  9
$SURFTAB1
 70
         6
  9
$SURFTAB2
 70
         6
  9
$SURFTYPE
 70
         6
  9
$SURFU
 70
         6
  9
$SURFV
 70
         6
  9
$UCSNAME
  2

  9
$UCSORG
 10
0.0
 20
0.0
 30
0.0
  9
$UCSXDIR
 10
1.0
 20
0.0
 30
0.0
  9
$UCSYDIR
 10
0.0
 20
1.0
 30
0.0
  9
$PUCSNAME
  2

  9
$PUCSORG
 10
0.0
 20
0.0
 30
0.0
  9
$PUCSXDIR
 10
1.0
 20
0.0
 30
0.0
  9
$PUCSYDIR
 10
0.0
 20
1.0
 30
0.0
  9
$USERI1
 70
         0
  9
$USERI2
 70
         0
  9
$USERI3
 70
         0
  9
$USERI4
 70
         0
  9
$USERI5
 70
         0
  9
$USERR1
 40
0.0
  9
$USERR2
 40
0.0
  9
$USERR3
 40
0.0
  9
$USERR4
 40
0.0
  9
$USERR5
 40
0.0
  9
$WORLDVIEW
 70
         1
  9
$SHADEDGE
 70
         3
  9
$SHADEDIF
 70
        70
  9
$TILEMODE
 70
         1
  9
$MAXACTVP
 70
        16
  9
$PINSBASE
 10
0.0
 20
0.0
 30
0.0
  9
$PLIMCHECK
 70
         0
  9
$PEXTMIN
 10
1.0000000000E+20
 20
1.0000000000E+20
 30
1.0000000000E+20
  9
$PEXTMAX
 10
-1.0000000000E+20
 20
-1.0000000000E+20
 30
-1.0000000000E+20
  9
$PLIMMIN
 10
0.0
 20
0.0
  9
$PLIMMAX
 10
12.0
 20
9.0
  9
$UNITMODE
 70
         0
  9
$VISRETAIN
 70
         0
  9
$PLINEGEN
 70
         1
  9
$PSLTSCALE
 70
         0
  9
$TREEDEPTH
 70
      3020
  9
$PICKSTYLE
 70
         1
  9
$CMLSTYLE
  2
Standard
  9
$CMLJUST
 70
         0
  9
$CMLSCALE
 40
1.0
  9
$PROXYGRAPHICS
 70
         0
  9
$MEASUREMENT
 70
         0
  0
ENDSEC
  0
SECTION
  2
CLASSES
  0
CLASS
  1
LWPOLYLINE
  2
AcDbPolyline
  3
"AutoCAD"
 90
        0
280
         0
281
         1
  0
CLASS
  1
IMAGE
  2
AcDbRasterImage
  3
ISM
 90
      127
280
         0
281
         1
  0
CLASS
  1
OLE2FRAME
  2
AcDbOle2Frame
  3
""
 90
        0
280
         0
281
         1
  0
CLASS
  1
HATCH
  2
AcDbHatch
  3
"ACAD_SEDONA"
 90
        0
280
         0
281
         1
  0
CLASS
  1
DICTIONARYVAR
  2
AcDbDictionaryVar
  3
"AutoCAD"
 90
        0
280
         0
281
         0
  0
CLASS
  1
RASTERVARIABLES
  2
AcDbRasterVariables
  3
ISM
 90
        0
280
         0
281
         0
  0
CLASS
  1
IMAGEDEF
  2
AcDbRasterImageDef
  3
ISM
 90
        0
280
         0
281
         0
  0
CLASS
  1
IMAGEDEF_REACTOR
  2
AcDbRasterImageDefReactor
  3
ISM
 90
        1
280
         0
281
         0
  0
CLASS
  1
IDBUFFER
  2
AcDbIdBuffer
  3
"Acad"
 90
        0
280
         0
281
         0
  0
CLASS
  1
SPATIAL_FILTER
  2
AcDbSpatialFilter
  3
"Acad"
 90
        0
280
         0
281
         0
  0
CLASS
  1
XRECORD
  2
AcDbXrecord
  3
"<Built In>"
 90
        0
280
         0
281
         0
  0
CLASS
  1
SORTENTSTABLE
  2
AcDbSortentsTable
  3
"AutoCAD"
 90
        0
280
         0
281
         0
  0
CLASS
  1
LAYER_INDEX
  2
AcDbLayerIndex
  3
"Acad"
 90
        0
280
         0
281
         0
  0
CLASS
  1
SPATIAL_INDEX
  2
AcDbSpatialIndex
  3
"Acad"
 90
        0
280
         0
281
         0
  0
CLASS
  1
OBJECT_PTR
  2
CAseDLPNTableRecord
  3
"ASE-LPNTableRecord"
 90
        1
280
         0
281
         0
  0
CLASS
  1
LAYOUT
  2
AcDbLayout
  3
"AutoCAD 2000"
 90
        1
280
         0
281
         0
  0
CLASS
  1
PLOTSETTINGS
  2
AcDbPlotSettings
  3
"AutoCAD 2000"
 90
        1
280
         0
281
         0
  0
CLASS
  1
ACDBDICTIONARYWDFLT
  2
AcDbDictionaryWithDefault
  3
"AutoCAD 2000"
 90
        1
280
         0
281
         0
  0
CLASS
  1
ACDBPLACEHOLDER
  2
AcDbPlaceHolder
  3
"AutoCAD 2000"
 90
        1
280
         0
281
         0
  0
CLASS
  1
VBA_PROJECT
  2
AcDbVbaProject
  3
"acadvba"
 90
        1
280
         0
281
         0
  0
CLASS
  1
WIPEOUT
  2
AcDbWipeout
  3
WipeOut|AutoCAD Express Tool|expresstools@autodesk.com
 90
      127
280
         0
281
         1
  0
CLASS
  1
WIPEOUTVARIABLES
  2
AcDbWipeoutVariables
  3
WipeOut|AutoCAD Express Tool|expresstools@autodesk.com
 90
        0
280
         0
281
         0
  0
CLASS
  1
RTEXT
  2
RText
  3
RText|AutoCAD Express Tool|expresstools@autodesk.com
 90
        0
280
         0
281
         1
  0
CLASS
  1
ARCALIGNEDTEXT
  2
AcDbArcAlignedText
  3
ATEXT|AutoCAD Express Tool|expresstools@autodesk.com
 90
        0
280
         0
281
         1
  0
ENDSEC
  0
SECTION
  2
TABLES
  0
TABLE
  2
VPORT
  5
7
100
AcDbSymbolTable
 70
         1
  0
VPORT
  5
15
100
AcDbSymbolTableRecord
100
AcDbViewportTableRecord
  2
*ACTIVE
 70
         0
 10
0.0
 20
0.0
 11
1.0
 21
1.0
 12
210.0
 22
148.5
 13
0.0
 23
0.0
 14
1.0
 24
1.0
 15
0.0
 25
0.0
 16
0.0
 26
0.0
 36
1.0
 17
0.0
 27
0.0
 37
0.0
 40
297.0
 41
1.604229
 42
50.0
 43
0.0
 44
0.0
 50
0.0
 51
0.0
 71
         0
 72
       100
 73
         1
 74
         1
 75
         0
 76
         0
 77
         0
 78
         0
  0
ENDTAB
  0
TABLE
  2
LTYPE
  5
4
100
AcDbSymbolTable
 70
         7
  0
LTYPE
  5
11
100
AcDbSymbolTableRecord
100
AcDbLinetypeTableRecord
  2
ByBlock
 70
        64
  3

 72
        65
 73
         0
 40
0.0
  0
LTYPE
  5
12
100
AcDbSymbolTableRecord
100
AcDbLinetypeTableRecord
  2
ByLayer
 70
        64
  3

 72
        65
 73
         0
 40
0.0
  0
LTYPE
  5
13
100
AcDbSymbolTableRecord
100
AcDbLinetypeTableRecord
  2
CONTINUOUS
 70
         0
  3
Solid line
 72
        65
 73
         0
 40
0.0
  0
LTYPE
  5
28
100
AcDbSymbolTableRecord
100
AcDbLinetypeTableRecord
  2
HIDDEN2
 70
        64
  3
_ _ _ _ _ _ _ _ _ _ _ _ _ _ _ _ _ _ _ _ _ _ _ _
 72
        65
 73
         2
 40
0.1875
 49
0.125
 74
         0
 49
-0.0625
 74
         0
  0
LTYPE
  5
29
100
AcDbSymbolTableRecord
100
AcDbLinetypeTableRecord
  2
CENTER2
 70
        64
  3
___ _ ___ _ ___ _ ___ _ ___ _ ___ _ ___ _ ___ _
 72
        65
 73
         4
 40
1.125
 49
0.75
 74
         0
 49
-0.125
 74
         0
 49
0.125
 74
         0
 49
-0.125
 74
         0
  0
LTYPE
  5
2A
100
AcDbSymbolTableRecord
100
AcDbLinetypeTableRecord
  2
PHANTOM2
 70
        64
  3
___ _ _ ___ _ _ ___ _ _ ___ _ _ ___ _ _ ___ _ _
 72
        65
 73
         6
 40
1.25
 49
0.625
 74
         0
 49
-0.125
 74
         0
 49
0.125
 74
         0
 49
-0.125
 74
         0
 49
0.125
 74
         0
 49
-0.125
 74
         0
  0
LTYPE
  5
2B
100
AcDbSymbolTableRecord
100
AcDbLinetypeTableRecord
  2
DOT2
 70
        64
  3
...............................................
 72
        65
 73
         2
 40
0.125
 49
0.0
 74
         0
 49
-0.125
 74
         0
  0
ENDTAB
  0
TABLE
  2
LAYER
  5
2
100
AcDbSymbolTable
 70
         3
  0
LAYER
  5
14
100
AcDbSymbolTableRecord
100
AcDbLayerTableRecord
  2
0
 70
         0
 62
         7
  6
CONTINUOUS
  0
LAYER
  5
2D
100
AcDbSymbolTableRecord
100
AcDbLayerTableRecord
  2
DEFAULT
 70
         0
 62
         7
  6
CONTINUOUS
  0
LAYER
  5
37
100
AcDbSymbolTableRecord
100
AcDbLayerTableRecord
  2
TA900_ISI_GW_B_D
 70
         0
 62
         7
  6
CONTINUOUS
  0
ENDTAB
  0
TABLE
  2
STYLE
  5
3
100
AcDbSymbolTable
 70
         1
  0
STYLE
  5
17
100
AcDbSymbolTableRecord
100
AcDbTextStyleTableRecord
  2
Standard
 70
         0
 40
0.0
 41
1.0
 50
0.0
 71
         0
 42
0.2
  3
txt
  4

  0
ENDTAB
  0
TABLE
  2
VIEW
  5
5
100
AcDbSymbolTable
 70
         0
  0
ENDTAB
  0
TABLE
  2
UCS
  5
6
100
AcDbSymbolTable
 70
         0
  0
ENDTAB
  0
TABLE
  2
APPID
  5
8
100
AcDbSymbolTable
 70
         1
  0
APPID
  5
16
100
AcDbSymbolTableRecord
100
AcDbRegAppTableRecord
  2
ACAD
 70
         0
  0
ENDTAB
  0
TABLE
  2
DIMSTYLE
  5
9
100
AcDbSymbolTable
 70
         1
  0
DIMSTYLE
105
18
100
AcDbSymbolTableRecord
100
AcDbDimStyleTableRecord
  2
Standard
 70
         0
  3

  4

  5

  6

  7

 40
1.0
 41
0.18
 42
0.0625
 43
0.38
 44
0.18
 45
0.0
 46
0.0
 47
0.0
 48
0.0
 71
         0
 72
         0
 73
         1
 74
         1
 75
         0
 76
         0
 77
         0
 78
         0
140
0.18
141
0.09
142
0.0
143
25.4
144
1.0
145
0.0
146
1.0
147
0.09
170
         0
171
         2
172
         0
173
         0
174
         0
175
         0
176
         0
177
         0
178
         0
270
         2
271
         4
272
         4
273
         2
274
         2
275
         0
280
         0
281
         0
282
         0
283
         1
284
         0
285
         0
286
         0
287
         0
288
         0
340
17
  0
ENDTAB
  0
TABLE
  2
BLOCK_RECORD
  5
1
100
AcDbSymbolTable
 70
         8
  0
BLOCK_RECORD
  5
A
100
AcDbSymbolTableRecord
100
AcDbBlockTableRecord
  2
*MODEL_SPACE
  0
BLOCK_RECORD
  5
B
100
AcDbSymbolTableRecord
100
AcDbBlockTableRecord
  2
*PAPER_SPACE
  0
BLOCK_RECORD
  5
38
100
AcDbSymbolTableRecord
100
AcDbBlockTableRecord
  2
SE0
  0
BLOCK_RECORD
  5
39
100
AcDbSymbolTableRecord
100
AcDbBlockTableRecord
  2
SE1
  0
BLOCK_RECORD
  5
3F
100
AcDbSymbolTableRecord
100
AcDbBlockTableRecord
  2
SE2
  0
BLOCK_RECORD
  5
40
100
AcDbSymbolTableRecord
100
AcDbBlockTableRecord
  2
SE3
  0
BLOCK_RECORD
  5
46
100
AcDbSymbolTableRecord
100
AcDbBlockTableRecord
  2
SE4
  0
BLOCK_RECORD
  5
47
100
AcDbSymbolTableRecord
100
AcDbBlockTableRecord
  2
SE5
  0
BLOCK_RECORD
  5
4D
100
AcDbSymbolTableRecord
100
AcDbBlockTableRecord
  2
SE6
  0
BLOCK_RECORD
  5
4E
100
AcDbSymbolTableRecord
100
AcDbBlockTableRecord
  2
SE7
  0
ENDTAB
  0
ENDSEC
  0
SECTION
  2
BLOCKS
  0
BLOCK
  5
D
100
AcDbEntity
  8
0
100
AcDbBlockBegin
  2
*MODEL_SPACE
 70
         0
 10
0.0
 20
0.0
 30
0.0
  3
*MODEL_SPACE
  1

  0
ENDBLK
  5
E
100
AcDbEntity
  8
0
100
AcDbBlockEnd
  0
BLOCK
  5
F
100
AcDbEntity
 67
         1
  8
0
100
AcDbBlockBegin
  2
*PAPER_SPACE
 70
         0
 10
0.0
 20
0.0
 30
0.0
  3
*PAPER_SPACE
  1

  0
ENDBLK
  5
10
100
AcDbEntity
 67
         1
  8
0
100
AcDbBlockEnd
  0
BLOCK
  5
EB
100
AcDbEntity
  8
0
 62
         1
 48
0.0
100
AcDbBlockBegin
  2
SE0
 70
         0
 10
0.0
 20
0.0
 30
0.0
  3
SE0
  1

  0
ENDBLK
  5
EC
100
AcDbEntity
  8
0
 62
         1
 48
0.0
100
AcDbBlockEnd
  0
BLOCK
  5
54
100
AcDbEntity
  8
0
 62
         1
 48
0.0
100
AcDbBlockBegin
  2
SE1
 70
         0
 10
0.0
 20
0.0
 30
0.0
  3
SE1
  1

  0
LINE
  5
55
100
AcDbEntity
  8
TA900_ISI_GW_B_D
  6
CONTINUOUS
 62
         7
100
AcDbLine
 10
30.7095151108
 20
136.7739870184
 30
0.0
 11
30.7095151108
 21
156.3916770189
 31
0.0
  0
SPLINE
  5
56
100
AcDbEntity
  8
TA900_ISI_GW_B_D
  6
CONTINUOUS
 62
         7
100
AcDbSpline
210
0.0
220
0.0
230
1.0
 70
         8
 71
         3
 72
        20
 73
        16
 74
         0
 42
0.0
 43
0.0
 40
0.0
 40
0.0
 40
0.0
 40
0.0
 40
0.1249999999999997
 40
0.1249999999999997
 40
0.2499999999999993
 40
0.2499999999999993
 40
0.4999999999999996
 40
0.4999999999999996
 40
0.6249999999999997
 40
0.6249999999999997
 40
0.7499999999999998
 40
0.7499999999999998
 40
0.8749999999999999
 40
0.8749999999999999
 40
1.0
 40
1.0
 40
1.0
 40
1.0
 10
30.709515110789741
 20
156.39167701887712
 30
0.0
 10
31.268680495663336
 20
156.76024172007942
 30
0.0
 10
31.641547247992658
 20
157.1008800574827
 30
0.0
 10
32.00895944265217
 20
157.7263184021499
 30
0.0
 10
31.99409568218055
 20
158.00206868062943
 30
0.0
 10
31.341205702507203
 20
158.68769511492604
 30
0.0
 10
30.053555583443284
 20
158.94610512584813
 30
0.0
 10
27.20682979240803
 20
158.94753104146125
 30
0.0
 10
26.093111168276256
 20
158.88481524539012
 30
0.0
 10
23.712921502083233
 20
158.64380111366992
 30
0.0
 10
22.414397468194984
 20
158.46233344549847
 30
0.0
 10
19.801430286220072
 20
158.00742853246669
 30
0.0
 10
18.45165713219739
 20
157.72794332484162
 30
0.0
 10
15.860861786714045
 20
157.10748265368093
 30
0.0
 10
14.590824739897034
 20
156.76031750480186
 30
0.0
 10
13.405385769805045
 20
156.39167701887712
 30
0.0
  0
LINE
  5
57
100
AcDbEntity
  8
TA900_ISI_GW_B_D
  6
CONTINUOUS
 62
         7
100
AcDbLine
 10
47.3751020764
 20
156.3916770189
 30
0.0
 11
30.7095151108
 21
156.3916770189
 31
0.0
  0
LINE
  5
58
100
AcDbEntity
  8
TA900_ISI_GW_B_D
  6
CONTINUOUS
 62
         7
100
AcDbLine
 10
13.4053857698
 20
156.3916770189
 30
0.0
 11
6.5022736237
 21
156.3916770189
 31
0.0
  0
LINE
  5
59
100
AcDbEntity
  8
TA900_ISI_GW_B_D
  6
CONTINUOUS
 62
         7
100
AcDbLine
 10
88.5124234411
 20
136.7739870184
 30
0.0
 11
71.8468364755
 21
136.7739870184
 31
0.0
  0
LINE
  5
5A
100
AcDbEntity
  8
TA900_ISI_GW_B_D
  6
CONTINUOUS
 62
         7
100
AcDbLine
 10
88.5124234411
 20
156.3916770189
 30
0.0
 11
71.8468364755
 21
156.3916770189
 31
0.0
  0
LINE
  5
5B
100
AcDbEntity
  8
TA900_ISI_GW_B_D
  6
CONTINUOUS
 62
         7
100
AcDbLine
 10
112.7196649281
 20
156.3916770189
 30
0.0
 11
105.816552782
 21
156.3916770189
 31
0.0
  0
SPLINE
  5
5C
100
AcDbEntity
  8
TA900_ISI_GW_B_D
  6
CONTINUOUS
 62
         7
100
AcDbSpline
210
0.0
220
0.0
230
1.0
 70
         8
 71
         3
 72
        22
 73
        18
 74
         0
 42
0.0
 43
0.0
 40
0.0
 40
0.0
 40
0.0
 40
0.0
 40
0.125
 40
0.125
 40
0.25
 40
0.25
 40
0.375
 40
0.375
 40
0.5
 40
0.5
 40
0.625
 40
0.625
 40
0.75
 40
0.75
 40
0.875
 40
0.875
 40
1.0
 40
1.0
 40
1.0
 40
1.0
 10
88.512423441054452
 20
136.77398701842887
 30
0.0
 10
87.950529956773778
 20
136.4235912953431
 30
0.0
 10
87.578384803224225
 20
136.08727303639733
 30
0.0
 10
87.212757553906258
 20
135.44901583192282
 30
0.0
 10
87.228504780286201
 20
135.15562582627717
 30
0.0
 10
87.663334817737578
 20
134.65628455273037
 30
0.0
 10
88.087610697600056
 20
134.45022023965015
 30
0.0
 10
89.305659774079004
 20
134.17069713633163
 30
0.0
 10
90.115841472153207
 20
134.09510820128196
 30
0.0
 10
92.014551580634446
 20
134.09388969866257
 30
0.0
 10
93.129689581399575
 20
134.16826291351742
 30
0.0
 10
95.509778060724273
 20
134.44605247027536
 30
0.0
 10
96.806181169907234
 20
134.65240086910825
 30
0.0
 10
99.415112151209968
 20
135.14989324013854
 30
0.0
 10
100.76211500343136
 20
135.44706992058744
 30
0.0
 10
103.35274714865177
 20
136.08066082413981
 30
0.0
 10
104.6253313298222
 20
136.42351957882036
 30
0.0
 10
105.81655278203914
 20
136.77398701842887
 30
0.0
  0
ARC
  5
5D
100
AcDbEntity
  8
TA900_ISI_GW_B_D
  6
CONTINUOUS
 62
         7
100
AcDbCircle
 10
59.6109692759
 20
163.2257666801
 30
0.0
 40
29.1446923709
100
AcDbArc
 50
245.1760343823
 51
294.8239656177
  0
LINE
  5
5E
100
AcDbEntity
  8
TA900_ISI_GW_B_D
  6
CONTINUOUS
 62
         7
100
AcDbLine
 10
47.3751020764
 20
156.3916770189
 30
0.0
 11
47.3751020764
 21
136.7739870184
 31
0.0
  0
LINE
  5
5F
100
AcDbEntity
  8
TA900_ISI_GW_B_D
  6
CONTINUOUS
 62
         7
100
AcDbLine
 10
36.6109692759
 20
90.9605204979
 30
0.0
 11
82.6109692759
 21
90.9605204979
 31
0.0
  0
SPLINE
  5
60
100
AcDbEntity
  8
TA900_ISI_GW_B_D
  6
CONTINUOUS
 62
         7
100
AcDbSpline
210
0.0
220
0.0
230
1.0
 70
         8
 71
         3
 72
        20
 73
        16
 74
         0
 42
0.0
 43
0.0
 40
0.0
 40
0.0
 40
0.0
 40
0.0
 40
0.1250000000000003
 40
0.1250000000000003
 40
0.2500000000000006
 40
0.2500000000000006
 40
0.5000000000000007
 40
0.5000000000000007
 40
0.6250000000000006
 40
0.6250000000000006
 40
0.7500000000000004
 40
0.7500000000000004
 40
0.8750000000000002
 40
0.8750000000000002
 40
1.0
 40
1.0
 40
1.0
 40
1.0
 10
105.81655278203912
 20
156.39167701887712
 30
0.0
 10
104.6313575132408
 20
156.76024172007945
 30
0.0
 10
103.38705219122771
 20
157.1008800574827
 30
0.0
 10
100.77863997129272
 20
157.7263184021499
 30
0.0
 10
99.44814507234878
 20
158.00206868062949
 30
0.0
 10
95.519279565958314
 20
158.6876951149261
 30
0.0
 10
92.990631177891629
 20
158.94610512584816
 30
0.0
 10
90.137067127005338
 20
158.94753104146127
 30
0.0
 10
89.324245430127988
 20
158.88481524539017
 30
0.0
 10
88.098803336365407
 20
158.64380111366995
 30
0.0
 10
87.669242507163659
 20
158.46233344549847
 30
0.0
 10
87.229893558391979
 20
158.00742853246669
 30
0.0
 10
87.213574711252406
 20
157.72794332484165
 30
0.0
 10
87.574982876153683
 20
157.10748265368096
 30
0.0
 10
87.953143079913858
 20
156.76031750480186
 30
0.0
 10
88.512423441054423
 20
156.39167701887712
 30
0.0
  0
LINE
  5
61
100
AcDbEntity
  8
TA900_ISI_GW_B_D
  6
CONTINUOUS
 62
         7
100
AcDbLine
 10
71.8468364755
 20
136.7739870184
 30
0.0
 11
71.8468364755
 21
156.3916770189
 31
0.0
  0
ARC
  5
62
100
AcDbEntity
  8
TA900_ISI_GW_B_D
  6
CONTINUOUS
 62
         7
100
AcDbCircle
 10
59.6109692759
 20
129.0131143216
 30
0.0
 40
29.9883667694
100
AcDbArc
 50
65.9194562974
 51
114.0805437026
  0
SPLINE
  5
63
100
AcDbEntity
  8
TA900_ISI_GW_B_D
  6
CONTINUOUS
 62
         7
100
AcDbSpline
210
0.0
220
0.0
230
1.0
 70
         8
 71
         3
 72
        14
 73
        10
 74
         0
 42
0.0
 43
0.0
 40
0.500480808949297
 40
0.500480808949297
 40
0.500480808949297
 40
0.500480808949297
 40
0.6249999999999999
 40
0.6249999999999999
 40
0.7499999999999999
 40
0.7499999999999999
 40
0.875
 40
0.875
 40
1.0
 40
1.0
 40
1.0
 40
1.0
 10
104.11096954536369
 20
158.94705841650591
 30
0.0
 10
104.11100652809755
 20
158.94704771736338
 30
0.0
 10
104.32370347401037
 20
158.88435171838438
 30
0.0
 10
105.13866293361876
 20
158.64380111366987
 30
0.0
 10
105.75311270825418
 20
158.46233344549847
 30
0.0
 10
107.29009290066291
 20
158.00742853246669
 30
0.0
 10
108.23298748346237
 20
157.72794332484165
 30
0.0
 10
110.32051060509808
 20
157.10748265368096
 30
0.0
 10
111.48596205771423
 20
156.76031750480189
 30
0.0
 10
112.71966492809599
 20
156.39167701887712
 30
0.0
  0
SPLINE
  5
64
100
AcDbEntity
  8
TA900_ISI_GW_B_D
  6
CONTINUOUS
 62
         7
100
AcDbSpline
210
0.0
220
0.0
230
1.0
 70
         8
 71
         3
 72
        14
 73
        10
 74
         0
 42
0.0
 43
0.0
 40
0.0
 40
0.0
 40
0.0
 40
0.0
 40
0.1249999999999998
 40
0.1249999999999998
 40
0.2499999999999997
 40
0.2499999999999997
 40
0.4999999999999998
 40
0.4999999999999998
 40
0.5004819399433599
 40
0.5004819399433599
 40
0.5004819399433599
 40
0.5004819399433599
 10
6.5022736237481666
 20
156.39167701887715
 30
0.0
 10
7.7357228707945893
 20
156.76024172007942
 30
0.0
 10
8.8792362109076226
 20
157.1008800574827
 30
0.0
 10
10.983461834087882
 20
157.7263184021499
 30
0.0
 10
11.913753533641838
 20
158.00206868062949
 30
0.0
 10
14.23021804358468
 20
158.6876951149261
 30
0.0
 10
15.107736335037329
 20
158.94610512584813
 30
0.0
 10
15.11096613594605
 20
158.94705756880541
 30
0.0
 10
15.110969163510269
 20
158.94705846201623
 30
0.0
 10
15.110969005420145
 20
158.94705841619884
 30
0.0
  0
ARC
  5
65
100
AcDbEntity
  8
TA900_ISI_GW_B_D
  6
CONTINUOUS
 62
         7
100
AcDbCircle
 10
59.6109692759
 20
183.7813714623
 30
0.0
 40
129.2060640276
100
AcDbArc
 50
258.5266809925
 51
281.4733190075
  0
SPLINE
  5
66
100
AcDbEntity
  8
TA900_ISI_GW_B_D
  6
CONTINUOUS
 62
         7
100
AcDbSpline
210
0.0
220
0.0
230
1.0
 70
         8
 71
         3
 72
        12
 73
         8
 74
         0
 42
0.0
 43
0.0
 40
0.0
 40
0.0
 40
0.0
 40
0.0
 40
0.25
 40
0.25
 40
0.375
 40
0.375
 40
0.4998851632555202
 40
0.4998851632555202
 40
0.4998851632555202
 40
0.4998851632555202
 10
98.75769376349389
 20
57.453137009483072
 30
0.0
 10
98.790991381495033
 20
57.768305047049559
 30
0.0
 10
98.816925597698528
 20
58.007591867978604
 30
0.0
 10
98.843269455932415
 20
58.249339841565352
 30
0.0
 10
98.849951203252132
 20
58.310263953376214
 30
0.0
 10
98.85877753174654
 20
58.39063820669606
 30
0.0
 10
98.860969268591276
 20
58.410520478530913
 30
0.0
 10
98.860969275922329
 20
58.410520497969422
 30
0.0
  0
ARC
  5
67
100
AcDbEntity
  8
TA900_ISI_GW_B_D
  6
CONTINUOUS
 62
         7
100
AcDbCircle
 10
74.1545111777
 20
36.3919601325
 30
0.0
 40
32.38656766
100
AcDbArc
 50
40.5646713661
 51
46.7231275566
  0
LINE
  5
68
100
AcDbEntity
  8
TA900_ISI_GW_B_D
  6
CONTINUOUS
 62
         7
100
AcDbLine
 10
16.3609692759
 20
58.4105204979
 30
0.0
 11
16.3609692759
 21
11.5105204979
 31
0.0
  0
LINE
  5
69
100
AcDbEntity
  8
TA900_ISI_GW_B_D
  6
CONTINUOUS
 62
         7
100
AcDbLine
 10
114.6109692759
 20
58.9605204979
 30
0.0
 11
114.6109692759
 21
10.9605204979
 31
0.0
  0
LINE
  5
6A
100
AcDbEntity
  8
TA900_ISI_GW_B_D
  6
CONTINUOUS
 62
         7
100
AcDbLine
 10
102.8609692759
 20
58.4105204979
 30
0.0
 11
102.8609692759
 21
11.5105204979
 31
0.0
  0
LINE
  5
6B
100
AcDbEntity
  8
TA900_ISI_GW_B_D
  6
CONTINUOUS
 62
         7
100
AcDbLine
 10
4.6109692759
 20
58.9605204979
 30
0.0
 11
4.6109692759
 21
10.9605204979
 31
0.0
  0
ARC
  5
6C
100
AcDbEntity
  8
TA900_ISI_GW_B_D
  6
CONTINUOUS
 62
         7
100
AcDbCircle
 10
38.8871738091
 20
34.9605204979
 30
0.0
 40
75.3475686965
100
AcDbArc
 50
348.956025249
 51
11.043974751
  0
ARC
  5
6D
100
AcDbEntity
  8
TA900_ISI_GW_B_D
  6
CONTINUOUS
 62
         7
100
AcDbCircle
 10
-59.5630116155
 20
34.9605204979
 30
0.0
 40
75.347570459
100
AcDbArc
 50
348.9560255106
 51
11.0439744894
  0
ARC
  5
6E
100
AcDbEntity
  8
TA900_ISI_GW_B_D
  6
CONTINUOUS
 62
         7
100
AcDbCircle
 10
122.8504392177
 20
56.6111555925
 30
0.0
 40
19.4092573746
100
AcDbArc
 50
158.1716867869
 51
201.8283132131
  0
LINE
  5
6F
100
AcDbEntity
  8
TA900_ISI_GW_B_D
  6
CONTINUOUS
 62
         7
100
AcDbLine
 10
14.3891556329
 20
63.8280339574
 30
0.0
 11
6.3825992901
 21
63.8280339574
 31
0.0
  0
LINE
  5
70
100
AcDbEntity
  8
TA900_ISI_GW_B_D
  6
CONTINUOUS
 62
         7
100
AcDbLine
 10
14.3891556329
 20
49.3942772276
 30
0.0
 11
6.3825992901
 21
49.3942772276
 31
0.0
  0
LINE
  5
71
100
AcDbEntity
  8
TA900_ISI_GW_B_D
  6
CONTINUOUS
 62
         7
100
AcDbLine
 10
14.3891556329
 20
20.5267637682
 30
0.0
 11
6.3825992901
 21
20.5267637682
 31
0.0
  0
LINE
  5
72
100
AcDbEntity
  8
TA900_ISI_GW_B_D
  6
CONTINUOUS
 62
         7
100
AcDbLine
 10
14.3891556329
 20
6.0930070384
 30
0.0
 11
6.3825992901
 21
6.0930070384
 31
0.0
  0
ARC
  5
73
100
AcDbEntity
  8
TA900_ISI_GW_B_D
  6
CONTINUOUS
 62
         7
100
AcDbCircle
 10
122.8504392177
 20
13.3098854033
 30
0.0
 40
19.4092573746
100
AcDbArc
 50
158.1716867869
 51
201.8283132131
  0
ARC
  5
74
100
AcDbEntity
  8
TA900_ISI_GW_B_D
  6
CONTINUOUS
 62
         7
100
AcDbCircle
 10
178.7849501674
 20
34.9605204979
 30
0.0
 40
75.347570459
100
AcDbArc
 50
168.9560255106
 51
191.0439744894
  0
LINE
  5
75
100
AcDbEntity
  8
TA900_ISI_GW_B_D
  6
CONTINUOUS
 62
         7
100
AcDbLine
 10
33.910385625
 20
5.1605204979
 30
0.0
 11
33.910385625
 21
33.9605204979
 31
0.0
  0
LINE
  5
76
100
AcDbEntity
  8
TA900_ISI_GW_B_D
  6
CONTINUOUS
 62
         7
100
AcDbLine
 10
85.3115529269
 20
5.1605204979
 30
0.0
 11
85.3115529269
 21
33.9605204979
 31
0.0
  0
LINE
  5
77
100
AcDbEntity
  8
TA900_ISI_GW_B_D
  6
CONTINUOUS
 62
         7
100
AcDbLine
 10
33.910385625
 20
57.1571755853
 30
0.0
 11
33.910385625
 21
33.9605204979
 31
0.0
  0
SPLINE
  5
78
100
AcDbEntity
  8
TA900_ISI_GW_B_D
  6
CONTINUOUS
 62
         7
100
AcDbSpline
210
0.0
220
0.0
230
1.0
 70
         8
 71
         3
 72
        14
 73
        10
 74
         0
 42
0.0
 43
0.0
 40
0.4998851632555217
 40
0.4998851632555217
 40
0.4998851632555217
 40
0.4998851632555217
 40
0.5000000000000001
 40
0.5000000000000001
 40
0.7500000000000001
 40
0.7500000000000001
 40
0.875
 40
0.875
 40
1.0
 40
1.0
 40
1.0
 40
1.0
 10
20.36096927592186
 20
58.410520497969422
 30
0.0
 10
20.360969275915117
 20
58.410520497987299
 30
0.0
 10
20.360969277761598
 20
58.4105204811937
 30
0.0
 10
20.360977335672423
 20
58.410447289935398
 30
0.0
 10
20.369768216676992
 20
58.330999780159544
 30
0.0
 10
20.395809483054624
 20
58.092058577053329
 30
0.0
 10
20.406632500791943
 20
57.992375493874896
 30
0.0
 10
20.43250980012802
 20
57.751870786001426
 30
0.0
 10
20.447497573706897
 20
57.611652455653434
 30
0.0
 10
20.464244788350307
 20
57.453137009483072
 30
0.0
  0
LINE
  5
79
100
AcDbEntity
  8
TA900_ISI_GW_B_D
  6
CONTINUOUS
 62
         7
100
AcDbLine
 10
97.4626402703
 20
57.1571755853
 30
0.0
 11
98.7576937635
 21
57.4531370095
 31
0.0
  0
ARC
  5
7A
100
AcDbEntity
  8
TA900_ISI_GW_B_D
  6
CONTINUOUS
 62
         7
100
AcDbCircle
 10
45.1193226529
 20
36.3424650515
 30
0.0
 40
32.4581782456
100
AcDbArc
 50
133.2836724912
 51
139.4285285861
  0
LINE
  5
7B
100
AcDbEntity
  8
TA900_ISI_GW_B_D
  6
CONTINUOUS
 62
         7
100
AcDbLine
 10
20.4642447884
 20
57.4531370095
 30
0.0
 11
21.7592982815
 21
57.1571755853
 31
0.0
  0
SPLINE
  5
7C
100
AcDbEntity
  8
TA900_ISI_GW_B_D
  6
CONTINUOUS
 62
         7
100
AcDbSpline
210
0.0
220
0.0
230
1.0
 70
         8
 71
         3
 72
        20
 73
        16
 74
         0
 42
0.0
 43
0.0
 40
0.0
 40
0.0
 40
0.0
 40
0.0
 40
0.2500000000000001
 40
0.2500000000000001
 40
0.375
 40
0.375
 40
0.5
 40
0.5
 40
0.6249999999999999
 40
0.6249999999999999
 40
0.7499999999999999
 40
0.7499999999999999
 40
0.875
 40
0.875
 40
1.0
 40
1.0
 40
1.0
 40
1.0
 10
96.356297755207734
 20
59.970985505918883
 30
0.0
 10
96.275624186440155
 20
60.047477451484269
 30
0.0
 10
96.116203900248408
 20
60.105539085582819
 30
0.0
 10
95.757114427496404
 20
60.165632302605601
 30
0.0
 10
95.619023236660098
 20
60.180668406631931
 30
0.0
 10
95.310967308487065
 20
60.200711631709467
 30
0.0
 10
95.140463110517388
 20
60.205811322604887
 30
0.0
 10
94.765481250720725
 20
60.20589623981472
 30
0.0
 10
94.562553805055799
 20
60.200793948588853
 30
0.0
 10
94.136946562037949
 20
60.180809318156129
 30
0.0
 10
93.912838032430827
 20
60.165935341515414
 30
0.0
 10
93.441670520738896
 20
60.126176146999207
 30
0.0
 10
93.195308643249774
 20
60.101270126914613
 30
0.0
 10
92.695585031344763
 20
60.042872021049199
 30
0.0
 10
92.440332081665019
 20
60.009233710910451
 30
0.0
 10
92.179615062900069
 20
59.970985505918897
 30
0.0
  0
SPLINE
  5
7D
100
AcDbEntity
  8
TA900_ISI_GW_B_D
  6
CONTINUOUS
 62
         7
100
AcDbSpline
210
0.0
220
0.0
230
1.0
 70
         8
 71
         3
 72
        20
 73
        16
 74
         0
 42
0.0
 43
0.0
 40
0.0
 40
0.0
 40
0.0
 40
0.0
 40
0.2499999999999977
 40
0.2499999999999977
 40
0.3749999999999981
 40
0.3749999999999981
 40
0.4999999999999985
 40
0.4999999999999985
 40
0.6249999999999988
 40
0.6249999999999988
 40
0.7499999999999991
 40
0.7499999999999991
 40
0.8749999999999996
 40
0.8749999999999996
 40
1.0
 40
1.0
 40
1.0
 40
1.0
 10
27.042323488944113
 20
59.970985505918897
 30
0.0
 10
26.520919882899243
 20
60.047477451484269
 30
0.0
 10
26.023348113084822
 20
60.105539085582834
 30
0.0
 10
25.313419158378675
 20
60.16563230260563
 30
0.0
 10
25.087296093260019
 20
60.180668406631938
 30
0.0
 10
24.661826945810663
 20
60.200711631709467
 30
0.0
 10
24.461398689261102
 20
60.205811322604902
 30
0.0
 10
24.085918820504553
 20
60.205896239814734
 30
0.0
 10
23.912930738919965
 20
60.20079394858886
 30
0.0
 10
23.604394444577931
 20
60.180809318156143
 30
0.0
 10
23.467369542859259
 20
60.165935341515429
 30
0.0
 10
23.228334233041409
 20
60.126176146999214
 30
0.0
 10
23.127132484386095
 20
60.101270126914613
 30
0.0
 10
22.966471353302403
 20
60.042872021049213
 30
0.0
 10
22.905979935258323
 20
60.009233710910451
 30
0.0
 10
22.865640796636431
 20
59.970985505918897
 30
0.0
  0
ARC
  5
7E
100
AcDbEntity
  8
TA900_ISI_GW_B_D
  6
CONTINUOUS
 62
         7
100
AcDbCircle
 10
59.6109692759
 20
261.2606595207
 30
0.0
 40
203.9074534032
100
AcDbArc
 50
260.8091998067
 51
279.1908001933
  0
LINE
  5
7F
100
AcDbEntity
  8
TA900_ISI_GW_B_D
  6
CONTINUOUS
 62
         7
100
AcDbLine
 10
85.3115529269
 20
57.1571755853
 30
0.0
 11
85.3115529269
 21
33.9605204979
 31
0.0
  0
ARC
  5
80
100
AcDbEntity
  8
TA900_ISI_GW_B_D
  6
CONTINUOUS
 62
         7
100
AcDbCircle
 10
132.8373759647
 20
33.5073481079
 30
0.0
 40
42.5521593477
100
AcDbArc
 50
146.2352388638
 51
179.3897993292
  0
LINE
  5
81
100
AcDbEntity
  8
TA900_ISI_GW_B_D
  6
CONTINUOUS
 62
         7
100
AcDbLine
 10
97.4626402703
 20
57.1571755853
 30
0.0
 11
85.3115529269
 21
57.1571755853
 31
0.0
  0
SPLINE
  5
82
100
AcDbEntity
  8
TA900_ISI_GW_B_D
  6
CONTINUOUS
 62
         7
100
AcDbSpline
210
0.0
220
0.0
230
1.0
 70
         8
 71
         3
 72
        20
 73
        16
 74
         0
 42
0.0
 43
0.0
 40
0.0
 40
0.0
 40
0.0
 40
0.0
 40
0.0624999999999999
 40
0.0624999999999999
 40
0.1249999999999998
 40
0.1249999999999998
 40
0.1874999999999998
 40
0.1874999999999998
 40
0.2499999999999997
 40
0.2499999999999997
 40
0.3124999999999997
 40
0.3124999999999997
 40
0.3749999999999997
 40
0.3749999999999997
 40
0.4999501053514717
 40
0.4999501053514717
 40
0.4999501053514717
 40
0.4999501053514717
 10
90.287629785175696
 20
33.96052049790206
 30
0.0
 10
90.336717573305108
 20
32.454671086305758
 30
0.0
 10
90.384690014294506
 20
30.979426886760599
 30
0.0
 10
90.478516685336984
 20
28.087629392188617
 30
0.0
 10
90.524807226148368
 20
26.657553139629197
 30
0.0
 10
90.612945669628672
 20
23.928971388084289
 30
0.0
 10
90.654509181698046
 20
22.639350991184948
 30
0.0
 10
90.732761800046944
 20
20.207050974600392
 30
0.0
 10
90.76972139413958
 20
19.05590024504955
 30
0.0
 10
90.835844274198905
 20
16.993407698304928
 30
0.0
 10
90.865344135348508
 20
16.071632900685486
 30
0.0
 10
90.917215480534423
 20
14.449081115556304
 30
0.0
 10
90.939424744932225
 20
13.753365763129521
 30
0.0
 10
90.992452480329973
 20
12.091151153035343
 30
0.0
 10
91.010929472277525
 20
11.510520694223022
 30
0.0
 10
91.010929466743121
 20
11.510520505546365
 30
0.0
  0
LINE
  5
83
100
AcDbEntity
  8
TA900_ISI_GW_B_D
  6
CONTINUOUS
 62
         7
100
AcDbLine
 10
20.3609692759
 20
67.2105204979
 30
0.0
 11
22.8656407966
 21
67.2105204979
 31
0.0
  0
LINE
  5
84
100
AcDbEntity
  8
TA900_ISI_GW_B_D
  6
CONTINUOUS
 62
         7
100
AcDbLine
 10
96.3562977552
 20
67.2105204979
 30
0.0
 11
92.1796150629
 21
67.2105204979
 31
0.0
  0
LINE
  5
85
100
AcDbEntity
  8
TA900_ISI_GW_B_D
  6
CONTINUOUS
 62
         7
100
AcDbLine
 10
27.0423234889
 20
67.2105204979
 30
0.0
 11
22.8656407966
 21
67.2105204979
 31
0.0
  0
LINE
  5
86
100
AcDbEntity
  8
TA900_ISI_GW_B_D
  6
CONTINUOUS
 62
         7
100
AcDbLine
 10
92.1796150629
 20
67.2105204979
 30
0.0
 11
27.0423234889
 21
67.2105204979
 31
0.0
  0
LINE
  5
87
100
AcDbEntity
  8
TA900_ISI_GW_B_D
  6
CONTINUOUS
 62
         7
100
AcDbLine
 10
83.7109692759
 20
78.4605204979
 30
0.0
 11
79.7137466252
 21
78.4605204979
 31
0.0
  0
LINE
  5
88
100
AcDbEntity
  8
TA900_ISI_GW_B_D
  6
CONTINUOUS
 62
         7
100
AcDbLine
 10
98.8609692759
 20
67.2105204979
 30
0.0
 11
96.3562977552
 21
67.2105204979
 31
0.0
  0
LINE
  5
89
100
AcDbEntity
  8
TA900_ISI_GW_B_D
  6
CONTINUOUS
 62
         7
100
AcDbLine
 10
39.5081919267
 20
78.4605204979
 30
0.0
 11
35.5109692759
 21
78.4605204979
 31
0.0
  0
LINE
  5
8A
100
AcDbEntity
  8
TA900_ISI_GW_B_D
  6
CONTINUOUS
 62
         7
100
AcDbLine
 10
79.7137466252
 20
78.4605204979
 30
0.0
 11
39.5081919267
 21
78.4605204979
 31
0.0
  0
LINE
  5
8B
100
AcDbEntity
  8
TA900_ISI_GW_B_D
  6
CONTINUOUS
 62
         7
100
AcDbLine
 10
79.7137466252
 20
78.4605204979
 30
0.0
 11
79.7137466252
 21
72.4605204979
 31
0.0
  0
LINE
  5
8C
100
AcDbEntity
  8
TA900_ISI_GW_B_D
  6
CONTINUOUS
 62
         7
100
AcDbLine
 10
39.5081919267
 20
72.4605204979
 30
0.0
 11
39.5081919267
 21
78.4605204979
 31
0.0
  0
LINE
  5
8D
100
AcDbEntity
  8
TA900_ISI_GW_B_D
  6
CONTINUOUS
 62
         7
100
AcDbLine
 10
23.5109692759
 20
80.4605204979
 30
0.0
 11
35.5109692759
 21
80.4605204979
 31
0.0
  0
LINE
  5
8E
100
AcDbEntity
  8
TA900_ISI_GW_B_D
  6
CONTINUOUS
 62
         7
100
AcDbLine
 10
83.7109692759
 20
80.4605204979
 30
0.0
 11
95.7109692759
 21
80.4605204979
 31
0.0
  0
LINE
  5
8F
100
AcDbEntity
  8
TA900_ISI_GW_B_D
  6
CONTINUOUS
 62
         7
100
AcDbLine
 10
60.2801063855
 20
49.4605204979
 30
0.0
 11
57.904246142
 21
41.4605204979
 31
0.0
  0
LINE
  5
90
100
AcDbEntity
  8
TA900_ISI_GW_B_D
  6
CONTINUOUS
 62
         7
100
AcDbLine
 10
63.4606251785
 20
49.4605204979
 30
0.0
 11
60.2801063855
 21
49.4605204979
 31
0.0
  0
LINE
  5
91
100
AcDbEntity
  8
TA900_ISI_GW_B_D
  6
CONTINUOUS
 62
         7
100
AcDbLine
 10
95.7109692759
 20
72.4605204979
 30
0.0
 11
95.7109692759
 21
80.4605204979
 31
0.0
  0
LINE
  5
92
100
AcDbEntity
  8
TA900_ISI_GW_B_D
  6
CONTINUOUS
 62
         7
100
AcDbLine
 10
65.836485422
 20
41.4605204979
 30
0.0
 11
63.4606251785
 21
49.4605204979
 31
0.0
  0
LINE
  5
93
100
AcDbEntity
  8
TA900_ISI_GW_B_D
  6
CONTINUOUS
 62
         7
100
AcDbLine
 10
63.3081635586
 20
41.4605204979
 30
0.0
 11
65.836485422
 21
41.4605204979
 31
0.0
  0
LINE
  5
94
100
AcDbEntity
  8
TA900_ISI_GW_B_D
  6
CONTINUOUS
 62
         7
100
AcDbLine
 10
61.8724833045
 20
41.4605204979
 30
0.0
 11
62.4950349191
 21
43.5229874116
 31
0.0
  0
LINE
  5
95
100
AcDbEntity
  8
TA900_ISI_GW_B_D
  6
CONTINUOUS
 62
         7
100
AcDbLine
 10
61.8724833045
 20
47.4785194391
 30
0.0
 11
63.3081635586
 21
41.4605204979
 31
0.0
  0
LINE
  5
96
100
AcDbEntity
  8
TA900_ISI_GW_B_D
  6
CONTINUOUS
 62
         7
100
AcDbLine
 10
62.4950349191
 20
43.5229874116
 30
0.0
 11
60.9365383601
 21
43.5229874116
 31
0.0
  0
LINE
  5
97
100
AcDbEntity
  8
TA900_ISI_GW_B_D
  6
CONTINUOUS
 62
         7
100
AcDbLine
 10
57.904246142
 20
41.4605204979
 30
0.0
 11
61.8724833045
 21
41.4605204979
 31
0.0
  0
LINE
  5
98
100
AcDbEntity
  8
TA900_ISI_GW_B_D
  6
CONTINUOUS
 62
         7
100
AcDbLine
 10
60.9365383601
 20
43.5229874116
 30
0.0
 11
61.8724833045
 21
47.4785194391
 31
0.0
  0
LINE
  5
99
100
AcDbEntity
  8
TA900_ISI_GW_B_D
  6
CONTINUOUS
 62
         7
100
AcDbLine
 10
35.5109692759
 20
72.4605204979
 30
0.0
 11
35.5109692759
 21
80.4605204979
 31
0.0
  0
LINE
  5
9A
100
AcDbEntity
  8
TA900_ISI_GW_B_D
  6
CONTINUOUS
 62
         7
100
AcDbLine
 10
65.6109692759
 20
89.9605204979
 30
0.0
 11
65.6109692759
 21
90.9605204979
 31
0.0
  0
LINE
  5
9B
100
AcDbEntity
  8
TA900_ISI_GW_B_D
  6
CONTINUOUS
 62
         7
100
AcDbLine
 10
81.6109692759
 20
78.4605204979
 30
0.0
 11
81.6109692759
 21
89.9605204979
 31
0.0
  0
LINE
  5
9C
100
AcDbEntity
  8
TA900_ISI_GW_B_D
  6
CONTINUOUS
 62
         7
100
AcDbLine
 10
20.3609692759
 20
72.4605204979
 30
0.0
 11
20.3609692759
 21
67.4605204979
 31
0.0
  0
LINE
  5
9D
100
AcDbEntity
  8
TA900_ISI_GW_B_D
  6
CONTINUOUS
 62
         7
100
AcDbLine
 10
98.8609692759
 20
67.4605204979
 30
0.0
 11
98.8609692759
 21
72.4605204979
 31
0.0
  0
LINE
  5
9E
100
AcDbEntity
  8
TA900_ISI_GW_B_D
  6
CONTINUOUS
 62
         7
100
AcDbLine
 10
58.9545373013
 20
47.2540620543
 30
0.0
 11
57.6628485771
 21
47.2540620543
 31
0.0
  0
LINE
  5
9F
100
AcDbEntity
  8
TA900_ISI_GW_B_D
  6
CONTINUOUS
 62
         7
100
AcDbLine
 10
57.6628485771
 20
41.4605204979
 30
0.0
 11
55.2785182436
 21
41.4605204979
 31
0.0
  0
LINE
  5
A0
100
AcDbEntity
  8
TA900_ISI_GW_B_D
  6
CONTINUOUS
 62
         7
100
AcDbLine
 10
55.2785182436
 20
41.4605204979
 30
0.0
 11
55.2785182436
 21
47.2540620543
 31
0.0
  0
LINE
  5
A1
100
AcDbEntity
  8
TA900_ISI_GW_B_D
  6
CONTINUOUS
 62
         7
100
AcDbLine
 10
57.6628485771
 20
47.2540620543
 30
0.0
 11
57.6628485771
 21
41.4605204979
 31
0.0
  0
LINE
  5
A2
100
AcDbEntity
  8
TA900_ISI_GW_B_D
  6
CONTINUOUS
 62
         7
100
AcDbLine
 10
59.6109692759
 20
49.4605204979
 30
0.0
 11
58.9545373013
 21
47.2540620543
 31
0.0
  0
LINE
  5
A3
100
AcDbEntity
  8
TA900_ISI_GW_B_D
  6
CONTINUOUS
 62
         7
100
AcDbLine
 10
54.1689364543
 20
49.4605204979
 30
0.0
 11
59.6109692759
 21
49.4605204979
 31
0.0
  0
LINE
  5
A4
100
AcDbEntity
  8
TA900_ISI_GW_B_D
  6
CONTINUOUS
 62
         7
100
AcDbLine
 10
53.5209745697
 20
47.2540620543
 30
0.0
 11
54.1689364543
 21
49.4605204979
 31
0.0
  0
LINE
  5
A5
100
AcDbEntity
  8
TA900_ISI_GW_B_D
  6
CONTINUOUS
 62
         7
100
AcDbLine
 10
55.2785182436
 20
47.2540620543
 30
0.0
 11
53.5209745697
 21
47.2540620543
 31
0.0
  0
LINE
  5
A6
100
AcDbEntity
  8
TA900_ISI_GW_B_D
  6
CONTINUOUS
 62
         7
100
AcDbLine
 10
20.6109692759
 20
67.4605204979
 30
0.0
 11
20.3609692759
 21
67.2105204979
 31
0.0
  0
LINE
  5
A7
100
AcDbEntity
  8
TA900_ISI_GW_B_D
  6
CONTINUOUS
 62
         7
100
AcDbLine
 10
98.8609692759
 20
67.2105204979
 30
0.0
 11
98.6109692759
 21
67.4605204979
 31
0.0
  0
LINE
  5
A8
100
AcDbEntity
  8
TA900_ISI_GW_B_D
  6
CONTINUOUS
 62
         7
100
AcDbLine
 10
98.8609692759
 20
58.3923188382
 30
0.0
 11
98.8609692759
 21
67.2105204979
 31
0.0
  0
LINE
  5
A9
100
AcDbEntity
  8
TA900_ISI_GW_B_D
  6
CONTINUOUS
 62
         7
100
AcDbLine
 10
112.8393392618
 20
6.0930070384
 30
0.0
 11
114.6109692759
 21
10.9605204979
 31
0.0
  0
LINE
  5
AA
100
AcDbEntity
  8
TA900_ISI_GW_B_D
  6
CONTINUOUS
 62
         7
100
AcDbLine
 10
14.3891556329
 20
6.0930070384
 30
0.0
 11
16.3609692759
 21
11.5105204979
 31
0.0
  0
ARC
  5
AB
100
AcDbEntity
  8
TA900_ISI_GW_B_D
  6
CONTINUOUS
 62
         7
100
AcDbCircle
 10
59.6109692759
 20
33.9605204979
 30
0.0
 40
38.6
100
AcDbArc
 50
215.5180402191
 51
228.2548716325
  0
LINE
  5
AC
100
AcDbEntity
  8
TA900_ISI_GW_B_D
  6
CONTINUOUS
 62
         7
100
AcDbLine
 10
33.910385625
 20
5.1605204979
 30
0.0
 11
85.3115529269
 21
5.1605204979
 31
0.0
  0
LINE
  5
AD
100
AcDbEntity
  8
TA900_ISI_GW_B_D
  6
CONTINUOUS
 62
         7
100
AcDbLine
 10
20.3609692759
 20
67.2105204979
 30
0.0
 11
20.3609692759
 21
58.3923188382
 31
0.0
  0
LINE
  5
AE
100
AcDbEntity
  8
TA900_ISI_GW_B_D
  6
CONTINUOUS
 62
         7
100
AcDbLine
 10
20.3609692759
 20
72.4605204979
 30
0.0
 11
22.8656407966
 21
72.4605204979
 31
0.0
  0
LINE
  5
AF
100
AcDbEntity
  8
TA900_ISI_GW_B_D
  6
CONTINUOUS
 62
         7
100
AcDbLine
 10
27.0423234889
 20
72.4605204979
 30
0.0
 11
22.8656407966
 21
72.4605204979
 31
0.0
  0
LINE
  5
B0
100
AcDbEntity
  8
TA900_ISI_GW_B_D
  6
CONTINUOUS
 62
         7
100
AcDbLine
 10
92.1796150629
 20
67.4605204979
 30
0.0
 11
27.0423234889
 21
67.4605204979
 31
0.0
  0
ARC
  5
B1
100
AcDbEntity
  8
TA900_ISI_GW_B_D
  6
CONTINUOUS
 62
         7
100
AcDbCircle
 10
59.6109692759
 20
33.9605204979
 30
0.0
 40
38.6
100
AcDbArc
 50
311.7451283675
 51
324.4799180439
  0
ARC
  5
B2
100
AcDbEntity
  8
TA900_ISI_GW_B_D
  6
CONTINUOUS
 62
         7
100
AcDbCircle
 10
94.821682963
 20
13.3098854033
 30
0.0
 40
19.4092573746
100
AcDbArc
 50
338.1716867869
 51
21.8283132131
  0
LINE
  5
B3
100
AcDbEntity
  8
TA900_ISI_GW_B_D
  6
CONTINUOUS
 62
         7
100
AcDbLine
 10
112.8393392618
 20
20.5267637682
 30
0.0
 11
104.8327829189
 21
20.5267637682
 31
0.0
  0
ARC
  5
B4
100
AcDbEntity
  8
TA900_ISI_GW_B_D
  6
CONTINUOUS
 62
         7
100
AcDbCircle
 10
24.4002555888
 20
13.3098854033
 30
0.0
 40
19.4092573746
100
AcDbArc
 50
158.1716867869
 51
201.8283132131
  0
ARC
  5
B5
100
AcDbEntity
  8
TA900_ISI_GW_B_D
  6
CONTINUOUS
 62
         7
100
AcDbCircle
 10
80.3347647428
 20
34.9605204979
 30
0.0
 40
75.3475686965
100
AcDbArc
 50
168.956025249
 51
191.043974751
  0
ARC
  5
B6
100
AcDbEntity
  8
TA900_ISI_GW_B_D
  6
CONTINUOUS
 62
         7
100
AcDbCircle
 10
24.4002555888
 20
56.6111555925
 30
0.0
 40
19.4092573746
100
AcDbArc
 50
158.1716867869
 51
201.8283132131
  0
ARC
  5
B7
100
AcDbEntity
  8
TA900_ISI_GW_B_D
  6
CONTINUOUS
 62
         7
100
AcDbCircle
 10
-3.6285006658
 20
56.6111555925
 30
0.0
 40
19.4092573746
100
AcDbArc
 50
338.1716867869
 51
21.8283132131
  0
ARC
  5
B8
100
AcDbEntity
  8
TA900_ISI_GW_B_D
  6
CONTINUOUS
 62
         7
100
AcDbCircle
 10
-3.6285006658
 20
13.3098854033
 30
0.0
 40
19.4092573746
100
AcDbArc
 50
338.1716867869
 51
21.8283132131
  0
ARC
  5
B9
100
AcDbEntity
  8
TA900_ISI_GW_B_D
  6
CONTINUOUS
 62
         7
100
AcDbCircle
 10
94.821682963
 20
56.6111555925
 30
0.0
 40
19.4092573746
100
AcDbArc
 50
338.1716867869
 51
21.8283132131
  0
LINE
  5
BA
100
AcDbEntity
  8
TA900_ISI_GW_B_D
  6
CONTINUOUS
 62
         7
100
AcDbLine
 10
112.8393392618
 20
63.8280339574
 30
0.0
 11
104.8327829189
 21
63.8280339574
 31
0.0
  0
LINE
  5
BB
100
AcDbEntity
  8
TA900_ISI_GW_B_D
  6
CONTINUOUS
 62
         7
100
AcDbLine
 10
112.8393392618
 20
49.3942772276
 30
0.0
 11
104.8327829189
 21
49.3942772276
 31
0.0
  0
LINE
  5
BC
100
AcDbEntity
  8
TA900_ISI_GW_B_D
  6
CONTINUOUS
 62
         7
100
AcDbLine
 10
112.8393392618
 20
6.0930070384
 30
0.0
 11
104.8327829189
 21
6.0930070384
 31
0.0
  0
LINE
  5
BD
100
AcDbEntity
  8
TA900_ISI_GW_B_D
  6
CONTINUOUS
 62
         7
100
AcDbLine
 10
83.7109692759
 20
80.4605204979
 30
0.0
 11
83.7109692759
 21
72.4605204979
 31
0.0
  0
LINE
  5
BE
100
AcDbEntity
  8
TA900_ISI_GW_B_D
  6
CONTINUOUS
 62
         7
100
AcDbLine
 10
23.5109692759
 20
80.4605204979
 30
0.0
 11
23.5109692759
 21
72.4605204979
 31
0.0
  0
LINE
  5
BF
100
AcDbEntity
  8
TA900_ISI_GW_B_D
  6
CONTINUOUS
 62
         7
100
AcDbLine
 10
53.6109692759
 20
90.9605204979
 30
0.0
 11
53.6109692759
 21
89.9605204979
 31
0.0
  0
LINE
  5
C0
100
AcDbEntity
  8
TA900_ISI_GW_B_D
  6
CONTINUOUS
 62
         7
100
AcDbLine
 10
37.6109692759
 20
89.9605204979
 30
0.0
 11
37.6109692759
 21
78.4605204979
 31
0.0
  0
LINE
  5
C1
100
AcDbEntity
  8
TA900_ISI_GW_B_D
  6
CONTINUOUS
 62
         7
100
AcDbLine
 10
114.6109692759
 20
58.9605204979
 30
0.0
 11
112.8393392618
 21
63.8280339574
 31
0.0
  0
LINE
  5
C2
100
AcDbEntity
  8
TA900_ISI_GW_B_D
  6
CONTINUOUS
 62
         7
100
AcDbLine
 10
16.3609692759
 20
58.4105204979
 30
0.0
 11
14.3891556329
 21
63.8280339574
 31
0.0
  0
LINE
  5
C3
100
AcDbEntity
  8
TA900_ISI_GW_B_D
  6
CONTINUOUS
 62
         7
100
AcDbLine
 10
6.5022736237
 20
136.7739870184
 30
0.0
 11
6.5022736237
 21
156.3916770189
 31
0.0
  0
SPLINE
  5
C4
100
AcDbEntity
  8
TA900_ISI_GW_B_D
  6
CONTINUOUS
 62
         7
100
AcDbSpline
210
0.0
220
0.0
230
1.0
 70
         8
 71
         3
 72
        22
 73
        18
 74
         0
 42
0.0
 43
0.0
 40
0.0
 40
0.0
 40
0.0
 40
0.0
 40
0.125
 40
0.125
 40
0.25
 40
0.25
 40
0.375
 40
0.375
 40
0.5
 40
0.5
 40
0.625
 40
0.625
 40
0.75
 40
0.75
 40
0.875
 40
0.875
 40
1.0
 40
1.0
 40
1.0
 40
1.0
 10
13.405385769805072
 20
136.77398701842887
 30
0.0
 10
14.596363461116562
 20
136.4235912953431
 30
0.0
 10
15.843337613622749
 20
136.08727303639733
 30
0.0
 10
18.450700560467993
 20
135.44901583192282
 30
0.0
 10
19.779468434728802
 20
135.15562582627717
 30
0.0
 10
22.392737724831704
 20
134.65628455273037
 30
0.0
 10
23.683766506278321
 20
134.45022023965015
 30
0.0
 10
26.064248787431506
 20
134.17069713633163
 30
0.0
 10
27.180833618357727
 20
134.09510820128196
 30
0.0
 10
29.08452088359623
 20
134.09388969866257
 30
0.0
 10
29.898242698003198
 20
134.16826291351742
 30
0.0
 10
31.123421277130209
 20
134.44605247027536
 30
0.0
 10
31.552113467822959
 20
134.65240086910825
 30
0.0
 10
31.991490684426978
 20
135.14989324013854
 30
0.0
 10
32.008654516610527
 20
135.44706992058744
 30
0.0
 10
31.648960760591176
 20
136.08066082413981
 30
0.0
 10
31.271523599461741
 20
136.42351957882036
 30
0.0
 10
30.709515110789763
 20
136.77398701842887
 30
0.0
  0
ARC
  5
C5
100
AcDbEntity
  8
TA900_ISI_GW_B_D
  6
CONTINUOUS
 62
         7
100
AcDbCircle
 10
-36.1238066343
 20
-15.34426028
 30
0.0
 40
157.9776689261
100
AcDbArc
 50
71.0758253153
 51
74.3462384006
  0
LINE
  5
C6
100
AcDbEntity
  8
TA900_ISI_GW_B_D
  6
CONTINUOUS
 62
         7
100
AcDbLine
 10
112.7196649281
 20
156.3916770189
 30
0.0
 11
112.7196649281
 21
136.7739870184
 31
0.0
  0
LINE
  5
C7
100
AcDbEntity
  8
TA900_ISI_GW_B_D
  6
CONTINUOUS
 62
         7
100
AcDbLine
 10
105.816552782
 20
136.7739870184
 30
0.0
 11
105.816552782
 21
156.3916770189
 31
0.0
  0
LINE
  5
C8
100
AcDbEntity
  8
TA900_ISI_GW_B_D
  6
CONTINUOUS
 62
         7
100
AcDbLine
 10
88.5124234411
 20
156.3916770189
 30
0.0
 11
88.5124234411
 21
136.7739870184
 31
0.0
  0
ARC
  5
C9
100
AcDbEntity
  8
TA900_ISI_GW_B_D
  6
CONTINUOUS
 62
         7
100
AcDbCircle
 10
155.3457451861
 20
-15.3442602798
 30
0.0
 40
157.9776689258
100
AcDbArc
 50
105.6537615994
 51
108.9241746847
  0
LINE
  5
CA
100
AcDbEntity
  8
TA900_ISI_GW_B_D
  6
CONTINUOUS
 62
         7
100
AcDbLine
 10
6.3825992901
 20
63.8280339574
 30
0.0
 11
4.6109692759
 21
58.9605204979
 31
0.0
  0
LINE
  5
CB
100
AcDbEntity
  8
TA900_ISI_GW_B_D
  6
CONTINUOUS
 62
         7
100
AcDbLine
 10
112.7196649281
 20
136.7739870184
 30
0.0
 11
105.816552782
 21
136.7739870184
 31
0.0
  0
LINE
  5
CC
100
AcDbEntity
  8
TA900_ISI_GW_B_D
  6
CONTINUOUS
 62
         7
100
AcDbLine
 10
47.3751020764
 20
136.7739870184
 30
0.0
 11
30.7095151108
 21
136.7739870184
 31
0.0
  0
LINE
  5
CD
100
AcDbEntity
  8
TA900_ISI_GW_B_D
  6
CONTINUOUS
 62
         7
100
AcDbLine
 10
15.6109692759
 20
133.9605204979
 30
0.0
 11
103.6109692759
 21
133.9605204979
 31
0.0
  0
LINE
  5
CE
100
AcDbEntity
  8
TA900_ISI_GW_B_D
  6
CONTINUOUS
 62
         7
100
AcDbLine
 10
104.8327829189
 20
63.8280339574
 30
0.0
 11
102.8609692759
 21
58.4105204979
 31
0.0
  0
LINE
  5
CF
100
AcDbEntity
  8
TA900_ISI_GW_B_D
  6
CONTINUOUS
 62
         7
100
AcDbLine
 10
36.6109692759
 20
128.9605204979
 30
0.0
 11
82.6109692759
 21
128.9605204979
 31
0.0
  0
LINE
  5
D0
100
AcDbEntity
  8
TA900_ISI_GW_B_D
  6
CONTINUOUS
 62
         7
100
AcDbLine
 10
13.4053857698
 20
136.7739870184
 30
0.0
 11
6.5022736237
 21
136.7739870184
 31
0.0
  0
LINE
  5
D1
100
AcDbEntity
  8
TA900_ISI_GW_B_D
  6
CONTINUOUS
 62
         7
100
AcDbLine
 10
13.4053857698
 20
156.3916770189
 30
0.0
 11
13.4053857698
 21
136.7739870184
 31
0.0
  0
LINE
  5
D2
100
AcDbEntity
  8
TA900_ISI_GW_B_D
  6
CONTINUOUS
 62
         7
100
AcDbLine
 10
37.6109692759
 20
89.9605204979
 30
0.0
 11
81.6109692759
 21
89.9605204979
 31
0.0
  0
LINE
  5
D3
100
AcDbEntity
  8
TA900_ISI_GW_B_D
  6
CONTINUOUS
 62
         7
100
AcDbLine
 10
27.0423234889
 20
67.4605204979
 30
0.0
 11
22.8656407966
 21
67.4605204979
 31
0.0
  0
LINE
  5
D4
100
AcDbEntity
  8
TA900_ISI_GW_B_D
  6
CONTINUOUS
 62
         7
100
AcDbLine
 10
20.3609692759
 20
67.4605204979
 30
0.0
 11
22.8656407966
 21
67.4605204979
 31
0.0
  0
LINE
  5
D5
100
AcDbEntity
  8
TA900_ISI_GW_B_D
  6
CONTINUOUS
 62
         7
100
AcDbLine
 10
96.3562977552
 20
67.4605204979
 30
0.0
 11
98.8609692759
 21
67.4605204979
 31
0.0
  0
LINE
  5
D6
100
AcDbEntity
  8
TA900_ISI_GW_B_D
  6
CONTINUOUS
 62
         7
100
AcDbLine
 10
96.3562977552
 20
67.4605204979
 30
0.0
 11
92.1796150629
 21
67.4605204979
 31
0.0
  0
LINE
  5
D7
100
AcDbEntity
  8
TA900_ISI_GW_B_D
  6
CONTINUOUS
 62
         7
100
AcDbLine
 10
96.3562977552
 20
72.4605204979
 30
0.0
 11
98.8609692759
 21
72.4605204979
 31
0.0
  0
LINE
  5
D8
100
AcDbEntity
  8
TA900_ISI_GW_B_D
  6
CONTINUOUS
 62
         7
100
AcDbLine
 10
96.3562977552
 20
72.4605204979
 30
0.0
 11
92.1796150629
 21
72.4605204979
 31
0.0
  0
LINE
  5
D9
100
AcDbEntity
  8
TA900_ISI_GW_B_D
  6
CONTINUOUS
 62
         7
100
AcDbLine
 10
92.1796150629
 20
72.4605204979
 30
0.0
 11
27.0423234889
 21
72.4605204979
 31
0.0
  0
LINE
  5
DA
100
AcDbEntity
  8
TA900_ISI_GW_B_D
  6
CONTINUOUS
 62
         7
100
AcDbLine
 10
102.8609692759
 20
58.4105204979
 30
0.0
 11
98.8589569989
 21
58.4105204979
 31
0.0
  0
LINE
  5
DB
100
AcDbEntity
  8
TA900_ISI_GW_B_D
  6
CONTINUOUS
 62
         7
100
AcDbLine
 10
20.3629815529
 20
58.4105204979
 30
0.0
 11
16.3609692759
 21
58.4105204979
 31
0.0
  0
ARC
  5
DC
100
AcDbEntity
  8
TA900_ISI_GW_B_D
  6
CONTINUOUS
 62
         7
100
AcDbCircle
 10
-13.6140320773
 20
33.5077827955
 30
0.0
 40
42.5507494646
100
AcDbArc
 50
0.6096355379
 51
33.7653262691
  0
LINE
  5
DD
100
AcDbEntity
  8
TA900_ISI_GW_B_D
  6
CONTINUOUS
 62
         7
100
AcDbLine
 10
33.910385625
 20
57.1571755853
 30
0.0
 11
21.7592982815
 21
57.1571755853
 31
0.0
  0
SPLINE
  5
DE
100
AcDbEntity
  8
TA900_ISI_GW_B_D
  6
CONTINUOUS
 62
         7
100
AcDbSpline
210
0.0
220
0.0
230
1.0
 70
         8
 71
         3
 72
        22
 73
        18
 74
         0
 42
0.0
 43
0.0
 40
0.4999486445556978
 40
0.4999486445556978
 40
0.4999486445556978
 40
0.4999486445556978
 40
0.4999999999999998
 40
0.4999999999999998
 40
0.5624999999999998
 40
0.5624999999999998
 40
0.6249999999999998
 40
0.6249999999999998
 40
0.6874999999999999
 40
0.6874999999999999
 40
0.7499999999999999
 40
0.7499999999999999
 40
0.8124999999999999
 40
0.8124999999999999
 40
0.8749999999999999
 40
0.8749999999999999
 40
1.0
 40
1.0
 40
1.0
 40
1.0
 10
28.211009085108429
 20
11.510520505791058
 30
0.0
 10
28.211009084933139
 20
11.510520500133541
 30
0.0
 10
28.211009087879109
 20
11.510520592560191
 30
0.0
 10
28.211016477960566
 20
11.510752640823476
 30
0.0
 10
28.215566466513575
 20
11.653653122451743
 30
0.0
 10
28.233766918670771
 20
12.22489802101051
 30
0.0
 10
28.24721504414557
 20
12.646887585701885
 30
0.0
 10
28.282637459586216
 20
13.757240144120066
 30
0.0
 10
28.30492724619943
 20
14.455472139386485
 30
0.0
 10
28.356728780175505
 20
16.075831439784
 30
0.0
 10
28.38622780500252
 20
16.997579516504214
 30
0.0
 10
28.452498853557096
 20
19.06467994868953
 30
0.0
 10
28.489427333336973
 20
20.214848174207933
 30
0.0
 10
28.567612669469824
 20
22.645039918568276
 30
0.0
 10
28.609210177908412
 20
23.935713822111364
 30
0.0
 10
28.741816275922666
 20
28.040874668599336
 30
0.0
 10
28.836133227783609
 20
30.948822821217249
 30
0.0
 10
28.934308766668487
 20
33.96052049790206
 30
0.0
  0
LINE
  5
DF
100
AcDbEntity
  8
TA900_ISI_GW_B_D
  6
CONTINUOUS
 62
         7
100
AcDbLine
 10
82.6109692759
 20
90.9605204979
 30
0.0
 11
82.6109692759
 21
128.9605204979
 31
0.0
  0
LINE
  5
E0
100
AcDbEntity
  8
TA900_ISI_GW_B_D
  6
CONTINUOUS
 62
         7
100
AcDbLine
 10
27.9507152381
 20
133.9605204979
 30
0.0
 11
36.6109692759
 21
128.9605204979
 31
0.0
  0
ARC
  5
E1
100
AcDbEntity
  8
TA900_ISI_GW_B_D
  6
CONTINUOUS
 62
         7
100
AcDbCircle
 10
59.6109692759
 20
-36.0394795021
 30
0.0
 40
200.0
100
AcDbArc
 50
77.1400429691
 51
102.859931355
  0
LINE
  5
E2
100
AcDbEntity
  8
TA900_ISI_GW_B_D
  6
CONTINUOUS
 62
         7
100
AcDbLine
 10
15.0943556074
 20
134.0989467132
 30
0.0
 11
15.6109692759
 21
133.9605204979
 31
0.0
  0
LINE
  5
E3
100
AcDbEntity
  8
TA900_ISI_GW_B_D
  6
CONTINUOUS
 62
         7
100
AcDbLine
 10
4.6109692759
 20
10.9605204979
 30
0.0
 11
6.3825992901
 21
6.0930070384
 31
0.0
  0
LINE
  5
E4
100
AcDbEntity
  8
TA900_ISI_GW_B_D
  6
CONTINUOUS
 62
         7
100
AcDbLine
 10
102.8609692759
 20
11.5105204979
 30
0.0
 11
104.8327829189
 21
6.0930070384
 31
0.0
  0
LINE
  5
E5
100
AcDbEntity
  8
TA900_ISI_GW_B_D
  6
CONTINUOUS
 62
         7
100
AcDbLine
 10
91.009721259
 20
11.5105204979
 30
0.0
 11
102.8609692759
 21
11.5105204979
 31
0.0
  0
LINE
  5
E6
100
AcDbEntity
  8
TA900_ISI_GW_B_D
  6
CONTINUOUS
 62
         7
100
AcDbLine
 10
16.3609692759
 20
11.5105204979
 30
0.0
 11
28.2122172928
 21
11.5105204979
 31
0.0
  0
LINE
  5
E7
100
AcDbEntity
  8
TA900_ISI_GW_B_D
  6
CONTINUOUS
 62
         7
100
AcDbLine
 10
36.6109692759
 20
128.9605204979
 30
0.0
 11
36.6109692759
 21
90.9605204979
 31
0.0
  0
LINE
  5
E8
100
AcDbEntity
  8
TA900_ISI_GW_B_D
  6
CONTINUOUS
 62
         7
100
AcDbLine
 10
82.6109692759
 20
128.9605204979
 30
0.0
 11
91.2712233138
 21
133.9605204979
 31
0.0
  0
LINE
  5
E9
100
AcDbEntity
  8
TA900_ISI_GW_B_D
  6
CONTINUOUS
 62
         7
100
AcDbLine
 10
103.6109692759
 20
133.9605204979
 30
0.0
 11
104.1275829445
 21
134.0989467132
 31
0.0
  0
ENDBLK
  5
EA
100
AcDbEntity
  8
TA900_ISI_GW_B_D
  6
CONTINUOUS
 62
         7
100
AcDbBlockEnd
  0
BLOCK
  5
14C
100
AcDbEntity
  8
0
 62
         1
 48
0.0
100
AcDbBlockBegin
  2
SE2
 70
         0
 10
0.0
 20
0.0
 30
0.0
  3
SE2
  1

  0
ENDBLK
  5
14D
100
AcDbEntity
  8
0
 62
         1
 48
0.0
100
AcDbBlockEnd
  0
BLOCK
  5
ED
100
AcDbEntity
  8
0
 62
         1
 48
0.0
100
AcDbBlockBegin
  2
SE3
 70
         0
 10
0.0
 20
0.0
 30
0.0
  3
SE3
  1

  0
ARC
  5
EE
100
AcDbEntity
  8
TA900_ISI_GW_B_D
  6
CONTINUOUS
 62
         7
100
AcDbCircle
 10
59.6109692759
 20
242.2337955176
 30
0.0
 40
54.5
100
AcDbArc
 50
57.9741439741
 51
77.0258560259
  0
ARC
  5
EF
100
AcDbEntity
  8
TA900_ISI_GW_B_D
  6
CONTINUOUS
 62
         7
100
AcDbCircle
 10
100.2696091941
 20
282.8924354359
 30
0.0
 40
13.0
100
AcDbArc
 50
154.7424468378
 51
194.7672710425
  0
ARC
  5
F0
100
AcDbEntity
  8
TA900_ISI_GW_B_D
  6
CONTINUOUS
 62
         7
100
AcDbCircle
 10
100.2696091941
 20
282.8924354359
 30
0.0
 40
13.0
100
AcDbArc
 50
255.3744173256
 51
295.2575531622
  0
ARC
  5
F1
100
AcDbEntity
  8
TA900_ISI_GW_B_D
  6
CONTINUOUS
 62
         7
100
AcDbCircle
 10
59.6109692759
 20
299.7337955176
 30
0.0
 40
13.0
100
AcDbArc
 50
199.7424468378
 51
340.2575531622
  0
ARC
  5
F2
100
AcDbEntity
  8
TA900_ISI_GW_B_D
  6
CONTINUOUS
 62
         7
100
AcDbCircle
 10
-114.1390307241
 20
242.2337955176
 30
0.0
 40
213.0
100
AcDbArc
 50
6.3211458554
 51
8.795280832
  0
LINE
  5
F3
100
AcDbEntity
  8
TA900_ISI_GW_B_D
  6
CONTINUOUS
 62
         7
100
AcDbLine
 10
16.3609692759
 20
218.7837955176
 30
0.0
 11
16.3609692759
 21
265.6837955176
 31
0.0
  0
LINE
  5
F4
100
AcDbEntity
  8
TA900_ISI_GW_B_D
  6
CONTINUOUS
 62
         7
100
AcDbLine
 10
114.6109692759
 20
218.2337955176
 30
0.0
 11
114.6109692759
 21
266.2337955176
 31
0.0
  0
LINE
  5
F5
100
AcDbEntity
  8
TA900_ISI_GW_B_D
  6
CONTINUOUS
 62
         7
100
AcDbLine
 10
4.6109692759
 20
218.2337955176
 30
0.0
 11
4.6109692759
 21
266.2337955176
 31
0.0
  0
ARC
  5
F6
100
AcDbEntity
  8
TA900_ISI_GW_B_D
  6
CONTINUOUS
 62
         7
100
AcDbCircle
 10
61.6897801283
 20
229.7337955176
 30
0.0
 40
56.7021538592
100
AcDbArc
 50
167.2645244266
 51
192.7354755734
  0
LINE
  5
F7
100
AcDbEntity
  8
TA900_ISI_GW_B_D
  6
CONTINUOUS
 62
         7
100
AcDbLine
 10
102.8609692759
 20
218.7837955176
 30
0.0
 11
102.8609692759
 21
265.6837955176
 31
0.0
  0
LINE
  5
F8
100
AcDbEntity
  8
TA900_ISI_GW_B_D
  6
CONTINUOUS
 62
         7
100
AcDbLine
 10
114.2469960072
 20
267.2337955176
 30
0.0
 11
112.8393392618
 21
267.2337955176
 31
0.0
  0
ARC
  5
F9
100
AcDbEntity
  8
TA900_ISI_GW_B_D
  6
CONTINUOUS
 62
         7
100
AcDbCircle
 10
57.5321584235
 20
229.7337955176
 30
0.0
 40
56.7021538592
100
AcDbArc
 50
347.2645244266
 51
12.7354755734
  0
LINE
  5
FA
100
AcDbEntity
  8
TA900_ISI_GW_B_D
  6
CONTINUOUS
 62
         7
100
AcDbLine
 10
15.7968123408
 20
267.2337955176
 30
0.0
 11
14.3891556329
 21
267.2337955176
 31
0.0
  0
LINE
  5
FB
100
AcDbEntity
  8
TA900_ISI_GW_B_D
  6
CONTINUOUS
 62
         7
100
AcDbLine
 10
14.3891556329
 20
217.2337955176
 30
0.0
 11
6.3825992901
 21
217.2337955176
 31
0.0
  0
LINE
  5
FC
100
AcDbEntity
  8
TA900_ISI_GW_B_D
  6
CONTINUOUS
 62
         7
100
AcDbLine
 10
103.4251262111
 20
267.2337955176
 30
0.0
 11
104.8327829189
 21
267.2337955176
 31
0.0
  0
LINE
  5
FD
100
AcDbEntity
  8
TA900_ISI_GW_B_D
  6
CONTINUOUS
 62
         7
100
AcDbLine
 10
14.3891556329
 20
267.2337955176
 30
0.0
 11
6.3825992901
 21
267.2337955176
 31
0.0
  0
LINE
  5
FE
100
AcDbEntity
  8
TA900_ISI_GW_B_D
  6
CONTINUOUS
 62
         7
100
AcDbLine
 10
14.3891556329
 20
242.2337955176
 30
0.0
 11
6.3825992901
 21
242.2337955176
 31
0.0
  0
ARC
  5
FF
100
AcDbEntity
  8
TA900_ISI_GW_B_D
  6
CONTINUOUS
 62
         7
100
AcDbCircle
 10
160.1399637572
 20
254.7337955176
 30
0.0
 40
56.7021538592
100
AcDbArc
 50
167.2645244266
 51
192.7354755734
  0
ARC
  5
100
100
AcDbEntity
  8
TA900_ISI_GW_B_D
  6
CONTINUOUS
 62
         7
100
AcDbCircle
 10
160.1399637572
 20
229.7337955176
 30
0.0
 40
56.7021538592
100
AcDbArc
 50
167.2645244266
 51
192.7354755734
  0
LINE
  5
101
100
AcDbEntity
  8
TA900_ISI_GW_B_D
  6
CONTINUOUS
 62
         7
100
AcDbLine
 10
85.3115529269
 20
271.0337955176
 30
0.0
 11
33.910385625
 21
271.0337955176
 31
0.0
  0
LINE
  5
102
100
AcDbEntity
  8
TA900_ISI_GW_B_D
  6
CONTINUOUS
 62
         7
100
AcDbLine
 10
85.3115529269
 20
271.0337955176
 30
0.0
 11
85.3115529269
 21
213.4337955176
 31
0.0
  0
ARC
  5
103
100
AcDbEntity
  8
TA900_ISI_GW_B_D
  6
CONTINUOUS
 62
         7
100
AcDbCircle
 10
59.6109692759
 20
242.2337955176
 30
0.0
 40
38.6
100
AcDbArc
 50
131.7451283675
 51
142.6299626822
  0
LINE
  5
104
100
AcDbEntity
  8
TA900_ISI_GW_B_D
  6
CONTINUOUS
 62
         7
100
AcDbLine
 10
33.910385625
 20
271.0337955176
 30
0.0
 11
33.910385625
 21
213.4337955176
 31
0.0
  0
ARC
  5
105
100
AcDbEntity
  8
TA900_ISI_GW_B_D
  6
CONTINUOUS
 62
         7
100
AcDbCircle
 10
233.3609692759
 20
242.2337955176
 30
0.0
 40
213.0
100
AcDbArc
 50
171.204719168
 51
173.677958741
  0
ARC
  5
106
100
AcDbEntity
  8
TA900_ISI_GW_B_D
  6
CONTINUOUS
 62
         7
100
AcDbCircle
 10
233.3609692759
 20
242.2337955176
 30
0.0
 40
213.0
100
AcDbArc
 50
186.3211458554
 51
188.795280832
  0
ARC
  5
107
100
AcDbEntity
  8
TA900_ISI_GW_B_D
  6
CONTINUOUS
 62
         7
100
AcDbCircle
 10
27.8068456905
 20
210.4296719322
 30
0.0
 40
5.0
100
AcDbArc
 50
188.795280832
 51
261.204719168
  0
ARC
  5
108
100
AcDbEntity
  8
TA900_ISI_GW_B_D
  6
CONTINUOUS
 62
         7
100
AcDbCircle
 10
91.4150928613
 20
274.037919103
 30
0.0
 40
5.0
100
AcDbArc
 50
8.795280832
 51
81.204719168
  0
ARC
  5
109
100
AcDbEntity
  8
TA900_ISI_GW_B_D
  6
CONTINUOUS
 62
         7
100
AcDbCircle
 10
27.8068456905
 20
274.037919103
 30
0.0
 40
5.0
100
AcDbArc
 50
98.795280832
 51
171.204719168
  0
ARC
  5
10A
100
AcDbEntity
  8
TA900_ISI_GW_B_D
  6
CONTINUOUS
 62
         7
100
AcDbCircle
 10
-114.1390307241
 20
242.2337955176
 30
0.0
 40
213.0
100
AcDbArc
 50
351.204719168
 51
353.677958741
  0
ARC
  5
10B
100
AcDbEntity
  8
TA900_ISI_GW_B_D
  6
CONTINUOUS
 62
         7
100
AcDbCircle
 10
59.6109692759
 20
68.4837955176
 30
0.0
 40
213.0
100
AcDbArc
 50
81.204719168
 51
98.795280832
  0
ARC
  5
10C
100
AcDbEntity
  8
TA900_ISI_GW_B_D
  6
CONTINUOUS
 62
         7
100
AcDbCircle
 10
91.4150928613
 20
210.4296719322
 30
0.0
 40
5.0
100
AcDbArc
 50
278.795280832
 51
351.204719168
  0
ARC
  5
10D
100
AcDbEntity
  8
TA900_ISI_GW_B_D
  6
CONTINUOUS
 62
         7
100
AcDbCircle
 10
59.6109692759
 20
242.2337955176
 30
0.0
 40
38.6
100
AcDbArc
 50
311.7451283675
 51
322.6299626822
  0
LINE
  5
10E
100
AcDbEntity
  8
TA900_ISI_GW_B_D
  6
CONTINUOUS
 62
         7
100
AcDbLine
 10
85.3115529269
 20
213.4337955176
 30
0.0
 11
33.910385625
 21
213.4337955176
 31
0.0
  0
ARC
  5
10F
100
AcDbEntity
  8
TA900_ISI_GW_B_D
  6
CONTINUOUS
 62
         7
100
AcDbCircle
 10
59.6109692759
 20
242.2337955176
 30
0.0
 40
38.6
100
AcDbArc
 50
37.3700373178
 51
48.2548716325
  0
ARC
  5
110
100
AcDbEntity
  8
TA900_ISI_GW_B_D
  6
CONTINUOUS
 62
         7
100
AcDbCircle
 10
59.6109692759
 20
242.2337955176
 30
0.0
 40
38.6
100
AcDbArc
 50
217.3700373178
 51
228.2548716325
  0
ARC
  5
111
100
AcDbEntity
  8
TA900_ISI_GW_B_D
  6
CONTINUOUS
 62
         7
100
AcDbCircle
 10
-293.575069697
 20
242.2337955176
 30
0.0
 40
384.5770073128
100
AcDbArc
 50
356.5073431238
 51
3.4926568762
  0
LINE
  5
112
100
AcDbEntity
  8
TA900_ISI_GW_B_D
  6
CONTINUOUS
 62
         7
100
AcDbLine
 10
57.904246142
 20
271.3337955176
 30
0.0
 11
57.904246142
 21
271.0337955176
 31
0.0
  0
LINE
  5
113
100
AcDbEntity
  8
TA900_ISI_GW_B_D
  6
CONTINUOUS
 62
         7
100
AcDbLine
 10
62.4950349191
 20
271.3337955176
 30
0.0
 11
62.4950349191
 21
271.0337955176
 31
0.0
  0
LINE
  5
114
100
AcDbEntity
  8
TA900_ISI_GW_B_D
  6
CONTINUOUS
 62
         7
100
AcDbLine
 10
61.8724833045
 20
271.3337955176
 30
0.0
 11
61.8724833045
 21
271.0337955176
 31
0.0
  0
LINE
  5
115
100
AcDbEntity
  8
TA900_ISI_GW_B_D
  6
CONTINUOUS
 62
         7
100
AcDbLine
 10
65.836485422
 20
271.3337955176
 30
0.0
 11
65.836485422
 21
271.0337955176
 31
0.0
  0
LINE
  5
116
100
AcDbEntity
  8
TA900_ISI_GW_B_D
  6
CONTINUOUS
 62
         7
100
AcDbLine
 10
63.3081635586
 20
271.3337955176
 30
0.0
 11
63.3081635586
 21
271.0337955176
 31
0.0
  0
LINE
  5
117
100
AcDbEntity
  8
TA900_ISI_GW_B_D
  6
CONTINUOUS
 62
         7
100
AcDbLine
 10
62.4950349191
 20
271.3337955176
 30
0.0
 11
63.3081635586
 21
271.3337955176
 31
0.0
  0
LINE
  5
118
100
AcDbEntity
  8
TA900_ISI_GW_B_D
  6
CONTINUOUS
 62
         7
100
AcDbLine
 10
63.3081635586
 20
271.3337955176
 30
0.0
 11
65.836485422
 21
271.3337955176
 31
0.0
  0
LINE
  5
119
100
AcDbEntity
  8
TA900_ISI_GW_B_D
  6
CONTINUOUS
 62
         7
100
AcDbLine
 10
57.904246142
 20
271.3337955176
 30
0.0
 11
61.8724833045
 21
271.3337955176
 31
0.0
  0
LINE
  5
11A
100
AcDbEntity
  8
TA900_ISI_GW_B_D
  6
CONTINUOUS
 62
         7
100
AcDbLine
 10
61.8724833045
 20
271.3337955176
 30
0.0
 11
62.4950349191
 21
271.3337955176
 31
0.0
  0
LINE
  5
11B
100
AcDbEntity
  8
TA900_ISI_GW_B_D
  6
CONTINUOUS
 62
         7
100
AcDbLine
 10
53.5209745697
 20
271.3337955176
 30
0.0
 11
53.5209745697
 21
271.0337955176
 31
0.0
  0
LINE
  5
11C
100
AcDbEntity
  8
TA900_ISI_GW_B_D
  6
CONTINUOUS
 62
         7
100
AcDbLine
 10
57.6628485771
 20
271.3337955176
 30
0.0
 11
57.6628485771
 21
271.0337955176
 31
0.0
  0
LINE
  5
11D
100
AcDbEntity
  8
TA900_ISI_GW_B_D
  6
CONTINUOUS
 62
         7
100
AcDbLine
 10
55.2785182436
 20
271.3337955176
 30
0.0
 11
55.2785182436
 21
271.0337955176
 31
0.0
  0
LINE
  5
11E
100
AcDbEntity
  8
TA900_ISI_GW_B_D
  6
CONTINUOUS
 62
         7
100
AcDbLine
 10
55.2785182436
 20
271.3337955176
 30
0.0
 11
53.5209745697
 21
271.3337955176
 31
0.0
  0
LINE
  5
11F
100
AcDbEntity
  8
TA900_ISI_GW_B_D
  6
CONTINUOUS
 62
         7
100
AcDbLine
 10
57.904246142
 20
271.3337955176
 30
0.0
 11
57.6628485771
 21
271.3337955176
 31
0.0
  0
LINE
  5
120
100
AcDbEntity
  8
TA900_ISI_GW_B_D
  6
CONTINUOUS
 62
         7
100
AcDbLine
 10
57.6628485771
 20
271.3337955176
 30
0.0
 11
55.2785182436
 21
271.3337955176
 31
0.0
  0
LINE
  5
121
100
AcDbEntity
  8
TA900_ISI_GW_B_D
  6
CONTINUOUS
 62
         7
100
AcDbLine
 10
114.2469990417
 20
217.2337955176
 30
0.0
 11
114.6109692759
 21
218.2337955176
 31
0.0
  0
LINE
  5
122
100
AcDbEntity
  8
TA900_ISI_GW_B_D
  6
CONTINUOUS
 62
         7
100
AcDbLine
 10
15.7968154128
 20
217.2337955176
 30
0.0
 11
16.3609692759
 21
218.7837955176
 31
0.0
  0
ARC
  5
123
100
AcDbEntity
  8
TA900_ISI_GW_B_D
  6
CONTINUOUS
 62
         7
100
AcDbCircle
 10
57.5321584235
 20
254.7337955176
 30
0.0
 40
56.7021538592
100
AcDbArc
 50
347.2645244266
 51
12.7354755734
  0
LINE
  5
124
100
AcDbEntity
  8
TA900_ISI_GW_B_D
  6
CONTINUOUS
 62
         7
100
AcDbLine
 10
15.7968123408
 20
217.2337955176
 30
0.0
 11
14.3891556329
 21
217.2337955176
 31
0.0
  0
ARC
  5
125
100
AcDbEntity
  8
TA900_ISI_GW_B_D
  6
CONTINUOUS
 62
         7
100
AcDbCircle
 10
-40.9180252053
 20
229.7337955176
 30
0.0
 40
56.7021538592
100
AcDbArc
 50
347.2645244266
 51
12.7354755734
  0
LINE
  5
126
100
AcDbEntity
  8
TA900_ISI_GW_B_D
  6
CONTINUOUS
 62
         7
100
AcDbLine
 10
112.8393392618
 20
267.2337955176
 30
0.0
 11
104.8327829189
 21
267.2337955176
 31
0.0
  0
LINE
  5
127
100
AcDbEntity
  8
TA900_ISI_GW_B_D
  6
CONTINUOUS
 62
         7
100
AcDbLine
 10
4.9749425446
 20
267.2337955176
 30
0.0
 11
6.3825992901
 21
267.2337955176
 31
0.0
  0
ARC
  5
128
100
AcDbEntity
  8
TA900_ISI_GW_B_D
  6
CONTINUOUS
 62
         7
100
AcDbCircle
 10
61.6897801283
 20
254.7337955176
 30
0.0
 40
56.7021538592
100
AcDbArc
 50
167.2645244266
 51
192.7354755734
  0
LINE
  5
129
100
AcDbEntity
  8
TA900_ISI_GW_B_D
  6
CONTINUOUS
 62
         7
100
AcDbLine
 10
6.3825992901
 20
217.2337955176
 30
0.0
 11
4.9749425446
 21
217.2337955176
 31
0.0
  0
LINE
  5
12A
100
AcDbEntity
  8
TA900_ISI_GW_B_D
  6
CONTINUOUS
 62
         7
100
AcDbLine
 10
103.4251262111
 20
217.2337955176
 30
0.0
 11
104.8327829189
 21
217.2337955176
 31
0.0
  0
ARC
  5
12B
100
AcDbEntity
  8
TA900_ISI_GW_B_D
  6
CONTINUOUS
 62
         7
100
AcDbCircle
 10
-40.9180252053
 20
254.7337955176
 30
0.0
 40
56.7021538592
100
AcDbArc
 50
347.2645244266
 51
12.7354755734
  0
LINE
  5
12C
100
AcDbEntity
  8
TA900_ISI_GW_B_D
  6
CONTINUOUS
 62
         7
100
AcDbLine
 10
114.2469960072
 20
217.2337955176
 30
0.0
 11
112.8393392618
 21
217.2337955176
 31
0.0
  0
LINE
  5
12D
100
AcDbEntity
  8
TA900_ISI_GW_B_D
  6
CONTINUOUS
 62
         7
100
AcDbLine
 10
112.8393392618
 20
217.2337955176
 30
0.0
 11
104.8327829189
 21
217.2337955176
 31
0.0
  0
LINE
  5
12E
100
AcDbEntity
  8
TA900_ISI_GW_B_D
  6
CONTINUOUS
 62
         7
100
AcDbLine
 10
112.8393392618
 20
242.2337955176
 30
0.0
 11
104.8327829189
 21
242.2337955176
 31
0.0
  0
LINE
  5
12F
100
AcDbEntity
  8
TA900_ISI_GW_B_D
  6
CONTINUOUS
 62
         7
100
AcDbLine
 10
114.6109692759
 20
266.2337955176
 30
0.0
 11
114.2469990417
 21
267.2337955176
 31
0.0
  0
LINE
  5
130
100
AcDbEntity
  8
TA900_ISI_GW_B_D
  6
CONTINUOUS
 62
         7
100
AcDbLine
 10
16.3609692759
 20
265.6837955176
 30
0.0
 11
15.7968154128
 21
267.2337955176
 31
0.0
  0
ARC
  5
131
100
AcDbEntity
  8
TA900_ISI_GW_B_D
  6
CONTINUOUS
 62
         7
100
AcDbCircle
 10
18.9523293577
 20
282.8924354359
 30
0.0
 40
13.0
100
AcDbArc
 50
244.7424468378
 51
284.7672710425
  0
ARC
  5
132
100
AcDbEntity
  8
TA900_ISI_GW_B_D
  6
CONTINUOUS
 62
         7
100
AcDbCircle
 10
18.9523293577
 20
282.8924354359
 30
0.0
 40
13.0
100
AcDbArc
 50
345.3744173256
 51
25.2575531622
  0
ARC
  5
133
100
AcDbEntity
  8
TA900_ISI_GW_B_D
  6
CONTINUOUS
 62
         7
100
AcDbCircle
 10
18.9523293577
 20
201.5751555994
 30
0.0
 40
13.0
100
AcDbArc
 50
334.7424468378
 51
14.7672710425
  0
ARC
  5
134
100
AcDbEntity
  8
TA900_ISI_GW_B_D
  6
CONTINUOUS
 62
         7
100
AcDbCircle
 10
18.9523293577
 20
201.5751555994
 30
0.0
 40
13.0
100
AcDbArc
 50
75.3744173256
 51
115.2575531622
  0
ARC
  5
135
100
AcDbEntity
  8
TA900_ISI_GW_B_D
  6
CONTINUOUS
 62
         7
100
AcDbCircle
 10
59.6109692759
 20
184.7337955176
 30
0.0
 40
13.0
100
AcDbArc
 50
19.7424468378
 51
160.2575531622
  0
ARC
  5
136
100
AcDbEntity
  8
TA900_ISI_GW_B_D
  6
CONTINUOUS
 62
         7
100
AcDbCircle
 10
100.2696091941
 20
201.5751555994
 30
0.0
 40
13.0
100
AcDbArc
 50
64.7424468378
 51
104.7672710425
  0
ARC
  5
137
100
AcDbEntity
  8
TA900_ISI_GW_B_D
  6
CONTINUOUS
 62
         7
100
AcDbCircle
 10
100.2696091941
 20
201.5751555994
 30
0.0
 40
13.0
100
AcDbArc
 50
165.3744173256
 51
205.2575531622
  0
ARC
  5
138
100
AcDbEntity
  8
TA900_ISI_GW_B_D
  6
CONTINUOUS
 62
         7
100
AcDbCircle
 10
59.6109692759
 20
242.2337955176
 30
0.0
 40
54.5
100
AcDbArc
 50
327.9741439741
 51
332.695741708
  0
ARC
  5
139
100
AcDbEntity
  8
TA900_ISI_GW_B_D
  6
CONTINUOUS
 62
         7
100
AcDbCircle
 10
59.6109692759
 20
242.2337955176
 30
0.0
 40
54.5
100
AcDbArc
 50
27.304258292
 51
32.0258560259
  0
ARC
  5
13A
100
AcDbEntity
  8
TA900_ISI_GW_B_D
  6
CONTINUOUS
 62
         7
100
AcDbCircle
 10
59.6109692759
 20
242.2337955176
 30
0.0
 40
54.5
100
AcDbArc
 50
102.9741439741
 51
122.0258560259
  0
ARC
  5
13B
100
AcDbEntity
  8
TA900_ISI_GW_B_D
  6
CONTINUOUS
 62
         7
100
AcDbCircle
 10
59.6109692759
 20
242.2337955176
 30
0.0
 40
44.0
100
AcDbArc
 50
60.0782634767
 51
119.9819401457
  0
ARC
  5
13C
100
AcDbEntity
  8
TA900_ISI_GW_B_D
  6
CONTINUOUS
 62
         7
100
AcDbCircle
 10
59.6109692759
 20
242.2337955176
 30
0.0
 40
44.0
100
AcDbArc
 50
240.0180598543
 51
299.8918954789
  0
LINE
  5
13D
100
AcDbEntity
  8
TA900_ISI_GW_B_D
  6
CONTINUOUS
 62
         7
100
AcDbLine
 10
4.9749395102
 20
267.2337955176
 30
0.0
 11
4.6109692759
 21
266.2337955176
 31
0.0
  0
LINE
  5
13E
100
AcDbEntity
  8
TA900_ISI_GW_B_D
  6
CONTINUOUS
 62
         7
100
AcDbLine
 10
103.425123139
 20
267.2337955176
 30
0.0
 11
102.8609692759
 21
265.6837955176
 31
0.0
  0
ARC
  5
13F
100
AcDbEntity
  8
TA900_ISI_GW_B_D
  6
CONTINUOUS
 62
         7
100
AcDbCircle
 10
59.6109692759
 20
242.2337955176
 30
0.0
 40
54.5
100
AcDbArc
 50
147.9741439741
 51
152.695741708
  0
ARC
  5
140
100
AcDbEntity
  8
TA900_ISI_GW_B_D
  6
CONTINUOUS
 62
         7
100
AcDbCircle
 10
59.6109692759
 20
242.2337955176
 30
0.0
 40
54.5
100
AcDbArc
 50
207.304258292
 51
212.0258560259
  0
ARC
  5
141
100
AcDbEntity
  8
TA900_ISI_GW_B_D
  6
CONTINUOUS
 62
         7
100
AcDbCircle
 10
59.6109692759
 20
242.2337955176
 30
0.0
 40
54.5
100
AcDbArc
 50
237.9741439741
 51
257.0258560259
  0
ARC
  5
142
100
AcDbEntity
  8
TA900_ISI_GW_B_D
  6
CONTINUOUS
 62
         7
100
AcDbCircle
 10
59.6109692759
 20
242.2337955176
 30
0.0
 40
54.5
100
AcDbArc
 50
282.9741439741
 51
302.0258560259
  0
LINE
  5
143
100
AcDbEntity
  8
TA900_ISI_GW_B_D
  6
CONTINUOUS
 62
         7
100
AcDbLine
 10
28.9449388761
 20
265.6837955176
 30
0.0
 11
16.3609692759
 21
265.6837955176
 31
0.0
  0
LINE
  5
144
100
AcDbEntity
  8
TA900_ISI_GW_B_D
  6
CONTINUOUS
 62
         7
100
AcDbLine
 10
102.8609692759
 20
265.6837955176
 30
0.0
 11
90.2936717699
 21
265.6837955176
 31
0.0
  0
ARC
  5
145
100
AcDbEntity
  8
TA900_ISI_GW_B_D
  6
CONTINUOUS
 62
         7
100
AcDbCircle
 10
412.7970082488
 20
242.2337955176
 30
0.0
 40
384.5770073128
100
AcDbArc
 50
176.5073431238
 51
183.4926568762
  0
ARC
  5
146
100
AcDbEntity
  8
TA900_ISI_GW_B_D
  6
CONTINUOUS
 62
         7
100
AcDbCircle
 10
59.6109692759
 20
415.9837955176
 30
0.0
 40
213.0
100
AcDbArc
 50
261.204719168
 51
278.795280832
  0
LINE
  5
147
100
AcDbEntity
  8
TA900_ISI_GW_B_D
  6
CONTINUOUS
 62
         7
100
AcDbLine
 10
4.6109692759
 20
218.2337955176
 30
0.0
 11
4.9749395102
 21
217.2337955176
 31
0.0
  0
LINE
  5
148
100
AcDbEntity
  8
TA900_ISI_GW_B_D
  6
CONTINUOUS
 62
         7
100
AcDbLine
 10
102.8609692759
 20
218.7837955176
 30
0.0
 11
103.425123139
 21
217.2337955176
 31
0.0
  0
LINE
  5
149
100
AcDbEntity
  8
TA900_ISI_GW_B_D
  6
CONTINUOUS
 62
         7
100
AcDbLine
 10
16.3609692759
 20
218.7837955176
 30
0.0
 11
28.928266782
 21
218.7837955176
 31
0.0
  0
LINE
  5
14A
100
AcDbEntity
  8
TA900_ISI_GW_B_D
  6
CONTINUOUS
 62
         7
100
AcDbLine
 10
90.2769996757
 20
218.7837955176
 30
0.0
 11
102.8609692759
 21
218.7837955176
 31
0.0
  0
ENDBLK
  5
14B
100
AcDbEntity
  8
TA900_ISI_GW_B_D
  6
CONTINUOUS
 62
         7
100
AcDbBlockEnd
  0
BLOCK
  5
1D5
100
AcDbEntity
  8
0
 62
         1
 48
0.0
100
AcDbBlockBegin
  2
SE4
 70
         0
 10
0.0
 20
0.0
 30
0.0
  3
SE4
  1

  0
ENDBLK
  5
1D6
100
AcDbEntity
  8
0
 62
         1
 48
0.0
100
AcDbBlockEnd
  0
BLOCK
  5
14E
100
AcDbEntity
  8
0
 62
         1
 48
0.0
100
AcDbBlockBegin
  2
SE5
 70
         0
 10
0.0
 20
0.0
 30
0.0
  3
SE5
  1

  0
LINE
  5
14F
100
AcDbEntity
  8
TA900_ISI_GW_B_D
  6
CONTINUOUS
 62
         7
100
AcDbLine
 10
245.6789168233
 20
90.9605204979
 30
0.0
 11
199.6789168233
 21
90.9605204979
 31
0.0
  0
ARC
  5
150
100
AcDbEntity
  8
TA900_ISI_GW_B_D
  6
CONTINUOUS
 62
         7
100
AcDbCircle
 10
883.7868331082
 20
-2233.9182208006
 30
0.0
 40
2494.7318044994
100
AcDbArc
 50
106.4297298413
 51
106.6359697726
  0
SPLINE
  5
151
100
AcDbEntity
  8
TA900_ISI_GW_B_D
  6
CONTINUOUS
 62
         7
100
AcDbSpline
210
0.0
220
0.0
230
1.0
 70
         8
 71
         3
 72
        20
 73
        16
 74
         0
 42
0.0
 43
0.0
 40
0.0
 40
0.0
 40
0.0
 40
0.0
 40
0.1250000000000003
 40
0.1250000000000003
 40
0.2500000000000006
 40
0.2500000000000006
 40
0.5000000000000007
 40
0.5000000000000007
 40
0.6250000000000006
 40
0.6250000000000006
 40
0.7500000000000004
 40
0.7500000000000004
 40
0.8750000000000002
 40
0.8750000000000002
 40
1.0
 40
1.0
 40
1.0
 40
1.0
 10
193.77746265819846
 20
156.39167701887712
 30
0.0
 10
194.33662804307204
 20
156.76024172007945
 30
0.0
 10
194.70949479540135
 20
157.1008800574827
 30
0.0
 10
195.07690699006085
 20
157.7263184021499
 30
0.0
 10
195.06204322958925
 20
158.00206868062949
 30
0.0
 10
194.4091532499159
 20
158.6876951149261
 30
0.0
 10
193.12150313085198
 20
158.94610512584816
 30
0.0
 10
190.27477733981672
 20
158.94753104146127
 30
0.0
 10
189.16105871568496
 20
158.88481524539017
 30
0.0
 10
186.78086904949194
 20
158.64380111366995
 30
0.0
 10
185.48234501560367
 20
158.46233344549847
 30
0.0
 10
182.86937783362879
 20
158.00742853246669
 30
0.0
 10
181.51960467960609
 20
157.72794332484165
 30
0.0
 10
178.92880933412275
 20
157.10748265368096
 30
0.0
 10
177.65877228730574
 20
156.76031750480186
 30
0.0
 10
176.47333331721376
 20
156.39167701887712
 30
0.0
  0
ARC
  5
152
100
AcDbEntity
  8
TA900_ISI_GW_B_D
  6
CONTINUOUS
 62
         7
100
AcDbCircle
 10
222.6789168233
 20
129.0131143216
 30
0.0
 40
29.9883667694
100
AcDbArc
 50
65.9194562974
 51
114.0805437026
  0
ARC
  5
153
100
AcDbEntity
  8
TA900_ISI_GW_B_D
  6
CONTINUOUS
 62
         7
100
AcDbCircle
 10
-438.4289992806
 20
-2233.9182201914
 30
0.0
 40
2494.7318038638
100
AcDbArc
 50
73.3640302274
 51
73.5702701587
  0
ARC
  5
154
100
AcDbEntity
  8
TA900_ISI_GW_B_D
  6
CONTINUOUS
 62
         7
100
AcDbCircle
 10
-34.4923189263
 20
34.4185130562
 30
0.0
 40
219.2379561384
100
AcDbArc
 50
6.0310134884
 51
6.2826683908
  0
LINE
  5
155
100
AcDbEntity
  8
TA900_ISI_GW_B_D
  6
CONTINUOUS
 62
         7
100
AcDbLine
 10
183.5321923358
 20
57.4531370095
 30
0.0
 11
184.8272458289
 21
57.1571755853
 31
0.0
  0
ARC
  5
156
100
AcDbEntity
  8
TA900_ISI_GW_B_D
  6
CONTINUOUS
 62
         7
100
AcDbCircle
 10
257.8896305104
 20
13.3098854033
 30
0.0
 40
19.4092573746
100
AcDbArc
 50
338.1716867869
 51
21.8283132131
  0
LINE
  5
157
100
AcDbEntity
  8
TA900_ISI_GW_B_D
  6
CONTINUOUS
 62
         7
100
AcDbLine
 10
277.6789168233
 20
58.9605204979
 30
0.0
 11
277.6789168233
 21
10.9605204979
 31
0.0
  0
LINE
  5
158
100
AcDbEntity
  8
TA900_ISI_GW_B_D
  6
CONTINUOUS
 62
         7
100
AcDbLine
 10
179.4289168233
 20
58.4105204979
 30
0.0
 11
179.4289168233
 21
11.5105204979
 31
0.0
  0
LINE
  5
159
100
AcDbEntity
  8
TA900_ISI_GW_B_D
  6
CONTINUOUS
 62
         7
100
AcDbLine
 10
265.9289168233
 20
58.4105204979
 30
0.0
 11
265.9289168233
 21
11.5105204979
 31
0.0
  0
LINE
  5
15A
100
AcDbEntity
  8
TA900_ISI_GW_B_D
  6
CONTINUOUS
 62
         7
100
AcDbLine
 10
167.6789168233
 20
58.9605204979
 30
0.0
 11
167.6789168233
 21
10.9605204979
 31
0.0
  0
ARC
  5
15B
100
AcDbEntity
  8
TA900_ISI_GW_B_D
  6
CONTINUOUS
 62
         7
100
AcDbCircle
 10
187.4682031362
 20
13.3098854033
 30
0.0
 40
19.4092573746
100
AcDbArc
 50
158.1716867869
 51
201.8283132131
  0
ARC
  5
15C
100
AcDbEntity
  8
TA900_ISI_GW_B_D
  6
CONTINUOUS
 62
         7
100
AcDbCircle
 10
159.4394468816
 20
56.6111555925
 30
0.0
 40
19.4092573746
100
AcDbArc
 50
338.1716867869
 51
21.8283132131
  0
ARC
  5
15D
100
AcDbEntity
  8
TA900_ISI_GW_B_D
  6
CONTINUOUS
 62
         7
100
AcDbCircle
 10
285.9183867651
 20
56.6111555925
 30
0.0
 40
19.4092573746
100
AcDbArc
 50
158.1716867869
 51
201.8283132131
  0
LINE
  5
15E
100
AcDbEntity
  8
TA900_ISI_GW_B_D
  6
CONTINUOUS
 62
         7
100
AcDbLine
 10
267.9007304663
 20
6.0930070384
 30
0.0
 11
275.9072868092
 21
6.0930070384
 31
0.0
  0
LINE
  5
15F
100
AcDbEntity
  8
TA900_ISI_GW_B_D
  6
CONTINUOUS
 62
         7
100
AcDbLine
 10
267.9007304663
 20
20.5267637682
 30
0.0
 11
275.9072868092
 21
20.5267637682
 31
0.0
  0
LINE
  5
160
100
AcDbEntity
  8
TA900_ISI_GW_B_D
  6
CONTINUOUS
 62
         7
100
AcDbLine
 10
267.9007304663
 20
49.3942772276
 30
0.0
 11
275.9072868092
 21
49.3942772276
 31
0.0
  0
LINE
  5
161
100
AcDbEntity
  8
TA900_ISI_GW_B_D
  6
CONTINUOUS
 62
         7
100
AcDbLine
 10
267.9007304663
 20
63.8280339574
 30
0.0
 11
275.9072868092
 21
63.8280339574
 31
0.0
  0
ARC
  5
162
100
AcDbEntity
  8
TA900_ISI_GW_B_D
  6
CONTINUOUS
 62
         7
100
AcDbCircle
 10
159.4394468816
 20
13.3098854033
 30
0.0
 40
19.4092573746
100
AcDbArc
 50
338.1716867869
 51
21.8283132131
  0
LINE
  5
163
100
AcDbEntity
  8
TA900_ISI_GW_B_D
  6
CONTINUOUS
 62
         7
100
AcDbLine
 10
248.3795004743
 20
5.1605204979
 30
0.0
 11
248.3795004743
 21
33.9605204979
 31
0.0
  0
LINE
  5
164
100
AcDbEntity
  8
TA900_ISI_GW_B_D
  6
CONTINUOUS
 62
         7
100
AcDbLine
 10
196.9783331724
 20
5.1605204979
 30
0.0
 11
196.9783331724
 21
33.9605204979
 31
0.0
  0
ARC
  5
165
100
AcDbEntity
  8
TA900_ISI_GW_B_D
  6
CONTINUOUS
 62
         7
100
AcDbCircle
 10
479.8501525687
 20
34.4185130566
 30
0.0
 40
219.2379561341
100
AcDbArc
 50
173.7173316092
 51
173.9689865116
  0
LINE
  5
166
100
AcDbEntity
  8
TA900_ISI_GW_B_D
  6
CONTINUOUS
 62
         7
100
AcDbLine
 10
260.5305878177
 20
57.1571755853
 30
0.0
 11
261.8256413109
 21
57.4531370095
 31
0.0
  0
ARC
  5
167
100
AcDbEntity
  8
TA900_ISI_GW_B_D
  6
CONTINUOUS
 62
         7
100
AcDbCircle
 10
237.2224587251
 20
36.3919601325
 30
0.0
 40
32.38656766
100
AcDbArc
 50
40.5646713661
 51
46.7231275566
  0
SPLINE
  5
168
100
AcDbEntity
  8
TA900_ISI_GW_B_D
  6
CONTINUOUS
 62
         7
100
AcDbSpline
210
0.0
220
0.0
230
1.0
 70
         8
 71
         3
 72
        20
 73
        16
 74
         0
 42
0.0
 43
0.0
 40
0.0
 40
0.0
 40
0.0
 40
0.0
 40
0.2500000000000001
 40
0.2500000000000001
 40
0.375
 40
0.375
 40
0.5
 40
0.5
 40
0.6249999999999999
 40
0.6249999999999999
 40
0.7499999999999999
 40
0.7499999999999999
 40
0.875
 40
0.875
 40
1.0
 40
1.0
 40
1.0
 40
1.0
 10
259.42424530261644
 20
59.97098550591889
 30
0.0
 10
259.34357173384882
 20
60.047477451484269
 30
0.0
 10
259.18415144765703
 20
60.105539085582819
 30
0.0
 10
258.82506197490505
 20
60.165632302605601
 30
0.0
 10
258.68697078406876
 20
60.180668406631931
 30
0.0
 10
258.37891485589569
 20
60.200711631709467
 30
0.0
 10
258.20841065792604
 20
60.205811322604887
 30
0.0
 10
257.83342879812943
 20
60.20589623981472
 30
0.0
 10
257.63050135246448
 20
60.200793948588853
 30
0.0
 10
257.20489410944663
 20
60.180809318156129
 30
0.0
 10
256.98078557983951
 20
60.165935341515414
 30
0.0
 10
256.50961806814757
 20
60.1261761469992
 30
0.0
 10
256.26325619065847
 20
60.101270126914613
 30
0.0
 10
255.76353257875346
 20
60.042872021049213
 30
0.0
 10
255.50827962907368
 20
60.009233710910451
 30
0.0
 10
255.24756261030873
 20
59.970985505918897
 30
0.0
  0
ARC
  5
169
100
AcDbEntity
  8
TA900_ISI_GW_B_D
  6
CONTINUOUS
 62
         7
100
AcDbCircle
 10
208.1872702003
 20
36.3424650515
 30
0.0
 40
32.4581782456
100
AcDbArc
 50
133.2836724912
 51
139.4285285861
  0
SPLINE
  5
16A
100
AcDbEntity
  8
TA900_ISI_GW_B_D
  6
CONTINUOUS
 62
         7
100
AcDbSpline
210
0.0
220
0.0
230
1.0
 70
         8
 71
         3
 72
        20
 73
        16
 74
         0
 42
0.0
 43
0.0
 40
0.0
 40
0.0
 40
0.0
 40
0.0
 40
0.2500000000000001
 40
0.2500000000000001
 40
0.375
 40
0.375
 40
0.5
 40
0.5
 40
0.6249999999999999
 40
0.6249999999999999
 40
0.7499999999999999
 40
0.7499999999999999
 40
0.875
 40
0.875
 40
1.0
 40
1.0
 40
1.0
 40
1.0
 10
190.11027103635283
 20
59.97098550591889
 30
0.0
 10
189.58886743030797
 20
60.047477451484269
 30
0.0
 10
189.09129566049356
 20
60.105539085582826
 30
0.0
 10
188.38136670578743
 20
60.165632302605616
 30
0.0
 10
188.15524364066877
 20
60.180668406631931
 30
0.0
 10
187.72977449321942
 20
60.200711631709467
 30
0.0
 10
187.52934623666982
 20
60.205811322604902
 30
0.0
 10
187.15386636791325
 20
60.205896239814749
 30
0.0
 10
186.9808782863287
 20
60.20079394858886
 30
0.0
 10
186.67234199198666
 20
60.180809318156143
 30
0.0
 10
186.53531709026799
 20
60.165935341515429
 30
0.0
 10
186.29628178045016
 20
60.126176146999214
 30
0.0
 10
186.19508003179479
 20
60.101270126914628
 30
0.0
 10
186.0344189007111
 20
60.042872021049213
 30
0.0
 10
185.97392748266705
 20
60.009233710910465
 30
0.0
 10
185.93358834404512
 20
59.970985505918897
 30
0.0
  0
LINE
  5
16B
100
AcDbEntity
  8
TA900_ISI_GW_B_D
  6
CONTINUOUS
 62
         7
100
AcDbLine
 10
190.1102710364
 20
67.2105204979
 30
0.0
 11
185.933588344
 21
67.2105204979
 31
0.0
  0
LINE
  5
16C
100
AcDbEntity
  8
TA900_ISI_GW_B_D
  6
CONTINUOUS
 62
         7
100
AcDbLine
 10
248.3795004743
 20
57.1571755853
 30
0.0
 11
248.3795004743
 21
33.9605204979
 31
0.0
  0
LINE
  5
16D
100
AcDbEntity
  8
TA900_ISI_GW_B_D
  6
CONTINUOUS
 62
         7
100
AcDbLine
 10
196.9783331724
 20
57.1571755853
 30
0.0
 11
196.9783331724
 21
33.9605204979
 31
0.0
  0
ARC
  5
16E
100
AcDbEntity
  8
TA900_ISI_GW_B_D
  6
CONTINUOUS
 62
         7
100
AcDbCircle
 10
149.4539154701
 20
33.5077827955
 30
0.0
 40
42.5507494646
100
AcDbArc
 50
0.6096355379
 51
33.7653262691
  0
LINE
  5
16F
100
AcDbEntity
  8
TA900_ISI_GW_B_D
  6
CONTINUOUS
 62
         7
100
AcDbLine
 10
196.9783331724
 20
57.1571755853
 30
0.0
 11
184.8272458289
 21
57.1571755853
 31
0.0
  0
SPLINE
  5
170
100
AcDbEntity
  8
TA900_ISI_GW_B_D
  6
CONTINUOUS
 62
         7
100
AcDbSpline
210
0.0
220
0.0
230
1.0
 70
         8
 71
         3
 72
        22
 73
        18
 74
         0
 42
0.0
 43
0.0
 40
0.4999497448761172
 40
0.4999497448761172
 40
0.4999497448761172
 40
0.4999497448761172
 40
0.4999999999999998
 40
0.4999999999999998
 40
0.5624999999999998
 40
0.5624999999999998
 40
0.6249999999999998
 40
0.6249999999999998
 40
0.6874999999999999
 40
0.6874999999999999
 40
0.7499999999999999
 40
0.7499999999999999
 40
0.8124999999999999
 40
0.8124999999999999
 40
0.8749999999999999
 40
0.8749999999999999
 40
1.0
 40
1.0
 40
1.0
 40
1.0
 10
191.27895663251019
 20
11.510520505562491
 30
0.0
 10
191.27895663246952
 20
11.510520504139157
 30
0.0
 10
191.27895663541784
 20
11.510520596642079
 30
0.0
 10
191.27896402536925
 20
11.510752640823476
 30
0.0
 10
191.28351401392229
 20
11.653653122451743
 30
0.0
 10
191.30171446607946
 20
12.22489802101051
 30
0.0
 10
191.31516259155427
 20
12.646887585701885
 30
0.0
 10
191.35058500699492
 20
13.757240144120066
 30
0.0
 10
191.37287479360816
 20
14.455472139386485
 30
0.0
 10
191.42467632758419
 20
16.075831439784
 30
0.0
 10
191.45417535241123
 20
16.997579516504214
 30
0.0
 10
191.5204464009658
 20
19.06467994868953
 30
0.0
 10
191.55737488074567
 20
20.214848174207933
 30
0.0
 10
191.63556021687853
 20
22.645039918568276
 30
0.0
 10
191.6771577253171
 20
23.935713822111364
 30
0.0
 10
191.80976382333137
 20
28.040874668599336
 30
0.0
 10
191.90408077519231
 20
30.948822821217249
 30
0.0
 10
192.00225631407719
 20
33.96052049790206
 30
0.0
  0
LINE
  5
171
100
AcDbEntity
  8
TA900_ISI_GW_B_D
  6
CONTINUOUS
 62
         7
100
AcDbLine
 10
261.9289168233
 20
67.2105204979
 30
0.0
 11
259.4242453026
 21
67.2105204979
 31
0.0
  0
LINE
  5
172
100
AcDbEntity
  8
TA900_ISI_GW_B_D
  6
CONTINUOUS
 62
         7
100
AcDbLine
 10
259.4242453026
 20
67.2105204979
 30
0.0
 11
255.2475626103
 21
67.2105204979
 31
0.0
  0
LINE
  5
173
100
AcDbEntity
  8
TA900_ISI_GW_B_D
  6
CONTINUOUS
 62
         7
100
AcDbLine
 10
255.2475626103
 20
67.2105204979
 30
0.0
 11
190.1102710364
 21
67.2105204979
 31
0.0
  0
LINE
  5
174
100
AcDbEntity
  8
TA900_ISI_GW_B_D
  6
CONTINUOUS
 62
         7
100
AcDbLine
 10
183.4289168233
 20
67.2105204979
 30
0.0
 11
185.933588344
 21
67.2105204979
 31
0.0
  0
LINE
  5
175
100
AcDbEntity
  8
TA900_ISI_GW_B_D
  6
CONTINUOUS
 62
         7
100
AcDbLine
 10
202.576139474
 20
72.4605204979
 30
0.0
 11
202.576139474
 21
78.4605204979
 31
0.0
  0
LINE
  5
176
100
AcDbEntity
  8
TA900_ISI_GW_B_D
  6
CONTINUOUS
 62
         7
100
AcDbLine
 10
242.7816941726
 20
78.4605204979
 30
0.0
 11
242.7816941726
 21
72.4605204979
 31
0.0
  0
LINE
  5
177
100
AcDbEntity
  8
TA900_ISI_GW_B_D
  6
CONTINUOUS
 62
         7
100
AcDbLine
 10
246.7789168233
 20
78.4605204979
 30
0.0
 11
242.7816941726
 21
78.4605204979
 31
0.0
  0
LINE
  5
178
100
AcDbEntity
  8
TA900_ISI_GW_B_D
  6
CONTINUOUS
 62
         7
100
AcDbLine
 10
242.7816941726
 20
78.4605204979
 30
0.0
 11
202.576139474
 21
78.4605204979
 31
0.0
  0
LINE
  5
179
100
AcDbEntity
  8
TA900_ISI_GW_B_D
  6
CONTINUOUS
 62
         7
100
AcDbLine
 10
202.576139474
 20
78.4605204979
 30
0.0
 11
198.5789168233
 21
78.4605204979
 31
0.0
  0
LINE
  5
17A
100
AcDbEntity
  8
TA900_ISI_GW_B_D
  6
CONTINUOUS
 62
         7
100
AcDbLine
 10
246.7789168233
 20
80.4605204979
 30
0.0
 11
258.7789168233
 21
80.4605204979
 31
0.0
  0
LINE
  5
17B
100
AcDbEntity
  8
TA900_ISI_GW_B_D
  6
CONTINUOUS
 62
         7
100
AcDbLine
 10
186.5789168233
 20
80.4605204979
 30
0.0
 11
198.5789168233
 21
80.4605204979
 31
0.0
  0
LINE
  5
17C
100
AcDbEntity
  8
TA900_ISI_GW_B_D
  6
CONTINUOUS
 62
         7
100
AcDbLine
 10
258.7789168233
 20
72.4605204979
 30
0.0
 11
258.7789168233
 21
80.4605204979
 31
0.0
  0
LINE
  5
17D
100
AcDbEntity
  8
TA900_ISI_GW_B_D
  6
CONTINUOUS
 62
         7
100
AcDbLine
 10
198.5789168233
 20
72.4605204979
 30
0.0
 11
198.5789168233
 21
80.4605204979
 31
0.0
  0
LINE
  5
17E
100
AcDbEntity
  8
TA900_ISI_GW_B_D
  6
CONTINUOUS
 62
         7
100
AcDbLine
 10
228.6789168233
 20
89.9605204979
 30
0.0
 11
228.6789168233
 21
90.9605204979
 31
0.0
  0
LINE
  5
17F
100
AcDbEntity
  8
TA900_ISI_GW_B_D
  6
CONTINUOUS
 62
         7
100
AcDbLine
 10
244.6789168233
 20
78.4605204979
 30
0.0
 11
244.6789168233
 21
89.9605204979
 31
0.0
  0
LINE
  5
180
100
AcDbEntity
  8
TA900_ISI_GW_B_D
  6
CONTINUOUS
 62
         7
100
AcDbLine
 10
261.9289168233
 20
67.4605204979
 30
0.0
 11
261.9289168233
 21
72.4605204979
 31
0.0
  0
LINE
  5
181
100
AcDbEntity
  8
TA900_ISI_GW_B_D
  6
CONTINUOUS
 62
         7
100
AcDbLine
 10
183.4289168233
 20
72.4605204979
 30
0.0
 11
183.4289168233
 21
67.4605204979
 31
0.0
  0
LINE
  5
182
100
AcDbEntity
  8
TA900_ISI_GW_B_D
  6
CONTINUOUS
 62
         7
100
AcDbLine
 10
261.9289168233
 20
67.2105204979
 30
0.0
 11
261.6789168233
 21
67.4605204979
 31
0.0
  0
LINE
  5
183
100
AcDbEntity
  8
TA900_ISI_GW_B_D
  6
CONTINUOUS
 62
         7
100
AcDbLine
 10
183.6789168233
 20
67.4605204979
 30
0.0
 11
183.4289168233
 21
67.2105204979
 31
0.0
  0
LINE
  5
184
100
AcDbEntity
  8
TA900_ISI_GW_B_D
  6
CONTINUOUS
 62
         7
100
AcDbLine
 10
183.4289168233
 20
67.2105204979
 30
0.0
 11
183.4289168233
 21
58.3923188382
 31
0.0
  0
LINE
  5
185
100
AcDbEntity
  8
TA900_ISI_GW_B_D
  6
CONTINUOUS
 62
         7
100
AcDbLine
 10
169.4505468375
 20
63.8280339574
 30
0.0
 11
167.6789168233
 21
58.9605204979
 31
0.0
  0
LINE
  5
186
100
AcDbEntity
  8
TA900_ISI_GW_B_D
  6
CONTINUOUS
 62
         7
100
AcDbLine
 10
267.9007304663
 20
63.8280339574
 30
0.0
 11
265.9289168233
 21
58.4105204979
 31
0.0
  0
ARC
  5
187
100
AcDbEntity
  8
TA900_ISI_GW_B_D
  6
CONTINUOUS
 62
         7
100
AcDbCircle
 10
222.6789168233
 20
33.9605204979
 30
0.0
 40
38.6
100
AcDbArc
 50
311.7451283675
 51
324.4804735919
  0
LINE
  5
188
100
AcDbEntity
  8
TA900_ISI_GW_B_D
  6
CONTINUOUS
 62
         7
100
AcDbLine
 10
196.9783331724
 20
5.1605204979
 30
0.0
 11
248.3795004743
 21
5.1605204979
 31
0.0
  0
LINE
  5
189
100
AcDbEntity
  8
TA900_ISI_GW_B_D
  6
CONTINUOUS
 62
         7
100
AcDbLine
 10
261.9289168233
 20
58.3923188382
 30
0.0
 11
261.9289168233
 21
67.2105204979
 31
0.0
  0
LINE
  5
18A
100
AcDbEntity
  8
TA900_ISI_GW_B_D
  6
CONTINUOUS
 62
         7
100
AcDbLine
 10
261.9289168233
 20
72.4605204979
 30
0.0
 11
259.4242453026
 21
72.4605204979
 31
0.0
  0
ARC
  5
18B
100
AcDbEntity
  8
TA900_ISI_GW_B_D
  6
CONTINUOUS
 62
         7
100
AcDbCircle
 10
222.6789168233
 20
33.9605204979
 30
0.0
 40
38.6
100
AcDbArc
 50
215.5175235378
 51
228.2548716325
  0
ARC
  5
18C
100
AcDbEntity
  8
TA900_ISI_GW_B_D
  6
CONTINUOUS
 62
         7
100
AcDbCircle
 10
285.9183867651
 20
13.3098854033
 30
0.0
 40
19.4092573746
100
AcDbArc
 50
158.1716867869
 51
201.8283132131
  0
ARC
  5
18D
100
AcDbEntity
  8
TA900_ISI_GW_B_D
  6
CONTINUOUS
 62
         7
100
AcDbCircle
 10
341.8528977148
 20
34.9605204979
 30
0.0
 40
75.347570459
100
AcDbArc
 50
168.9560255106
 51
191.0439744894
  0
ARC
  5
18E
100
AcDbEntity
  8
TA900_ISI_GW_B_D
  6
CONTINUOUS
 62
         7
100
AcDbCircle
 10
257.8896305104
 20
56.6111555925
 30
0.0
 40
19.4092573746
100
AcDbArc
 50
338.1716867869
 51
21.8283132131
  0
ARC
  5
18F
100
AcDbEntity
  8
TA900_ISI_GW_B_D
  6
CONTINUOUS
 62
         7
100
AcDbCircle
 10
201.9551213565
 20
34.9605204979
 30
0.0
 40
75.3475686965
100
AcDbArc
 50
348.956025249
 51
11.043974751
  0
ARC
  5
190
100
AcDbEntity
  8
TA900_ISI_GW_B_D
  6
CONTINUOUS
 62
         7
100
AcDbCircle
 10
103.5049359319
 20
34.9605204979
 30
0.0
 40
75.347570459
100
AcDbArc
 50
348.9560255106
 51
11.0439744894
  0
LINE
  5
191
100
AcDbEntity
  8
TA900_ISI_GW_B_D
  6
CONTINUOUS
 62
         7
100
AcDbLine
 10
169.4505468375
 20
20.5267637682
 30
0.0
 11
177.4571031803
 21
20.5267637682
 31
0.0
  0
ARC
  5
192
100
AcDbEntity
  8
TA900_ISI_GW_B_D
  6
CONTINUOUS
 62
         7
100
AcDbCircle
 10
243.4027122902
 20
34.9605204979
 30
0.0
 40
75.3475686965
100
AcDbArc
 50
168.956025249
 51
191.043974751
  0
ARC
  5
193
100
AcDbEntity
  8
TA900_ISI_GW_B_D
  6
CONTINUOUS
 62
         7
100
AcDbCircle
 10
187.4682031362
 20
56.6111555925
 30
0.0
 40
19.4092573746
100
AcDbArc
 50
158.1716867869
 51
201.8283132131
  0
LINE
  5
194
100
AcDbEntity
  8
TA900_ISI_GW_B_D
  6
CONTINUOUS
 62
         7
100
AcDbLine
 10
169.4505468375
 20
63.8280339574
 30
0.0
 11
177.4571031803
 21
63.8280339574
 31
0.0
  0
LINE
  5
195
100
AcDbEntity
  8
TA900_ISI_GW_B_D
  6
CONTINUOUS
 62
         7
100
AcDbLine
 10
169.4505468375
 20
49.3942772276
 30
0.0
 11
177.4571031803
 21
49.3942772276
 31
0.0
  0
LINE
  5
196
100
AcDbEntity
  8
TA900_ISI_GW_B_D
  6
CONTINUOUS
 62
         7
100
AcDbLine
 10
169.4505468375
 20
6.0930070384
 30
0.0
 11
177.4571031803
 21
6.0930070384
 31
0.0
  0
LINE
  5
197
100
AcDbEntity
  8
TA900_ISI_GW_B_D
  6
CONTINUOUS
 62
         7
100
AcDbLine
 10
246.7789168233
 20
80.4605204979
 30
0.0
 11
246.7789168233
 21
72.4605204979
 31
0.0
  0
LINE
  5
198
100
AcDbEntity
  8
TA900_ISI_GW_B_D
  6
CONTINUOUS
 62
         7
100
AcDbLine
 10
186.5789168233
 20
80.4605204979
 30
0.0
 11
186.5789168233
 21
72.4605204979
 31
0.0
  0
LINE
  5
199
100
AcDbEntity
  8
TA900_ISI_GW_B_D
  6
CONTINUOUS
 62
         7
100
AcDbLine
 10
216.6789168233
 20
90.9605204979
 30
0.0
 11
216.6789168233
 21
89.9605204979
 31
0.0
  0
LINE
  5
19A
100
AcDbEntity
  8
TA900_ISI_GW_B_D
  6
CONTINUOUS
 62
         7
100
AcDbLine
 10
200.6789168233
 20
89.9605204979
 30
0.0
 11
200.6789168233
 21
78.4605204979
 31
0.0
  0
LINE
  5
19B
100
AcDbEntity
  8
TA900_ISI_GW_B_D
  6
CONTINUOUS
 62
         7
100
AcDbLine
 10
167.6789168233
 20
10.9605204979
 30
0.0
 11
169.4505468375
 21
6.0930070384
 31
0.0
  0
LINE
  5
19C
100
AcDbEntity
  8
TA900_ISI_GW_B_D
  6
CONTINUOUS
 62
         7
100
AcDbLine
 10
265.9289168233
 20
11.5105204979
 30
0.0
 11
267.9007304663
 21
6.0930070384
 31
0.0
  0
LINE
  5
19D
100
AcDbEntity
  8
TA900_ISI_GW_B_D
  6
CONTINUOUS
 62
         7
100
AcDbLine
 10
275.7876124755
 20
156.3916770189
 30
0.0
 11
275.7876124755
 21
136.7739870184
 31
0.0
  0
ARC
  5
19E
100
AcDbEntity
  8
TA900_ISI_GW_B_D
  6
CONTINUOUS
 62
         7
100
AcDbCircle
 10
318.4136927335
 20
-15.3442602799
 30
0.0
 40
157.9776689259
100
AcDbArc
 50
105.6537615994
 51
108.9241746847
  0
SPLINE
  5
19F
100
AcDbEntity
  8
TA900_ISI_GW_B_D
  6
CONTINUOUS
 62
         7
100
AcDbSpline
210
0.0
220
0.0
230
1.0
 70
         8
 71
         3
 72
        22
 73
        18
 74
         0
 42
0.0
 43
0.0
 40
0.0
 40
0.0
 40
0.0
 40
0.0
 40
0.1250000000000002
 40
0.1250000000000002
 40
0.2500000000000004
 40
0.2500000000000004
 40
0.3750000000000007
 40
0.3750000000000007
 40
0.5000000000000009
 40
0.5000000000000009
 40
0.6250000000000007
 40
0.6250000000000007
 40
0.7500000000000004
 40
0.7500000000000004
 40
0.8750000000000002
 40
0.8750000000000002
 40
1.0
 40
1.0
 40
1.0
 40
1.0
 10
251.58037098846313
 20
136.77398701842887
 30
0.0
 10
251.01847750418244
 20
136.42359129534313
 30
0.0
 10
250.64633235063289
 20
136.08727303639733
 30
0.0
 10
250.28070510131494
 20
135.44901583192282
 30
0.0
 10
250.29645232769488
 20
135.15562582627717
 30
0.0
 10
250.73128236514631
 20
134.65628455273043
 30
0.0
 10
251.15555824500873
 20
134.45022023965015
 30
0.0
 10
252.37360732148773
 20
134.17069713633163
 30
0.0
 10
253.18378901956191
 20
134.09510820128196
 30
0.0
 10
255.08249912804314
 20
134.09388969866254
 30
0.0
 10
256.19763712880825
 20
134.1682629135174
 30
0.0
 10
258.57772560813299
 20
134.44605247027533
 30
0.0
 10
259.8741287173159
 20
134.65240086910825
 30
0.0
 10
262.4830596986186
 20
135.14989324013854
 30
0.0
 10
263.83006255084007
 20
135.44706992058741
 30
0.0
 10
266.42069469606042
 20
136.08066082413984
 30
0.0
 10
267.69327887723091
 20
136.42351957882036
 30
0.0
 10
268.8845003294478
 20
136.77398701842887
 30
0.0
  0
SPLINE
  5
1A0
100
AcDbEntity
  8
TA900_ISI_GW_B_D
  6
CONTINUOUS
 62
         7
100
AcDbSpline
210
0.0
220
0.0
230
1.0
 70
         8
 71
         3
 72
        22
 73
        18
 74
         0
 42
0.0
 43
0.0
 40
0.0
 40
0.0
 40
0.0
 40
0.0
 40
0.125
 40
0.125
 40
0.25
 40
0.25
 40
0.375
 40
0.375
 40
0.5
 40
0.5
 40
0.625
 40
0.625
 40
0.75
 40
0.75
 40
0.875
 40
0.875
 40
1.0
 40
1.0
 40
1.0
 40
1.0
 10
176.47333331721373
 20
136.77398701842887
 30
0.0
 10
177.66431100852526
 20
136.4235912953431
 30
0.0
 10
178.91128516103143
 20
136.08727303639733
 30
0.0
 10
181.51864810787666
 20
135.44901583192282
 30
0.0
 10
182.84741598213751
 20
135.15562582627717
 30
0.0
 10
185.4606852722404
 20
134.65628455273037
 30
0.0
 10
186.75171405368701
 20
134.45022023965015
 30
0.0
 10
189.13219633484019
 20
134.17069713633163
 30
0.0
 10
190.24878116576645
 20
134.09510820128196
 30
0.0
 10
192.15246843100491
 20
134.09388969866257
 30
0.0
 10
192.96619024541189
 20
134.16826291351742
 30
0.0
 10
194.19136882453893
 20
134.44605247027536
 30
0.0
 10
194.62006101523167
 20
134.65240086910825
 30
0.0
 10
195.05943823183568
 20
135.14989324013854
 30
0.0
 10
195.07660206401923
 20
135.44706992058744
 30
0.0
 10
194.71690830799986
 20
136.08066082413981
 30
0.0
 10
194.33947114687044
 20
136.42351957882036
 30
0.0
 10
193.77746265819846
 20
136.77398701842887
 30
0.0
  0
ARC
  5
1A1
100
AcDbEntity
  8
TA900_ISI_GW_B_D
  6
CONTINUOUS
 62
         7
100
AcDbCircle
 10
222.6789168233
 20
163.2257666801
 30
0.0
 40
29.1446923709
100
AcDbArc
 50
245.1760343823
 51
294.8239656177
  0
LINE
  5
1A2
100
AcDbEntity
  8
TA900_ISI_GW_B_D
  6
CONTINUOUS
 62
         7
100
AcDbLine
 10
234.9147840229
 20
136.7739870184
 30
0.0
 11
234.9147840229
 21
156.3916770189
 31
0.0
  0
LINE
  5
1A3
100
AcDbEntity
  8
TA900_ISI_GW_B_D
  6
CONTINUOUS
 62
         7
100
AcDbLine
 10
210.4430496238
 20
156.3916770189
 30
0.0
 11
210.4430496238
 21
136.7739870184
 31
0.0
  0
LINE
  5
1A4
100
AcDbEntity
  8
TA900_ISI_GW_B_D
  6
CONTINUOUS
 62
         7
100
AcDbLine
 10
169.5702211712
 20
136.7739870184
 30
0.0
 11
169.5702211712
 21
156.3916770189
 31
0.0
  0
ARC
  5
1A5
100
AcDbEntity
  8
TA900_ISI_GW_B_D
  6
CONTINUOUS
 62
         7
100
AcDbCircle
 10
126.9441409132
 20
-15.3442602798
 30
0.0
 40
157.9776689259
100
AcDbArc
 50
71.0758253153
 51
74.3462384006
  0
LINE
  5
1A6
100
AcDbEntity
  8
TA900_ISI_GW_B_D
  6
CONTINUOUS
 62
         7
100
AcDbLine
 10
275.9072868092
 20
6.0930070384
 30
0.0
 11
277.6789168233
 21
10.9605204979
 31
0.0
  0
LINE
  5
1A7
100
AcDbEntity
  8
TA900_ISI_GW_B_D
  6
CONTINUOUS
 62
         7
100
AcDbLine
 10
176.4733333172
 20
136.7739870184
 30
0.0
 11
169.5702211712
 21
136.7739870184
 31
0.0
  0
LINE
  5
1A8
100
AcDbEntity
  8
TA900_ISI_GW_B_D
  6
CONTINUOUS
 62
         7
100
AcDbLine
 10
266.6789168233
 20
133.9605204979
 30
0.0
 11
178.6789168233
 21
133.9605204979
 31
0.0
  0
LINE
  5
1A9
100
AcDbEntity
  8
TA900_ISI_GW_B_D
  6
CONTINUOUS
 62
         7
100
AcDbLine
 10
177.4571031803
 20
6.0930070384
 30
0.0
 11
179.4289168233
 21
11.5105204979
 31
0.0
  0
LINE
  5
1AA
100
AcDbEntity
  8
TA900_ISI_GW_B_D
  6
CONTINUOUS
 62
         7
100
AcDbLine
 10
245.6789168233
 20
128.9605204979
 30
0.0
 11
199.6789168233
 21
128.9605204979
 31
0.0
  0
LINE
  5
1AB
100
AcDbEntity
  8
TA900_ISI_GW_B_D
  6
CONTINUOUS
 62
         7
100
AcDbLine
 10
275.7876124755
 20
136.7739870184
 30
0.0
 11
268.8845003294
 21
136.7739870184
 31
0.0
  0
LINE
  5
1AC
100
AcDbEntity
  8
TA900_ISI_GW_B_D
  6
CONTINUOUS
 62
         7
100
AcDbLine
 10
251.5803709885
 20
136.7739870184
 30
0.0
 11
234.9147840229
 21
136.7739870184
 31
0.0
  0
LINE
  5
1AD
100
AcDbEntity
  8
TA900_ISI_GW_B_D
  6
CONTINUOUS
 62
         7
100
AcDbLine
 10
210.4430496238
 20
136.7739870184
 30
0.0
 11
193.7774626582
 21
136.7739870184
 31
0.0
  0
LINE
  5
1AE
100
AcDbEntity
  8
TA900_ISI_GW_B_D
  6
CONTINUOUS
 62
         7
100
AcDbLine
 10
176.4733333172
 20
156.3916770189
 30
0.0
 11
176.4733333172
 21
136.7739870184
 31
0.0
  0
LINE
  5
1AF
100
AcDbEntity
  8
TA900_ISI_GW_B_D
  6
CONTINUOUS
 62
         7
100
AcDbLine
 10
193.7774626582
 20
136.7739870184
 30
0.0
 11
193.7774626582
 21
156.3916770189
 31
0.0
  0
LINE
  5
1B0
100
AcDbEntity
  8
TA900_ISI_GW_B_D
  6
CONTINUOUS
 62
         7
100
AcDbLine
 10
176.4733333172
 20
156.3916770189
 30
0.0
 11
169.5702211712
 21
156.3916770189
 31
0.0
  0
LINE
  5
1B1
100
AcDbEntity
  8
TA900_ISI_GW_B_D
  6
CONTINUOUS
 62
         7
100
AcDbLine
 10
210.4430496238
 20
156.3916770189
 30
0.0
 11
193.7774626582
 21
156.3916770189
 31
0.0
  0
LINE
  5
1B2
100
AcDbEntity
  8
TA900_ISI_GW_B_D
  6
CONTINUOUS
 62
         7
100
AcDbLine
 10
251.5803709885
 20
156.3916770189
 30
0.0
 11
234.9147840229
 21
156.3916770189
 31
0.0
  0
LINE
  5
1B3
100
AcDbEntity
  8
TA900_ISI_GW_B_D
  6
CONTINUOUS
 62
         7
100
AcDbLine
 10
268.8845003294
 20
136.7739870184
 30
0.0
 11
268.8845003294
 21
156.3916770189
 31
0.0
  0
LINE
  5
1B4
100
AcDbEntity
  8
TA900_ISI_GW_B_D
  6
CONTINUOUS
 62
         7
100
AcDbLine
 10
275.7876124755
 20
156.3916770189
 30
0.0
 11
268.8845003294
 21
156.3916770189
 31
0.0
  0
LINE
  5
1B5
100
AcDbEntity
  8
TA900_ISI_GW_B_D
  6
CONTINUOUS
 62
         7
100
AcDbLine
 10
251.5803709885
 20
156.3916770189
 30
0.0
 11
251.5803709885
 21
136.7739870184
 31
0.0
  0
SPLINE
  5
1B6
100
AcDbEntity
  8
TA900_ISI_GW_B_D
  6
CONTINUOUS
 62
         7
100
AcDbSpline
210
0.0
220
0.0
230
1.0
 70
         8
 71
         3
 72
        20
 73
        16
 74
         0
 42
0.0
 43
0.0
 40
0.0
 40
0.0
 40
0.0
 40
0.0
 40
0.1249999999999998
 40
0.1249999999999998
 40
0.2499999999999996
 40
0.2499999999999996
 40
0.5
 40
0.5
 40
0.625
 40
0.625
 40
0.75
 40
0.75
 40
0.875
 40
0.875
 40
1.0
 40
1.0
 40
1.0
 40
1.0
 10
268.8845003294478
 20
156.39167701887712
 30
0.0
 10
267.69930506064946
 20
156.76024172007945
 30
0.0
 10
266.45499973863639
 20
157.1008800574827
 30
0.0
 10
263.84658751870137
 20
157.7263184021499
 30
0.0
 10
262.51609261975744
 20
158.00206868062943
 30
0.0
 10
258.58722711336702
 20
158.68769511492607
 30
0.0
 10
256.05857872530032
 20
158.94610512584816
 30
0.0
 10
253.20501467441403
 20
158.94753104146127
 30
0.0
 10
252.39219297753667
 20
158.88481524539012
 30
0.0
 10
251.16675088377411
 20
158.64380111366992
 30
0.0
 10
250.73719005457235
 20
158.46233344549847
 30
0.0
 10
250.29784110580067
 20
158.00742853246672
 30
0.0
 10
250.28152225866111
 20
157.72794332484165
 30
0.0
 10
250.6429304235624
 20
157.10748265368096
 30
0.0
 10
251.02109062732254
 20
156.76031750480195
 30
0.0
 10
251.58037098846313
 20
156.39167701887715
 30
0.0
  0
LINE
  5
1B7
100
AcDbEntity
  8
TA900_ISI_GW_B_D
  6
CONTINUOUS
 62
         7
100
AcDbLine
 10
244.6789168233
 20
89.9605204979
 30
0.0
 11
200.6789168233
 21
89.9605204979
 31
0.0
  0
LINE
  5
1B8
100
AcDbEntity
  8
TA900_ISI_GW_B_D
  6
CONTINUOUS
 62
         7
100
AcDbLine
 10
261.9289168233
 20
67.4605204979
 30
0.0
 11
259.4242453026
 21
67.4605204979
 31
0.0
  0
LINE
  5
1B9
100
AcDbEntity
  8
TA900_ISI_GW_B_D
  6
CONTINUOUS
 62
         7
100
AcDbLine
 10
185.933588344
 20
67.4605204979
 30
0.0
 11
183.4289168233
 21
67.4605204979
 31
0.0
  0
LINE
  5
1BA
100
AcDbEntity
  8
TA900_ISI_GW_B_D
  6
CONTINUOUS
 62
         7
100
AcDbLine
 10
190.1102710364
 20
67.4605204979
 30
0.0
 11
185.933588344
 21
67.4605204979
 31
0.0
  0
LINE
  5
1BB
100
AcDbEntity
  8
TA900_ISI_GW_B_D
  6
CONTINUOUS
 62
         7
100
AcDbLine
 10
259.4242453026
 20
67.4605204979
 30
0.0
 11
255.2475626103
 21
67.4605204979
 31
0.0
  0
LINE
  5
1BC
100
AcDbEntity
  8
TA900_ISI_GW_B_D
  6
CONTINUOUS
 62
         7
100
AcDbLine
 10
255.2475626103
 20
67.4605204979
 30
0.0
 11
190.1102710364
 21
67.4605204979
 31
0.0
  0
LINE
  5
1BD
100
AcDbEntity
  8
TA900_ISI_GW_B_D
  6
CONTINUOUS
 62
         7
100
AcDbLine
 10
185.933588344
 20
72.4605204979
 30
0.0
 11
183.4289168233
 21
72.4605204979
 31
0.0
  0
LINE
  5
1BE
100
AcDbEntity
  8
TA900_ISI_GW_B_D
  6
CONTINUOUS
 62
         7
100
AcDbLine
 10
190.1102710364
 20
72.4605204979
 30
0.0
 11
185.933588344
 21
72.4605204979
 31
0.0
  0
LINE
  5
1BF
100
AcDbEntity
  8
TA900_ISI_GW_B_D
  6
CONTINUOUS
 62
         7
100
AcDbLine
 10
259.4242453026
 20
72.4605204979
 30
0.0
 11
255.2475626103
 21
72.4605204979
 31
0.0
  0
LINE
  5
1C0
100
AcDbEntity
  8
TA900_ISI_GW_B_D
  6
CONTINUOUS
 62
         7
100
AcDbLine
 10
255.2475626103
 20
72.4605204979
 30
0.0
 11
190.1102710364
 21
72.4605204979
 31
0.0
  0
LINE
  5
1C1
100
AcDbEntity
  8
TA900_ISI_GW_B_D
  6
CONTINUOUS
 62
         7
100
AcDbLine
 10
254.0776688064
 20
11.5105204979
 30
0.0
 11
265.9289168233
 21
11.5105204979
 31
0.0
  0
LINE
  5
1C2
100
AcDbEntity
  8
TA900_ISI_GW_B_D
  6
CONTINUOUS
 62
         7
100
AcDbLine
 10
179.4289168233
 20
11.5105204979
 30
0.0
 11
191.2801648402
 21
11.5105204979
 31
0.0
  0
ARC
  5
1C3
100
AcDbEntity
  8
TA900_ISI_GW_B_D
  6
CONTINUOUS
 62
         7
100
AcDbCircle
 10
295.9053235121
 20
33.5073481079
 30
0.0
 40
42.5521593477
100
AcDbArc
 50
146.2352388638
 51
179.3897993292
  0
ARC
  5
1C4
100
AcDbEntity
  8
TA900_ISI_GW_B_D
  6
CONTINUOUS
 62
         7
100
AcDbCircle
 10
222.6789168233
 20
183.7813714623
 30
0.0
 40
129.2060640276
100
AcDbArc
 50
258.5266809925
 51
281.4733190075
  0
LINE
  5
1C5
100
AcDbEntity
  8
TA900_ISI_GW_B_D
  6
CONTINUOUS
 62
         7
100
AcDbLine
 10
260.5305878177
 20
57.1571755853
 30
0.0
 11
248.3795004743
 21
57.1571755853
 31
0.0
  0
SPLINE
  5
1C6
100
AcDbEntity
  8
TA900_ISI_GW_B_D
  6
CONTINUOUS
 62
         7
100
AcDbSpline
210
0.0
220
0.0
230
1.0
 70
         8
 71
         3
 72
        20
 73
        16
 74
         0
 42
0.0
 43
0.0
 40
0.0
 40
0.0
 40
0.0
 40
0.0
 40
0.0624999999999999
 40
0.0624999999999999
 40
0.1249999999999998
 40
0.1249999999999998
 40
0.1874999999999998
 40
0.1874999999999998
 40
0.2499999999999997
 40
0.2499999999999997
 40
0.3124999999999997
 40
0.3124999999999997
 40
0.3749999999999997
 40
0.3749999999999997
 40
0.4999488185897738
 40
0.4999488185897738
 40
0.4999488185897738
 40
0.4999488185897738
 10
253.3555773325844
 20
33.96052049790206
 30
0.0
 10
253.40466512071379
 20
32.454671086305758
 30
0.0
 10
253.45263756170323
 20
30.979426886760599
 30
0.0
 10
253.54646423274568
 20
28.087629392188624
 30
0.0
 10
253.59275477355709
 20
26.657553139629197
 30
0.0
 10
253.68089321703735
 20
23.928971388084289
 30
0.0
 10
253.72245672910677
 20
22.639350991184948
 30
0.0
 10
253.80070934745564
 20
20.207050974600392
 30
0.0
 10
253.83766894154826
 20
19.05590024504955
 30
0.0
 10
253.9037918216076
 20
16.993407698304928
 30
0.0
 10
253.93329168275719
 20
16.071632900685486
 30
0.0
 10
253.98516302794312
 20
14.449081115556304
 30
0.0
 10
254.00737229234093
 20
13.753365763129521
 30
0.0
 10
254.06039966372686
 20
12.091162563400204
 30
0.0
 10
254.07887663912476
 20
11.510532653180986
 30
0.0
 10
254.07887701414612
 20
11.510520505736935
 30
0.0
  0
ARC
  5
1C7
100
AcDbEntity
  8
TA900_ISI_GW_B_D
  6
CONTINUOUS
 62
         7
100
AcDbCircle
 10
222.6789168233
 20
261.2606595207
 30
0.0
 40
203.9074534032
100
AcDbArc
 50
260.8091998067
 51
279.1908001933
  0
LINE
  5
1C8
100
AcDbEntity
  8
TA900_ISI_GW_B_D
  6
CONTINUOUS
 62
         7
100
AcDbLine
 10
245.6789168233
 20
90.9605204979
 30
0.0
 11
245.6789168233
 21
128.9605204979
 31
0.0
  0
LINE
  5
1C9
100
AcDbEntity
  8
TA900_ISI_GW_B_D
  6
CONTINUOUS
 62
         7
100
AcDbLine
 10
191.0186627855
 20
133.9605204979
 30
0.0
 11
199.6789168233
 21
128.9605204979
 31
0.0
  0
ARC
  5
1CA
100
AcDbEntity
  8
TA900_ISI_GW_B_D
  6
CONTINUOUS
 62
         7
100
AcDbCircle
 10
222.6789168233
 20
-36.0394795021
 30
0.0
 40
200.0
100
AcDbArc
 50
77.1400240263
 51
90.0
  0
LINE
  5
1CB
100
AcDbEntity
  8
TA900_ISI_GW_B_D
  6
CONTINUOUS
 62
         7
100
AcDbLine
 10
178.1623031548
 20
134.0989467132
 30
0.0
 11
178.6789168233
 21
133.9605204979
 31
0.0
  0
LINE
  5
1CC
100
AcDbEntity
  8
TA900_ISI_GW_B_D
  6
CONTINUOUS
 62
         7
100
AcDbLine
 10
277.6789168233
 20
58.9605204979
 30
0.0
 11
275.9072868092
 21
63.8280339574
 31
0.0
  0
LINE
  5
1CD
100
AcDbEntity
  8
TA900_ISI_GW_B_D
  6
CONTINUOUS
 62
         7
100
AcDbLine
 10
179.4289168233
 20
58.4105204979
 30
0.0
 11
177.4571031803
 21
63.8280339574
 31
0.0
  0
LINE
  5
1CE
100
AcDbEntity
  8
TA900_ISI_GW_B_D
  6
CONTINUOUS
 62
         7
100
AcDbLine
 10
265.9289168233
 20
58.4105204979
 30
0.0
 11
261.9269045463
 21
58.4105204979
 31
0.0
  0
LINE
  5
1CF
100
AcDbEntity
  8
TA900_ISI_GW_B_D
  6
CONTINUOUS
 62
         7
100
AcDbLine
 10
183.4309291003
 20
58.4105204979
 30
0.0
 11
179.4289168233
 21
58.4105204979
 31
0.0
  0
LINE
  5
1D0
100
AcDbEntity
  8
TA900_ISI_GW_B_D
  6
CONTINUOUS
 62
         7
100
AcDbLine
 10
199.6789168233
 20
128.9605204979
 30
0.0
 11
199.6789168233
 21
90.9605204979
 31
0.0
  0
LINE
  5
1D1
100
AcDbEntity
  8
TA900_ISI_GW_B_D
  6
CONTINUOUS
 62
         7
100
AcDbLine
 10
245.6789168233
 20
128.9605204979
 30
0.0
 11
254.3391708612
 21
133.9605204979
 31
0.0
  0
ARC
  5
1D2
100
AcDbEntity
  8
TA900_ISI_GW_B_D
  6
CONTINUOUS
 62
         7
100
AcDbCircle
 10
222.6789168233
 20
-36.0394795021
 30
0.0
 40
200.0
100
AcDbArc
 50
90.0
 51
102.8599399141
  0
LINE
  5
1D3
100
AcDbEntity
  8
TA900_ISI_GW_B_D
  6
CONTINUOUS
 62
         7
100
AcDbLine
 10
266.6789168233
 20
133.9605204979
 30
0.0
 11
267.1955304919
 21
134.0989467132
 31
0.0
  0
ENDBLK
  5
1D4
100
AcDbEntity
  8
TA900_ISI_GW_B_D
  6
CONTINUOUS
 62
         7
100
AcDbBlockEnd
  0
BLOCK
  5
23C
100
AcDbEntity
  8
0
 62
         1
 48
0.0
100
AcDbBlockBegin
  2
SE6
 70
         0
 10
0.0
 20
0.0
 30
0.0
  3
SE6
  1

  0
ENDBLK
  5
23D
100
AcDbEntity
  8
0
 62
         1
 48
0.0
100
AcDbBlockEnd
  0
BLOCK
  5
1D7
100
AcDbEntity
  8
0
 62
         1
 48
0.0
100
AcDbBlockBegin
  2
SE7
 70
         0
 10
0.0
 20
0.0
 30
0.0
  3
SE7
  1

  0
LINE
  5
1D8
100
AcDbEntity
  8
TA900_ISI_GW_B_D
  6
CONTINUOUS
 62
         7
100
AcDbLine
 10
176.9305031694
 20
288.4393790237
 30
0.0
 11
157.3128131689
 21
288.4393790237
 31
0.0
  0
SPLINE
  5
1D9
100
AcDbEntity
  8
TA900_ISI_GW_B_D
  6
CONTINUOUS
 62
         7
100
AcDbSpline
210
0.0
220
0.0
230
1.0
 70
         8
 71
         3
 72
        20
 73
        16
 74
         0
 42
0.0
 43
0.0
 40
0.0
 40
0.0
 40
0.0
 40
0.0
 40
0.1249999999999997
 40
0.1249999999999997
 40
0.2499999999999993
 40
0.2499999999999993
 40
0.4999999999999996
 40
0.4999999999999996
 40
0.6249999999999997
 40
0.6249999999999997
 40
0.7499999999999998
 40
0.7499999999999998
 40
0.8749999999999999
 40
0.8749999999999999
 40
1.0
 40
1.0
 40
1.0
 40
1.0
 10
157.31281316890983
 20
288.43937902374205
 30
0.0
 10
156.94424846770752
 20
287.25418375494371
 30
0.0
 10
156.60361013030428
 20
286.00987843293063
 30
0.0
 10
155.97817178563704
 20
283.40146621299567
 30
0.0
 10
155.70242150715748
 20
282.07097131405175
 30
0.0
 10
155.01679507286093
 20
278.14210580766127
 30
0.0
 10
154.75838506193878
 20
275.61345741959451
 30
0.0
 10
154.75695914632567
 20
272.75989336870828
 30
0.0
 10
154.81967494239686
 20
271.94707167183088
 30
0.0
 10
155.06068907411702
 20
270.72162957806836
 30
0.0
 10
155.24215674228847
 20
270.2920687488666
 30
0.0
 10
155.69706165532025
 20
269.85271980009492
 30
0.0
 10
155.97654686294533
 20
269.83640095295533
 30
0.0
 10
156.59700753410598
 20
270.19780911785665
 30
0.0
 10
156.94417268298508
 20
270.57596932161675
 30
0.0
 10
157.31281316890983
 20
271.13524968275738
 30
0.0
  0
LINE
  5
1DA
100
AcDbEntity
  8
TA900_ISI_GW_B_D
  6
CONTINUOUS
 62
         7
100
AcDbLine
 10
157.3128131689
 20
295.3424911698
 30
0.0
 11
157.3128131689
 21
288.4393790237
 31
0.0
  0
LINE
  5
1DB
100
AcDbEntity
  8
TA900_ISI_GW_B_D
  6
CONTINUOUS
 62
         7
100
AcDbLine
 10
157.3128131689
 20
271.1352496828
 30
0.0
 11
157.3128131689
 21
254.4696627172
 31
0.0
  0
LINE
  5
1DC
100
AcDbEntity
  8
TA900_ISI_GW_B_D
  6
CONTINUOUS
 62
         7
100
AcDbLine
 10
157.3128131689
 20
295.3424911698
 30
0.0
 11
176.9305031694
 21
295.3424911698
 31
0.0
  0
ARC
  5
1DD
100
AcDbEntity
  8
TA900_ISI_GW_B_D
  6
CONTINUOUS
 62
         7
100
AcDbCircle
 10
329.0487504678
 20
337.9685714278
 30
0.0
 40
157.9776689261
100
AcDbArc
 50
195.6537615994
 51
198.9241746847
  0
LINE
  5
1DE
100
AcDbEntity
  8
TA900_ISI_GW_B_D
  6
CONTINUOUS
 62
         7
100
AcDbLine
 10
222.7439696899
 20
265.2337955176
 30
0.0
 11
222.7439696899
 21
219.2337955176
 31
0.0
  0
SPLINE
  5
1DF
100
AcDbEntity
  8
TA900_ISI_GW_B_D
  6
CONTINUOUS
 62
         7
100
AcDbSpline
210
0.0
220
0.0
230
1.0
 70
         8
 71
         3
 72
        14
 73
        10
 74
         0
 42
0.0
 43
0.0
 40
0.500482670501736
 40
0.500482670501736
 40
0.500482670501736
 40
0.500482670501736
 40
0.6249999999999999
 40
0.6249999999999999
 40
0.7499999999999999
 40
0.7499999999999999
 40
0.875
 40
0.875
 40
1.0
 40
1.0
 40
1.0
 40
1.0
 10
154.75743177180291
 20
286.73379578886789
 30
0.0
 10
154.75744434503724
 20
286.73383912945019
 30
0.0
 10
154.82014026404434
 20
286.94653579576578
 30
0.0
 10
155.06068907411705
 20
287.76148917532169
 30
0.0
 10
155.24215674228844
 20
288.37593894995712
 30
0.0
 10
155.69706165532025
 20
289.91291914236581
 30
0.0
 10
155.9765468629453
 20
290.85581372516532
 30
0.0
 10
156.59700753410596
 20
292.943336846801
 30
0.0
 10
156.94417268298506
 20
294.10878829941714
 30
0.0
 10
157.31281316890983
 20
295.34249116979896
 30
0.0
  0
SPLINE
  5
1E0
100
AcDbEntity
  8
TA900_ISI_GW_B_D
  6
CONTINUOUS
 62
         7
100
AcDbSpline
210
0.0
220
0.0
230
1.0
 70
         8
 71
         3
 72
        14
 73
        10
 74
         0
 42
0.0
 43
0.0
 40
0.0
 40
0.0
 40
0.0
 40
0.0
 40
0.1249999999999999
 40
0.1249999999999999
 40
0.2499999999999998
 40
0.2499999999999998
 40
0.4999999999999998
 40
0.4999999999999998
 40
0.500481071785467
 40
0.500481071785467
 40
0.500481071785467
 40
0.500481071785467
 10
157.31281316890983
 20
189.12509986545112
 30
0.0
 10
156.9442484677075
 20
190.35854911249751
 30
0.0
 10
156.60361013030425
 20
191.50206245261057
 30
0.0
 10
155.97817178563702
 20
193.60628807579084
 30
0.0
 10
155.70242150715742
 20
194.53657977534476
 30
0.0
 10
155.01679507286087
 20
196.85304428528761
 30
0.0
 10
154.75838506193884
 20
197.73056257674025
 30
0.0
 10
154.75743262228264
 20
197.73379236645465
 30
0.0
 10
154.75743172899178
 20
197.73379539429524
 30
0.0
 10
154.75743177134962
 20
197.7337952479464
 30
0.0
  0
ARC
  5
1E1
100
AcDbEntity
  8
TA900_ISI_GW_B_D
  6
CONTINUOUS
 62
         7
100
AcDbCircle
 10
184.6913758662
 20
242.2337955176
 30
0.0
 40
29.9883667694
100
AcDbArc
 50
155.9194562974
 51
204.0805437026
  0
LINE
  5
1E2
100
AcDbEntity
  8
TA900_ISI_GW_B_D
  6
CONTINUOUS
 62
         7
100
AcDbLine
 10
293.1777264196
 20
217.2337955176
 30
0.0
 11
307.6114831494
 21
242.2337955176
 31
0.0
  0
CIRCLE
  5
1E3
100
AcDbEntity
  8
TA900_ISI_GW_B_D
  6
CONTINUOUS
 62
         7
100
AcDbCircle
 10
278.7439696899
 20
242.2337955176
 30
0.0
 40
24.0
  0
ARC
  5
1E4
100
AcDbEntity
  8
TA900_ISI_GW_B_D
  6
CONTINUOUS
 62
         7
100
AcDbCircle
 10
279.7439696899
 20
242.2337955176
 30
0.0
 40
28.8
100
AcDbArc
 50
270.0
 51
90.0
  0
LINE
  5
1E5
100
AcDbEntity
  8
TA900_ISI_GW_B_D
  6
CONTINUOUS
 62
         7
100
AcDbLine
 10
256.5473146025
 20
271.0337955176
 30
0.0
 11
279.7439696899
 21
271.0337955176
 31
0.0
  0
ARC
  5
1E6
100
AcDbEntity
  8
TA900_ISI_GW_B_D
  6
CONTINUOUS
 62
         7
100
AcDbCircle
 10
18.29838928
 20
238.8565637385
 30
0.0
 40
238.1633886186
100
AcDbArc
 50
3.3808290825
 51
8.6807953991
  0
ARC
  5
1E7
100
AcDbEntity
  8
TA900_ISI_GW_B_D
  6
CONTINUOUS
 62
         7
100
AcDbCircle
 10
22.173595982
 20
245.2348329458
 30
0.0
 40
234.2758922321
100
AcDbArc
 50
351.2671126303
 51
356.648837063
  0
SPLINE
  5
1E8
100
AcDbEntity
  8
TA900_ISI_GW_B_D
  6
CONTINUOUS
 62
         7
100
AcDbSpline
210
0.0
220
0.0
230
1.0
 70
         8
 71
         3
 72
        20
 73
        16
 74
         0
 42
0.0
 43
0.0
 40
0.0
 40
0.0
 40
0.0
 40
0.0
 40
0.2500000000000001
 40
0.2500000000000001
 40
0.375
 40
0.375
 40
0.5
 40
0.5
 40
0.6249999999999999
 40
0.6249999999999999
 40
0.7499999999999999
 40
0.7499999999999999
 40
0.875
 40
0.875
 40
1.0
 40
1.0
 40
1.0
 40
1.0
 10
253.73350468186806
 20
209.66514973064707
 30
0.0
 10
253.65701273630265
 20
209.14374612460222
 30
0.0
 10
253.5989511022041
 20
208.6461743547878
 30
0.0
 10
253.53885788518133
 20
207.93624540008165
 30
0.0
 10
253.52382178115502
 20
207.71012233496299
 30
0.0
 10
253.50377855607746
 20
207.28465318751367
 30
0.0
 10
253.49867886518206
 20
207.08422493096407
 30
0.0
 10
253.49859394797218
 20
206.70874506220753
 30
0.0
 10
253.50369623919812
 20
206.53575698062292
 30
0.0
 10
253.52368086963079
 20
206.2272206862809
 30
0.0
 10
253.53855484627152
 20
206.09019578456221
 30
0.0
 10
253.57831404078775
 20
205.85116047474438
 30
0.0
 10
253.60322006087233
 20
205.74995872608903
 30
0.0
 10
253.66161816673772
 20
205.58929759500535
 30
0.0
 10
253.69525647687647
 20
205.5288061769613
 30
0.0
 10
253.73350468186806
 20
205.48846703833937
 30
0.0
  0
SPLINE
  5
1E9
100
AcDbEntity
  8
TA900_ISI_GW_B_D
  6
CONTINUOUS
 62
         7
100
AcDbSpline
210
0.0
220
0.0
230
1.0
 70
         8
 71
         3
 72
        20
 73
        16
 74
         0
 42
0.0
 43
0.0
 40
0.0
 40
0.0
 40
0.0
 40
0.0
 40
0.2499999999999977
 40
0.2499999999999977
 40
0.3749999999999981
 40
0.3749999999999981
 40
0.4999999999999985
 40
0.4999999999999985
 40
0.6249999999999988
 40
0.6249999999999988
 40
0.7499999999999991
 40
0.7499999999999991
 40
0.8749999999999996
 40
0.8749999999999996
 40
1.0
 40
1.0
 40
1.0
 40
1.0
 10
253.73350468186806
 20
278.97912399691069
 30
0.0
 10
253.6570127363027
 20
278.89845042814312
 30
0.0
 10
253.5989511022041
 20
278.73903014195133
 30
0.0
 10
253.53885788518133
 20
278.37994066919936
 30
0.0
 10
253.52382178115502
 20
278.24184947836301
 30
0.0
 10
253.50377855607746
 20
277.93379355018999
 30
0.0
 10
253.49867886518206
 20
277.76328935222034
 30
0.0
 10
253.49859394797218
 20
277.38830749242362
 30
0.0
 10
253.50369623919806
 20
277.18538004675872
 30
0.0
 10
253.52368086963079
 20
276.75977280374087
 30
0.0
 10
253.53855484627152
 20
276.53566427413381
 30
0.0
 10
253.57831404078775
 20
276.06449676244182
 30
0.0
 10
253.60322006087233
 20
275.81813488495271
 30
0.0
 10
253.66161816673772
 20
275.31841127304767
 30
0.0
 10
253.69525647687652
 20
275.06315832336799
 30
0.0
 10
253.73350468186806
 20
274.80244130460301
 30
0.0
  0
ARC
  5
1EA
100
AcDbEntity
  8
TA900_ISI_GW_B_D
  6
CONTINUOUS
 62
         7
100
AcDbCircle
 10
276.974371509
 20
257.1291494636
 30
0.0
 40
31.8992049741
100
AcDbArc
 50
130.227374494
 51
136.7668110506
  0
LINE
  5
1EB
100
AcDbEntity
  8
TA900_ISI_GW_B_D
  6
CONTINUOUS
 62
         7
100
AcDbLine
 10
256.5473146025
 20
213.4337955176
 30
0.0
 11
279.7439696899
 21
213.4337955176
 31
0.0
  0
LINE
  5
1EC
100
AcDbEntity
  8
TA900_ISI_GW_B_D
  6
CONTINUOUS
 62
         7
100
AcDbLine
 10
246.4939696899
 20
205.4884670383
 30
0.0
 11
246.4939696899
 21
202.9837955176
 31
0.0
  0
LINE
  5
1ED
100
AcDbEntity
  8
TA900_ISI_GW_B_D
  6
CONTINUOUS
 62
         7
100
AcDbLine
 10
246.4939696899
 20
278.9791239969
 30
0.0
 11
246.4939696899
 21
281.4837955176
 31
0.0
  0
LINE
  5
1EE
100
AcDbEntity
  8
TA900_ISI_GW_B_D
  6
CONTINUOUS
 62
         7
100
AcDbLine
 10
246.4939696899
 20
209.6651497306
 30
0.0
 11
246.4939696899
 21
205.4884670383
 31
0.0
  0
LINE
  5
1EF
100
AcDbEntity
  8
TA900_ISI_GW_B_D
  6
CONTINUOUS
 62
         7
100
AcDbLine
 10
246.4939696899
 20
278.9791239969
 30
0.0
 11
246.4939696899
 21
274.8024413046
 31
0.0
  0
LINE
  5
1F0
100
AcDbEntity
  8
TA900_ISI_GW_B_D
  6
CONTINUOUS
 62
         7
100
AcDbLine
 10
246.4939696899
 20
274.8024413046
 30
0.0
 11
246.4939696899
 21
209.6651497306
 31
0.0
  0
LINE
  5
1F1
100
AcDbEntity
  8
TA900_ISI_GW_B_D
  6
CONTINUOUS
 62
         7
100
AcDbLine
 10
241.2439696899
 20
222.1310181684
 30
0.0
 11
235.2439696899
 21
222.1310181684
 31
0.0
  0
LINE
  5
1F2
100
AcDbEntity
  8
TA900_ISI_GW_B_D
  6
CONTINUOUS
 62
         7
100
AcDbLine
 10
235.2439696899
 20
266.3337955176
 30
0.0
 11
235.2439696899
 21
262.3365728669
 31
0.0
  0
LINE
  5
1F3
100
AcDbEntity
  8
TA900_ISI_GW_B_D
  6
CONTINUOUS
 62
         7
100
AcDbLine
 10
235.2439696899
 20
262.3365728669
 30
0.0
 11
235.2439696899
 21
222.1310181684
 31
0.0
  0
LINE
  5
1F4
100
AcDbEntity
  8
TA900_ISI_GW_B_D
  6
CONTINUOUS
 62
         7
100
AcDbLine
 10
235.2439696899
 20
262.3365728669
 30
0.0
 11
241.2439696899
 21
262.3365728669
 31
0.0
  0
LINE
  5
1F5
100
AcDbEntity
  8
TA900_ISI_GW_B_D
  6
CONTINUOUS
 62
         7
100
AcDbLine
 10
235.2439696899
 20
222.1310181684
 30
0.0
 11
235.2439696899
 21
218.1337955176
 31
0.0
  0
LINE
  5
1F6
100
AcDbEntity
  8
TA900_ISI_GW_B_D
  6
CONTINUOUS
 62
         7
100
AcDbLine
 10
233.2439696899
 20
266.3337955176
 30
0.0
 11
233.2439696899
 21
278.3337955176
 31
0.0
  0
LINE
  5
1F7
100
AcDbEntity
  8
TA900_ISI_GW_B_D
  6
CONTINUOUS
 62
         7
100
AcDbLine
 10
233.2439696899
 20
206.1337955176
 30
0.0
 11
233.2439696899
 21
218.1337955176
 31
0.0
  0
LINE
  5
1F8
100
AcDbEntity
  8
TA900_ISI_GW_B_D
  6
CONTINUOUS
 62
         7
100
AcDbLine
 10
241.2439696899
 20
218.1337955176
 30
0.0
 11
233.2439696899
 21
218.1337955176
 31
0.0
  0
LINE
  5
1F9
100
AcDbEntity
  8
TA900_ISI_GW_B_D
  6
CONTINUOUS
 62
         7
100
AcDbLine
 10
241.2439696899
 20
278.3337955176
 30
0.0
 11
233.2439696899
 21
278.3337955176
 31
0.0
  0
LINE
  5
1FA
100
AcDbEntity
  8
TA900_ISI_GW_B_D
  6
CONTINUOUS
 62
         7
100
AcDbLine
 10
223.7439696899
 20
248.2337955176
 30
0.0
 11
222.7439696899
 21
248.2337955176
 31
0.0
  0
LINE
  5
1FB
100
AcDbEntity
  8
TA900_ISI_GW_B_D
  6
CONTINUOUS
 62
         7
100
AcDbLine
 10
235.2439696899
 20
264.2337955176
 30
0.0
 11
223.7439696899
 21
264.2337955176
 31
0.0
  0
LINE
  5
1FC
100
AcDbEntity
  8
TA900_ISI_GW_B_D
  6
CONTINUOUS
 62
         7
100
AcDbLine
 10
272.2439696899
 20
271.3337955176
 30
0.0
 11
272.2439696899
 21
271.0337955176
 31
0.0
  0
LINE
  5
1FD
100
AcDbEntity
  8
TA900_ISI_GW_B_D
  6
CONTINUOUS
 62
         7
100
AcDbLine
 10
266.4504281335
 20
271.3337955176
 30
0.0
 11
266.4504281335
 21
271.0337955176
 31
0.0
  0
LINE
  5
1FE
100
AcDbEntity
  8
TA900_ISI_GW_B_D
  6
CONTINUOUS
 62
         7
100
AcDbLine
 10
264.2439696899
 20
271.3337955176
 30
0.0
 11
264.2439696899
 21
271.0337955176
 31
0.0
  0
LINE
  5
1FF
100
AcDbEntity
  8
TA900_ISI_GW_B_D
  6
CONTINUOUS
 62
         7
100
AcDbLine
 10
241.2439696899
 20
202.9837955176
 30
0.0
 11
246.2439696899
 21
202.9837955176
 31
0.0
  0
LINE
  5
200
100
AcDbEntity
  8
TA900_ISI_GW_B_D
  6
CONTINUOUS
 62
         7
100
AcDbLine
 10
246.2439696899
 20
281.4837955176
 30
0.0
 11
241.2439696899
 21
281.4837955176
 31
0.0
  0
LINE
  5
201
100
AcDbEntity
  8
TA900_ISI_GW_B_D
  6
CONTINUOUS
 62
         7
100
AcDbLine
 10
272.2439696899
 20
271.3337955176
 30
0.0
 11
266.4504281335
 21
271.3337955176
 31
0.0
  0
LINE
  5
202
100
AcDbEntity
  8
TA900_ISI_GW_B_D
  6
CONTINUOUS
 62
         7
100
AcDbLine
 10
266.4504281335
 20
271.3337955176
 30
0.0
 11
264.2439696899
 21
271.3337955176
 31
0.0
  0
LINE
  5
203
100
AcDbEntity
  8
TA900_ISI_GW_B_D
  6
CONTINUOUS
 62
         7
100
AcDbLine
 10
246.2439696899
 20
203.2337955176
 30
0.0
 11
246.4939696899
 21
202.9837955176
 31
0.0
  0
LINE
  5
204
100
AcDbEntity
  8
TA900_ISI_GW_B_D
  6
CONTINUOUS
 62
         7
100
AcDbLine
 10
246.4939696899
 20
281.4837955176
 30
0.0
 11
246.2439696899
 21
281.2337955176
 31
0.0
  0
LINE
  5
205
100
AcDbEntity
  8
TA900_ISI_GW_B_D
  6
CONTINUOUS
 62
         7
100
AcDbLine
 10
256.3731476274
 20
202.9837955176
 30
0.0
 11
259.1732166883
 21
213.4337955176
 31
0.0
  0
LINE
  5
206
100
AcDbEntity
  8
TA900_ISI_GW_B_D
  6
CONTINUOUS
 62
         7
100
AcDbLine
 10
246.2439696899
 20
281.4837955176
 30
0.0
 11
246.2439696899
 21
278.9791239969
 31
0.0
  0
LINE
  5
207
100
AcDbEntity
  8
TA900_ISI_GW_B_D
  6
CONTINUOUS
 62
         7
100
AcDbLine
 10
241.2439696899
 20
278.9791239969
 30
0.0
 11
241.2439696899
 21
274.8024413046
 31
0.0
  0
LINE
  5
208
100
AcDbEntity
  8
TA900_ISI_GW_B_D
  6
CONTINUOUS
 62
         7
100
AcDbLine
 10
241.2439696899
 20
274.8024413046
 30
0.0
 11
241.2439696899
 21
209.6651497306
 31
0.0
  0
LINE
  5
209
100
AcDbEntity
  8
TA900_ISI_GW_B_D
  6
CONTINUOUS
 62
         7
100
AcDbLine
 10
307.6114831494
 20
242.2337955176
 30
0.0
 11
293.1777264196
 21
267.2337955176
 31
0.0
  0
LINE
  5
20A
100
AcDbEntity
  8
TA900_ISI_GW_B_D
  6
CONTINUOUS
 62
         7
100
AcDbLine
 10
293.1777264196
 20
267.2337955176
 30
0.0
 11
264.3102129601
 21
267.2337955176
 31
0.0
  0
LINE
  5
20B
100
AcDbEntity
  8
TA900_ISI_GW_B_D
  6
CONTINUOUS
 62
         7
100
AcDbLine
 10
264.3102129601
 20
267.2337955176
 30
0.0
 11
249.8764562304
 21
242.2337955176
 31
0.0
  0
LINE
  5
20C
100
AcDbEntity
  8
TA900_ISI_GW_B_D
  6
CONTINUOUS
 62
         7
100
AcDbLine
 10
249.8764562304
 20
242.2337955176
 30
0.0
 11
264.3102129601
 21
217.2337955176
 31
0.0
  0
LINE
  5
20D
100
AcDbEntity
  8
TA900_ISI_GW_B_D
  6
CONTINUOUS
 62
         7
100
AcDbLine
 10
264.3102129601
 20
217.2337955176
 30
0.0
 11
293.1777264196
 21
217.2337955176
 31
0.0
  0
LINE
  5
20E
100
AcDbEntity
  8
TA900_ISI_GW_B_D
  6
CONTINUOUS
 62
         7
100
AcDbLine
 10
233.2439696899
 20
206.1337955176
 30
0.0
 11
241.2439696899
 21
206.1337955176
 31
0.0
  0
LINE
  5
20F
100
AcDbEntity
  8
TA900_ISI_GW_B_D
  6
CONTINUOUS
 62
         7
100
AcDbLine
 10
233.2439696899
 20
266.3337955176
 30
0.0
 11
241.2439696899
 21
266.3337955176
 31
0.0
  0
LINE
  5
210
100
AcDbEntity
  8
TA900_ISI_GW_B_D
  6
CONTINUOUS
 62
         7
100
AcDbLine
 10
222.7439696899
 20
236.2337955176
 30
0.0
 11
223.7439696899
 21
236.2337955176
 31
0.0
  0
LINE
  5
211
100
AcDbEntity
  8
TA900_ISI_GW_B_D
  6
CONTINUOUS
 62
         7
100
AcDbLine
 10
223.7439696899
 20
220.2337955176
 30
0.0
 11
235.2439696899
 21
220.2337955176
 31
0.0
  0
SPLINE
  5
212
100
AcDbEntity
  8
TA900_ISI_GW_B_D
  6
CONTINUOUS
 62
         7
100
AcDbSpline
210
0.0
220
0.0
230
1.0
 70
         8
 71
         3
 72
        22
 73
        18
 74
         0
 42
0.0
 43
0.0
 40
0.0
 40
0.0
 40
0.0
 40
0.0
 40
0.125
 40
0.125
 40
0.25
 40
0.25
 40
0.375
 40
0.375
 40
0.5
 40
0.5
 40
0.625
 40
0.625
 40
0.75
 40
0.75
 40
0.875
 40
0.875
 40
1.0
 40
1.0
 40
1.0
 40
1.0
 10
176.9305031693581
 20
271.13524968275738
 30
0.0
 10
177.28089889244384
 20
270.57335619847669
 30
0.0
 10
177.61721715138958
 20
270.20121104492716
 30
0.0
 10
178.25547435586415
 20
269.83558379560918
 30
0.0
 10
178.5488643615098
 20
269.8513310219891
 30
0.0
 10
179.04820563505655
 20
270.28616105944053
 30
0.0
 10
179.25426994813679
 20
270.71043693930295
 30
0.0
 10
179.53379305145535
 20
271.92848601578191
 30
0.0
 10
179.60938198650501
 20
272.7386677138561
 30
0.0
 10
179.61060048912435
 20
274.63737782233738
 30
0.0
 10
179.53622727426955
 20
275.7525158231025
 30
0.0
 10
179.25843771751158
 20
278.13260430242718
 30
0.0
 10
179.0520893186787
 20
279.4290074116102
 30
0.0
 10
178.55459694764841
 20
282.03793839291291
 30
0.0
 10
178.25742026719948
 20
283.38494124513431
 30
0.0
 10
177.62382936364713
 20
285.97557339035467
 30
0.0
 10
177.28097060896656
 20
287.2481575715251
 30
0.0
 10
176.9305031693581
 20
288.43937902374205
 30
0.0
  0
ARC
  5
213
100
AcDbEntity
  8
TA900_ISI_GW_B_D
  6
CONTINUOUS
 62
         7
100
AcDbCircle
 10
150.4787235077
 20
242.2337955176
 30
0.0
 40
29.1446923709
100
AcDbArc
 50
335.1760343823
 51
24.8239656177
  0
LINE
  5
214
100
AcDbEntity
  8
TA900_ISI_GW_B_D
  6
CONTINUOUS
 62
         7
100
AcDbLine
 10
176.9305031694
 20
254.4696627172
 30
0.0
 11
157.3128131689
 21
254.4696627172
 31
0.0
  0
LINE
  5
215
100
AcDbEntity
  8
TA900_ISI_GW_B_D
  6
CONTINUOUS
 62
         7
100
AcDbLine
 10
157.3128131689
 20
229.9979283181
 30
0.0
 11
176.9305031694
 21
229.9979283181
 31
0.0
  0
LINE
  5
216
100
AcDbEntity
  8
TA900_ISI_GW_B_D
  6
CONTINUOUS
 62
         7
100
AcDbLine
 10
176.9305031694
 20
189.1250998655
 30
0.0
 11
157.3128131689
 21
189.1250998655
 31
0.0
  0
LINE
  5
217
100
AcDbEntity
  8
TA900_ISI_GW_B_D
  6
CONTINUOUS
 62
         7
100
AcDbLine
 10
246.4939696899
 20
202.9837955176
 30
0.0
 11
256.3731476274
 21
202.9837955176
 31
0.0
  0
LINE
  5
218
100
AcDbEntity
  8
TA900_ISI_GW_B_D
  6
CONTINUOUS
 62
         7
100
AcDbLine
 10
256.3731476274
 20
281.4837955176
 30
0.0
 11
246.4939696899
 21
281.4837955176
 31
0.0
  0
SPLINE
  5
219
100
AcDbEntity
  8
TA900_ISI_GW_B_D
  6
CONTINUOUS
 62
         7
100
AcDbSpline
210
0.0
220
0.0
230
1.0
 70
         8
 71
         3
 72
        22
 73
        18
 74
         0
 42
0.0
 43
0.0
 40
0.0
 40
0.0
 40
0.0
 40
0.0
 40
0.1250000000000002
 40
0.1250000000000002
 40
0.2500000000000004
 40
0.2500000000000004
 40
0.3750000000000007
 40
0.3750000000000007
 40
0.5000000000000009
 40
0.5000000000000009
 40
0.6250000000000007
 40
0.6250000000000007
 40
0.7500000000000004
 40
0.7500000000000004
 40
0.8750000000000002
 40
0.8750000000000002
 40
1.0
 40
1.0
 40
1.0
 40
1.0
 10
176.9305031693581
 20
196.028212011508
 30
0.0
 10
177.28089889244382
 20
197.21918970281951
 30
0.0
 10
177.61721715138958
 20
198.4661638553257
 30
0.0
 10
178.25547435586415
 20
201.0735268021709
 30
0.0
 10
178.5488643615098
 20
202.40229467643172
 30
0.0
 10
179.04820563505652
 20
205.01556396653464
 30
0.0
 10
179.25426994813679
 20
206.30659274798126
 30
0.0
 10
179.53379305145535
 20
208.68707502913441
 30
0.0
 10
179.60938198650501
 20
209.80365986006066
 30
0.0
 10
179.61060048912438
 20
211.70734712529915
 30
0.0
 10
179.53622727426955
 20
212.52106893970614
 30
0.0
 10
179.25843771751161
 20
213.74624751883314
 30
0.0
 10
179.05208931867872
 20
214.17493970952589
 30
0.0
 10
178.55459694764841
 20
214.61431692612993
 30
0.0
 10
178.25742026719951
 20
214.63148075831344
 30
0.0
 10
177.62382936364713
 20
214.2717870022941
 30
0.0
 10
177.28097060896658
 20
213.89434984116468
 30
0.0
 10
176.9305031693581
 20
213.33234135249268
 30
0.0
  0
ARC
  5
21A
100
AcDbEntity
  8
TA900_ISI_GW_B_D
  6
CONTINUOUS
 62
         7
100
AcDbCircle
 10
329.0487504675
 20
146.4990196075
 30
0.0
 40
157.9776689257
100
AcDbArc
 50
161.0758253153
 51
164.3462384006
  0
LINE
  5
21B
100
AcDbEntity
  8
TA900_ISI_GW_B_D
  6
CONTINUOUS
 62
         7
100
AcDbLine
 10
176.9305031694
 20
295.3424911698
 30
0.0
 11
176.9305031694
 21
288.4393790237
 31
0.0
  0
LINE
  5
21C
100
AcDbEntity
  8
TA900_ISI_GW_B_D
  6
CONTINUOUS
 62
         7
100
AcDbLine
 10
179.7439696899
 20
286.2337955176
 30
0.0
 11
179.7439696899
 21
198.2337955176
 31
0.0
  0
LINE
  5
21D
100
AcDbEntity
  8
TA900_ISI_GW_B_D
  6
CONTINUOUS
 62
         7
100
AcDbLine
 10
184.7439696899
 20
265.2337955176
 30
0.0
 11
184.7439696899
 21
219.2337955176
 31
0.0
  0
LINE
  5
21E
100
AcDbEntity
  8
TA900_ISI_GW_B_D
  6
CONTINUOUS
 62
         7
100
AcDbLine
 10
176.9305031694
 20
271.1352496828
 30
0.0
 11
176.9305031694
 21
254.4696627172
 31
0.0
  0
LINE
  5
21F
100
AcDbEntity
  8
TA900_ISI_GW_B_D
  6
CONTINUOUS
 62
         7
100
AcDbLine
 10
176.9305031694
 20
229.9979283181
 30
0.0
 11
176.9305031694
 21
213.3323413525
 31
0.0
  0
LINE
  5
220
100
AcDbEntity
  8
TA900_ISI_GW_B_D
  6
CONTINUOUS
 62
         7
100
AcDbLine
 10
176.9305031694
 20
196.0282120115
 30
0.0
 11
176.9305031694
 21
189.1250998655
 31
0.0
  0
LINE
  5
221
100
AcDbEntity
  8
TA900_ISI_GW_B_D
  6
CONTINUOUS
 62
         7
100
AcDbLine
 10
259.1732166883
 20
271.0337955176
 30
0.0
 11
256.3731476274
 21
281.4837955176
 31
0.0
  0
LINE
  5
222
100
AcDbEntity
  8
TA900_ISI_GW_B_D
  6
CONTINUOUS
 62
         7
100
AcDbLine
 10
157.3128131689
 20
196.0282120115
 30
0.0
 11
157.3128131689
 21
189.1250998655
 31
0.0
  0
LINE
  5
223
100
AcDbEntity
  8
TA900_ISI_GW_B_D
  6
CONTINUOUS
 62
         7
100
AcDbLine
 10
176.9305031694
 20
213.3323413525
 30
0.0
 11
157.3128131689
 21
213.3323413525
 31
0.0
  0
LINE
  5
224
100
AcDbEntity
  8
TA900_ISI_GW_B_D
  6
CONTINUOUS
 62
         7
100
AcDbLine
 10
157.3128131689
 20
229.9979283181
 30
0.0
 11
157.3128131689
 21
213.3323413525
 31
0.0
  0
LINE
  5
225
100
AcDbEntity
  8
TA900_ISI_GW_B_D
  6
CONTINUOUS
 62
         7
100
AcDbLine
 10
157.3128131689
 20
196.0282120115
 30
0.0
 11
176.9305031694
 21
196.0282120115
 31
0.0
  0
SPLINE
  5
226
100
AcDbEntity
  8
TA900_ISI_GW_B_D
  6
CONTINUOUS
 62
         7
100
AcDbSpline
210
0.0
220
0.0
230
1.0
 70
         8
 71
         3
 72
        20
 73
        16
 74
         0
 42
0.0
 43
0.0
 40
0.0
 40
0.0
 40
0.0
 40
0.0
 40
0.1249999999999998
 40
0.1249999999999998
 40
0.2499999999999996
 40
0.2499999999999996
 40
0.5
 40
0.5
 40
0.625
 40
0.625
 40
0.75
 40
0.75
 40
0.875
 40
0.875
 40
1.0
 40
1.0
 40
1.0
 40
1.0
 10
157.31281316890983
 20
213.33234135249268
 30
0.0
 10
156.9442484677075
 20
213.89150673736626
 30
0.0
 10
156.60361013030428
 20
214.2643734896956
 30
0.0
 10
155.97817178563704
 20
214.63178568435509
 30
0.0
 10
155.70242150715751
 20
214.6169219238835
 30
0.0
 10
155.01679507286087
 20
213.96403194421012
 30
0.0
 10
154.75838506193878
 20
212.67638182514622
 30
0.0
 10
154.75695914632564
 20
209.82965603411097
 30
0.0
 10
154.81967494239686
 20
208.7159374099792
 30
0.0
 10
155.06068907411702
 20
206.33574774378619
 30
0.0
 10
155.24215674228844
 20
205.03722370989794
 30
0.0
 10
155.69706165532023
 20
202.42425652792301
 30
0.0
 10
155.9765468629453
 20
201.07448337390034
 30
0.0
 10
156.59700753410598
 20
198.48368802841699
 30
0.0
 10
156.944172682985
 20
197.21365098159998
 30
0.0
 10
157.31281316890977
 20
196.028212011508
 30
0.0
  0
LINE
  5
227
100
AcDbEntity
  8
TA900_ISI_GW_B_D
  6
CONTINUOUS
 62
         7
100
AcDbLine
 10
157.3128131689
 20
271.1352496828
 30
0.0
 11
176.9305031694
 21
271.1352496828
 31
0.0
  0
LINE
  5
228
100
AcDbEntity
  8
TA900_ISI_GW_B_D
  6
CONTINUOUS
 62
         7
100
AcDbLine
 10
223.7439696899
 20
264.2337955176
 30
0.0
 11
223.7439696899
 21
220.2337955176
 31
0.0
  0
LINE
  5
229
100
AcDbEntity
  8
TA900_ISI_GW_B_D
  6
CONTINUOUS
 62
         7
100
AcDbLine
 10
246.2439696899
 20
278.9791239969
 30
0.0
 11
246.2439696899
 21
274.8024413046
 31
0.0
  0
LINE
  5
22A
100
AcDbEntity
  8
TA900_ISI_GW_B_D
  6
CONTINUOUS
 62
         7
100
AcDbLine
 10
246.2439696899
 20
202.9837955176
 30
0.0
 11
246.2439696899
 21
205.4884670383
 31
0.0
  0
LINE
  5
22B
100
AcDbEntity
  8
TA900_ISI_GW_B_D
  6
CONTINUOUS
 62
         7
100
AcDbLine
 10
246.2439696899
 20
209.6651497306
 30
0.0
 11
246.2439696899
 21
205.4884670383
 31
0.0
  0
LINE
  5
22C
100
AcDbEntity
  8
TA900_ISI_GW_B_D
  6
CONTINUOUS
 62
         7
100
AcDbLine
 10
246.2439696899
 20
274.8024413046
 30
0.0
 11
246.2439696899
 21
209.6651497306
 31
0.0
  0
LINE
  5
22D
100
AcDbEntity
  8
TA900_ISI_GW_B_D
  6
CONTINUOUS
 62
         7
100
AcDbLine
 10
241.2439696899
 20
202.9837955176
 30
0.0
 11
241.2439696899
 21
205.4884670383
 31
0.0
  0
LINE
  5
22E
100
AcDbEntity
  8
TA900_ISI_GW_B_D
  6
CONTINUOUS
 62
         7
100
AcDbLine
 10
241.2439696899
 20
281.4837955176
 30
0.0
 11
241.2439696899
 21
278.9791239969
 31
0.0
  0
LINE
  5
22F
100
AcDbEntity
  8
TA900_ISI_GW_B_D
  6
CONTINUOUS
 62
         7
100
AcDbLine
 10
241.2439696899
 20
209.6651497306
 30
0.0
 11
241.2439696899
 21
205.4884670383
 31
0.0
  0
LINE
  5
230
100
AcDbEntity
  8
TA900_ISI_GW_B_D
  6
CONTINUOUS
 62
         7
100
AcDbLine
 10
256.5473146025
 20
230.6732156508
 30
0.0
 11
256.5473146025
 21
213.4337955176
 31
0.0
  0
LINE
  5
231
100
AcDbEntity
  8
TA900_ISI_GW_B_D
  6
CONTINUOUS
 62
         7
100
AcDbLine
 10
256.5473146025
 20
271.0337955176
 30
0.0
 11
256.5473146025
 21
253.7995590069
 31
0.0
  0
ARC
  5
232
100
AcDbEntity
  8
TA900_ISI_GW_B_D
  6
CONTINUOUS
 62
         7
100
AcDbCircle
 10
276.9743715133
 20
227.3384415669
 30
0.0
 40
31.8992049741
100
AcDbArc
 50
223.2331889379
 51
229.7726254947
  0
LINE
  5
233
100
AcDbEntity
  8
TA900_ISI_GW_B_D
  6
CONTINUOUS
 62
         7
100
AcDbLine
 10
222.7439696899
 20
265.2337955176
 30
0.0
 11
184.7439696899
 21
265.2337955176
 31
0.0
  0
LINE
  5
234
100
AcDbEntity
  8
TA900_ISI_GW_B_D
  6
CONTINUOUS
 62
         7
100
AcDbLine
 10
179.7439696899
 20
210.5735414798
 30
0.0
 11
184.7439696899
 21
219.2337955176
 31
0.0
  0
ARC
  5
235
100
AcDbEntity
  8
TA900_ISI_GW_B_D
  6
CONTINUOUS
 62
         7
100
AcDbCircle
 10
349.7439696899
 20
242.2337955176
 30
0.0
 40
200.0
100
AcDbArc
 50
167.1400630494
 51
180.0
  0
LINE
  5
236
100
AcDbEntity
  8
TA900_ISI_GW_B_D
  6
CONTINUOUS
 62
         7
100
AcDbLine
 10
179.6055434746
 20
197.7171818491
 30
0.0
 11
179.7439696899
 21
198.2337955176
 31
0.0
  0
LINE
  5
237
100
AcDbEntity
  8
TA900_ISI_GW_B_D
  6
CONTINUOUS
 62
         7
100
AcDbLine
 10
184.7439696899
 20
219.2337955176
 30
0.0
 11
222.7439696899
 21
219.2337955176
 31
0.0
  0
LINE
  5
238
100
AcDbEntity
  8
TA900_ISI_GW_B_D
  6
CONTINUOUS
 62
         7
100
AcDbLine
 10
184.7439696899
 20
265.2337955176
 30
0.0
 11
179.7439696899
 21
273.8940495555
 31
0.0
  0
ARC
  5
239
100
AcDbEntity
  8
TA900_ISI_GW_B_D
  6
CONTINUOUS
 62
         7
100
AcDbCircle
 10
349.7439696899
 20
242.2337955176
 30
0.0
 40
200.0
100
AcDbArc
 50
180.0
 51
192.8599476071
  0
LINE
  5
23A
100
AcDbEntity
  8
TA900_ISI_GW_B_D
  6
CONTINUOUS
 62
         7
100
AcDbLine
 10
179.7439696899
 20
286.2337955176
 30
0.0
 11
179.6055434746
 21
286.7504091862
 31
0.0
  0
ENDBLK
  5
23B
100
AcDbEntity
  8
TA900_ISI_GW_B_D
  6
CONTINUOUS
 62
         7
100
AcDbBlockEnd
  0
ENDSEC
  0
SECTION
  2
ENTITIES
  0
INSERT
  5
3A
102
{ACAD_XDICTIONARY
360
3B
102
}
100
AcDbEntity
  8
0
 62
         0
 48
0.0
100
AcDbBlockReference
  2
SE1
 10
0.0
 20
0.0
 30
0.0
  0
INSERT
  5
3E
100
AcDbEntity
  8
0
 62
         0
 48
0.0
100
AcDbBlockReference
  2
SE0
 10
0.0
 20
0.0
 30
0.0
  0
INSERT
  5
41
102
{ACAD_XDICTIONARY
360
42
102
}
100
AcDbEntity
  8
0
 62
         0
 48
0.0
100
AcDbBlockReference
  2
SE3
 10
0.0
 20
0.0
 30
0.0
  0
INSERT
  5
45
100
AcDbEntity
  8
0
 62
         0
 48
0.0
100
AcDbBlockReference
  2
SE2
 10
0.0
 20
0.0
 30
0.0
  0
INSERT
  5
48
102
{ACAD_XDICTIONARY
360
49
102
}
100
AcDbEntity
  8
0
 62
         0
 48
0.0
100
AcDbBlockReference
  2
SE5
 10
0.0
 20
0.0
 30
0.0
  0
INSERT
  5
4C
100
AcDbEntity
  8
0
 62
         0
 48
0.0
100
AcDbBlockReference
  2
SE4
 10
0.0
 20
0.0
 30
0.0
  0
INSERT
  5
4F
102
{ACAD_XDICTIONARY
360
50
102
}
100
AcDbEntity
  8
0
 62
         0
 48
0.0
100
AcDbBlockReference
  2
SE7
 10
0.0
 20
0.0
 30
0.0
  0
INSERT
  5
53
100
AcDbEntity
  8
0
 62
         0
 48
0.0
100
AcDbBlockReference
  2
SE6
 10
0.0
 20
0.0
 30
0.0
  0
ENDSEC
  0
SECTION
  2
OBJECTS
  0
DICTIONARY
  5
19
100
AcDbDictionary
  3
ACAD_GROUP
350
1A
  3
ACAD_MLINESTYLE
350
1B
  3
ACDBVARIABLEDICTIONARY
350
23E
  0
DICTIONARY
  5
1A
102
{ACAD_REACTORS
330
19
102
}
100
AcDbDictionary
  0
DICTIONARY
  5
1B
102
{ACAD_REACTORS
330
19
102
}
100
AcDbDictionary
  3
STANDARD
350
1C
  0
MLINESTYLE
  5
1C
102
{ACAD_REACTORS
330
1B
102
}
100
AcDbMlineStyle
  2
Standard
 70
         0
  3

 62
         0
 51
90.0
 52
90.0
 71
         2
 49
0.5
 62
       256
  6
ByLayer
 49
-0.5
 62
       256
  6
ByLayer
  0
DICTIONARY
  5
22
102
{ACAD_REACTORS
330
19
102
}
100
AcDbDictionary
  0
DICTIONARY
  5
3B
100
AcDbDictionary
  3
ACAD_FILTER
350
3C
  0
DICTIONARY
  5
3C
100
AcDbDictionary
  3
SPATIAL
350
3D
  0
SPATIAL_FILTER
  5
3D
100
AcDbFilter
100
AcDbSpatialFilter
 70
         2
 10
-1.7390307241
 20
-1.1894795021
 10
120.9609692759
 20
170.3105204979
210
0.0
220
0.0
230
1.0
 11
0.0
 21
0.0
 31
0.0
 71
         1
 72
         0
 73
         0
 40
1.0
 40
0.0
 40
0.0
 40
0.0
 40
0.0
 40
1.0
 40
0.0
 40
0.0
 40
0.0
 40
0.0
 40
1.0
 40
0.0
 40
1.0
 40
0.0
 40
0.0
 40
0.0
 40
0.0
 40
1.0
 40
0.0
 40
0.0
 40
0.0
 40
0.0
 40
1.0
 40
0.0
  0
DICTIONARY
  5
42
100
AcDbDictionary
  3
ACAD_FILTER
350
43
  0
DICTIONARY
  5
43
100
AcDbDictionary
  3
SPATIAL
350
44
  0
SPATIAL_FILTER
  5
44
100
AcDbFilter
100
AcDbSpatialFilter
 70
         2
 10
-1.7390307241
 20
182.7750998655
 10
120.9609692759
 20
301.6924911698
210
0.0
220
0.0
230
1.0
 11
0.0
 21
0.0
 31
0.0
 71
         1
 72
         0
 73
         0
 40
1.0
 40
0.0
 40
0.0
 40
0.0
 40
0.0
 40
1.0
 40
0.0
 40
0.0
 40
0.0
 40
0.0
 40
1.0
 40
0.0
 40
1.0
 40
0.0
 40
0.0
 40
0.0
 40
0.0
 40
1.0
 40
0.0
 40
0.0
 40
0.0
 40
0.0
 40
1.0
 40
0.0
  0
DICTIONARY
  5
49
100
AcDbDictionary
  3
ACAD_FILTER
350
4A
  0
DICTIONARY
  5
4A
100
AcDbDictionary
  3
SPATIAL
350
4B
  0
SPATIAL_FILTER
  5
4B
100
AcDbFilter
100
AcDbSpatialFilter
 70
         2
 10
161.3289168233
 20
-1.1894795021
 10
284.0289168233
 20
170.3105204979
210
0.0
220
0.0
230
1.0
 11
0.0
 21
0.0
 31
0.0
 71
         1
 72
         0
 73
         0
 40
1.0
 40
0.0
 40
0.0
 40
0.0
 40
0.0
 40
1.0
 40
0.0
 40
0.0
 40
0.0
 40
0.0
 40
1.0
 40
0.0
 40
1.0
 40
0.0
 40
0.0
 40
0.0
 40
0.0
 40
1.0
 40
0.0
 40
0.0
 40
0.0
 40
0.0
 40
1.0
 40
0.0
  0
DICTIONARY
  5
50
100
AcDbDictionary
  3
ACAD_FILTER
350
51
  0
DICTIONARY
  5
51
100
AcDbDictionary
  3
SPATIAL
350
52
  0
SPATIAL_FILTER
  5
52
100
AcDbFilter
100
AcDbSpatialFilter
 70
         2
 10
143.3939696899
 20
182.7750998655
 10
314.8939696899
 20
301.6924911698
210
0.0
220
0.0
230
1.0
 11
0.0
 21
0.0
 31
0.0
 71
         1
 72
         0
 73
         0
 40
1.0
 40
0.0
 40
0.0
 40
0.0
 40
0.0
 40
1.0
 40
0.0
 40
0.0
 40
0.0
 40
0.0
 40
1.0
 40
0.0
 40
1.0
 40
0.0
 40
0.0
 40
0.0
 40
0.0
 40
1.0
 40
0.0
 40
0.0
 40
0.0
 40
0.0
 40
1.0
 40
0.0
  0
DICTIONARY
  5
23E
100
AcDbDictionary
  3
DIMASSOC
350
23F
  0
DICTIONARYVAR
  5
23F
100
DictionaryVariables
280
         0
  1
2
  0
ENDSEC
  0
EOF
