  0
SECTION
  2
HEADER
  9
$ACADVER
  1
AC1014
  9
$ACADMAINTVER
 70
         0
  9
$DWGCODEPAGE
  3
ANSI_1252
  9
$INSBASE
 10
0.0
 20
0.0
 30
0.0
  9
$EXTMIN
 10
0.0
 20
0.0
 30
0.0
  9
$EXTMAX
 10
420.0
 20
297.0
 30
0.0
  9
$LIMMIN
 10
0.0
 20
0.0
  9
$LIMMAX
 10
420.0
 20
297.0
  9
$ORTHOMODE
 70
         0
  9
$REGENMODE
 70
         1
  9
$FILLMODE
 70
         1
  9
$QTEXTMODE
 70
         0
  9
$MIRRTEXT
 70
         1
  9
$DRAGMODE
 70
         2
  9
$LTSCALE
 40
25.4
  9
$OSMODE
 70
         0
  9
$ATTMODE
 70
         1
  9
$TEXTSIZE
 40
0.2
  9
$TRACEWID
 40
0.05
  9
$TEXTSTYLE
  7
Standard
  9
$CLAYER
  8
0
  9
$CELTYPE
  6
CONTINUOUS
  9
$CECOLOR
 62
       256
  9
$CELTSCALE
 40
1.0
  9
$DELOBJ
 70
         1
  9
$DISPSILH
 70
         0
  9
$DIMSCALE
 40
1.0
  9
$DIMASZ
 40
0.18
  9
$DIMEXO
 40
0.0625
  9
$DIMDLI
 40
0.38
  9
$DIMRND
 40
0.0
  9
$DIMDLE
 40
0.0
  9
$DIMEXE
 40
0.18
  9
$DIMTP
 40
0.0
  9
$DIMTM
 40
0.0
  9
$DIMTXT
 40
0.18
  9
$DIMCEN
 40
0.09
  9
$DIMTSZ
 40
0.0
  9
$DIMTOL
 70
         0
  9
$DIMLIM
 70
         0
  9
$DIMTIH
 70
         1
  9
$DIMTOH
 70
         1
  9
$DIMSE1
 70
         0
  9
$DIMSE2
 70
         0
  9
$DIMTAD
 70
         0
  9
$DIMZIN
 70
         0
  9
$DIMBLK
  1

  9
$DIMASO
 70
         1
  9
$DIMSHO
 70
         1
  9
$DIMPOST
  1

  9
$DIMAPOST
  1

  9
$DIMALT
 70
         0
  9
$DIMALTD
 70
         2
  9
$DIMALTF
 40
25.4
  9
$DIMLFAC
 40
1.0
  9
$DIMTOFL
 70
         0
  9
$DIMTVP
 40
0.0
  9
$DIMTIX
 70
         0
  9
$DIMSOXD
 70
         0
  9
$DIMSAH
 70
         0
  9
$DIMBLK1
  1

  9
$DIMBLK2
  1

  9
$DIMSTYLE
  2
Standard
  9
$DIMCLRD
 70
         0
  9
$DIMCLRE
 70
         0
  9
$DIMCLRT
 70
         0
  9
$DIMTFAC
 40
1.0
  9
$DIMGAP
 40
0.09
  9
$DIMJUST
 70
         0
  9
$DIMSD1
 70
         0
  9
$DIMSD2
 70
         0
  9
$DIMTOLJ
 70
         1
  9
$DIMTZIN
 70
         0
  9
$DIMALTZ
 70
         0
  9
$DIMALTTZ
 70
         0
  9
$DIMFIT
 70
         3
  9
$DIMUPT
 70
         0
  9
$DIMUNIT
 70
         2
  9
$DIMDEC
 70
         4
  9
$DIMTDEC
 70
         4
  9
$DIMALTU
 70
         2
  9
$DIMALTTD
 70
         2
  9
$DIMTXSTY
  7
Standard
  9
$DIMAUNIT
 70
         0
  9
$LUNITS
 70
         2
  9
$LUPREC
 70
         4
  9
$SKETCHINC
 40
0.1
  9
$FILLETRAD
 40
0.0
  9
$AUNITS
 70
         0
  9
$AUPREC
 70
         0
  9
$MENU
  1
acad
  9
$ELEVATION
 40
0.0
  9
$PELEVATION
 40
0.0
  9
$THICKNESS
 40
0.0
  9
$LIMCHECK
 70
         0
  9
$BLIPMODE
 70
         1
  9
$CHAMFERA
 40
0.0
  9
$CHAMFERB
 40
0.0
  9
$CHAMFERC
 40
0.0
  9
$CHAMFERD
 40
0.0
  9
$SKPOLY
 70
         0
  9
$TDCREATE
 40
0.000000000
  9
$TDUPDATE
 40
0.000000000
  9
$TDINDWG
 40
0.0000000000
  9
$TDUSRTIMER
 40
0.0000000000
  9
$USRTIMER
 70
         1
  9
$ANGBASE
 50
0.0
  9
$ANGDIR
 70
         0
  9
$PDMODE
 70
         0
  9
$PDSIZE
 40
0.0
  9
$PLINEWID
 40
0.0
  9
$COORDS
 70
         0
  9
$SPLFRAME
 70
         0
  9
$SPLINETYPE
 70
         6
  9
$SPLINESEGS
 70
         8
  9
$ATTDIA
 70
         0
  9
$ATTREQ
 70
         1
  9
$HANDLING
 70
         1
  9
$HANDSEED
  5
1EE
  9
$SURFTAB1
 70
         6
  9
$SURFTAB2
 70
         6
  9
$SURFTYPE
 70
         6
  9
$SURFU
 70
         6
  9
$SURFV
 70
         6
  9
$UCSNAME
  2

  9
$UCSORG
 10
0.0
 20
0.0
 30
0.0
  9
$UCSXDIR
 10
1.0
 20
0.0
 30
0.0
  9
$UCSYDIR
 10
0.0
 20
1.0
 30
0.0
  9
$PUCSNAME
  2

  9
$PUCSORG
 10
0.0
 20
0.0
 30
0.0
  9
$PUCSXDIR
 10
1.0
 20
0.0
 30
0.0
  9
$PUCSYDIR
 10
0.0
 20
1.0
 30
0.0
  9
$USERI1
 70
         0
  9
$USERI2
 70
         0
  9
$USERI3
 70
         0
  9
$USERI4
 70
         0
  9
$USERI5
 70
         0
  9
$USERR1
 40
0.0
  9
$USERR2
 40
0.0
  9
$USERR3
 40
0.0
  9
$USERR4
 40
0.0
  9
$USERR5
 40
0.0
  9
$WORLDVIEW
 70
         1
  9
$SHADEDGE
 70
         3
  9
$SHADEDIF
 70
        70
  9
$TILEMODE
 70
         1
  9
$MAXACTVP
 70
        16
  9
$PINSBASE
 10
0.0
 20
0.0
 30
0.0
  9
$PLIMCHECK
 70
         0
  9
$PEXTMIN
 10
1.0000000000E+20
 20
1.0000000000E+20
 30
1.0000000000E+20
  9
$PEXTMAX
 10
-1.0000000000E+20
 20
-1.0000000000E+20
 30
-1.0000000000E+20
  9
$PLIMMIN
 10
0.0
 20
0.0
  9
$PLIMMAX
 10
12.0
 20
9.0
  9
$UNITMODE
 70
         0
  9
$VISRETAIN
 70
         0
  9
$PLINEGEN
 70
         1
  9
$PSLTSCALE
 70
         0
  9
$TREEDEPTH
 70
      3020
  9
$PICKSTYLE
 70
         1
  9
$CMLSTYLE
  2
Standard
  9
$CMLJUST
 70
         0
  9
$CMLSCALE
 40
1.0
  9
$PROXYGRAPHICS
 70
         0
  9
$MEASUREMENT
 70
         0
  0
ENDSEC
  0
SECTION
  2
CLASSES
  0
CLASS
  1
LWPOLYLINE
  2
AcDbPolyline
  3
"AutoCAD"
 90
        0
280
         0
281
         1
  0
CLASS
  1
IMAGE
  2
AcDbRasterImage
  3
ISM
 90
      127
280
         0
281
         1
  0
CLASS
  1
OLE2FRAME
  2
AcDbOle2Frame
  3
""
 90
        0
280
         0
281
         1
  0
CLASS
  1
HATCH
  2
AcDbHatch
  3
"ACAD_SEDONA"
 90
        0
280
         0
281
         1
  0
CLASS
  1
DICTIONARYVAR
  2
AcDbDictionaryVar
  3
"AutoCAD"
 90
        0
280
         0
281
         0
  0
CLASS
  1
RASTERVARIABLES
  2
AcDbRasterVariables
  3
ISM
 90
        0
280
         0
281
         0
  0
CLASS
  1
IMAGEDEF
  2
AcDbRasterImageDef
  3
ISM
 90
        0
280
         0
281
         0
  0
CLASS
  1
IMAGEDEF_REACTOR
  2
AcDbRasterImageDefReactor
  3
ISM
 90
        1
280
         0
281
         0
  0
CLASS
  1
IDBUFFER
  2
AcDbIdBuffer
  3
"Acad"
 90
        0
280
         0
281
         0
  0
CLASS
  1
SPATIAL_FILTER
  2
AcDbSpatialFilter
  3
"Acad"
 90
        0
280
         0
281
         0
  0
CLASS
  1
XRECORD
  2
AcDbXrecord
  3
"<Built In>"
 90
        0
280
         0
281
         0
  0
CLASS
  1
SORTENTSTABLE
  2
AcDbSortentsTable
  3
"AutoCAD"
 90
        0
280
         0
281
         0
  0
CLASS
  1
LAYER_INDEX
  2
AcDbLayerIndex
  3
"Acad"
 90
        0
280
         0
281
         0
  0
CLASS
  1
SPATIAL_INDEX
  2
AcDbSpatialIndex
  3
"Acad"
 90
        0
280
         0
281
         0
  0
CLASS
  1
OBJECT_PTR
  2
CAseDLPNTableRecord
  3
"ASE-LPNTableRecord"
 90
        1
280
         0
281
         0
  0
CLASS
  1
LAYOUT
  2
AcDbLayout
  3
"AutoCAD 2000"
 90
        1
280
         0
281
         0
  0
CLASS
  1
PLOTSETTINGS
  2
AcDbPlotSettings
  3
"AutoCAD 2000"
 90
        1
280
         0
281
         0
  0
CLASS
  1
ACDBDICTIONARYWDFLT
  2
AcDbDictionaryWithDefault
  3
"AutoCAD 2000"
 90
        1
280
         0
281
         0
  0
CLASS
  1
ACDBPLACEHOLDER
  2
AcDbPlaceHolder
  3
"AutoCAD 2000"
 90
        1
280
         0
281
         0
  0
CLASS
  1
VBA_PROJECT
  2
AcDbVbaProject
  3
"acadvba"
 90
        1
280
         0
281
         0
  0
CLASS
  1
WIPEOUT
  2
AcDbWipeout
  3
WipeOut|AutoCAD Express Tool|expresstools@autodesk.com
 90
      127
280
         0
281
         1
  0
CLASS
  1
WIPEOUTVARIABLES
  2
AcDbWipeoutVariables
  3
WipeOut|AutoCAD Express Tool|expresstools@autodesk.com
 90
        0
280
         0
281
         0
  0
CLASS
  1
RTEXT
  2
RText
  3
RText|AutoCAD Express Tool|expresstools@autodesk.com
 90
        0
280
         0
281
         1
  0
CLASS
  1
ARCALIGNEDTEXT
  2
AcDbArcAlignedText
  3
ATEXT|AutoCAD Express Tool|expresstools@autodesk.com
 90
        0
280
         0
281
         1
  0
ENDSEC
  0
SECTION
  2
TABLES
  0
TABLE
  2
VPORT
  5
7
100
AcDbSymbolTable
 70
         1
  0
VPORT
  5
15
100
AcDbSymbolTableRecord
100
AcDbViewportTableRecord
  2
*ACTIVE
 70
         0
 10
0.0
 20
0.0
 11
1.0
 21
1.0
 12
210.0
 22
148.5
 13
0.0
 23
0.0
 14
1.0
 24
1.0
 15
0.0
 25
0.0
 16
0.0
 26
0.0
 36
1.0
 17
0.0
 27
0.0
 37
0.0
 40
297.0
 41
1.604229
 42
50.0
 43
0.0
 44
0.0
 50
0.0
 51
0.0
 71
         0
 72
       100
 73
         1
 74
         1
 75
         0
 76
         0
 77
         0
 78
         0
  0
ENDTAB
  0
TABLE
  2
LTYPE
  5
4
100
AcDbSymbolTable
 70
         7
  0
LTYPE
  5
11
100
AcDbSymbolTableRecord
100
AcDbLinetypeTableRecord
  2
ByBlock
 70
        64
  3

 72
        65
 73
         0
 40
0.0
  0
LTYPE
  5
12
100
AcDbSymbolTableRecord
100
AcDbLinetypeTableRecord
  2
ByLayer
 70
        64
  3

 72
        65
 73
         0
 40
0.0
  0
LTYPE
  5
13
100
AcDbSymbolTableRecord
100
AcDbLinetypeTableRecord
  2
CONTINUOUS
 70
         0
  3
Solid line
 72
        65
 73
         0
 40
0.0
  0
LTYPE
  5
28
100
AcDbSymbolTableRecord
100
AcDbLinetypeTableRecord
  2
HIDDEN2
 70
        64
  3
_ _ _ _ _ _ _ _ _ _ _ _ _ _ _ _ _ _ _ _ _ _ _ _
 72
        65
 73
         2
 40
0.1875
 49
0.125
 74
         0
 49
-0.0625
 74
         0
  0
LTYPE
  5
29
100
AcDbSymbolTableRecord
100
AcDbLinetypeTableRecord
  2
CENTER2
 70
        64
  3
___ _ ___ _ ___ _ ___ _ ___ _ ___ _ ___ _ ___ _
 72
        65
 73
         4
 40
1.125
 49
0.75
 74
         0
 49
-0.125
 74
         0
 49
0.125
 74
         0
 49
-0.125
 74
         0
  0
LTYPE
  5
2A
100
AcDbSymbolTableRecord
100
AcDbLinetypeTableRecord
  2
PHANTOM2
 70
        64
  3
___ _ _ ___ _ _ ___ _ _ ___ _ _ ___ _ _ ___ _ _
 72
        65
 73
         6
 40
1.25
 49
0.625
 74
         0
 49
-0.125
 74
         0
 49
0.125
 74
         0
 49
-0.125
 74
         0
 49
0.125
 74
         0
 49
-0.125
 74
         0
  0
LTYPE
  5
2B
100
AcDbSymbolTableRecord
100
AcDbLinetypeTableRecord
  2
DOT2
 70
        64
  3
...............................................
 72
        65
 73
         2
 40
0.125
 49
0.0
 74
         0
 49
-0.125
 74
         0
  0
ENDTAB
  0
TABLE
  2
LAYER
  5
2
100
AcDbSymbolTable
 70
         3
  0
LAYER
  5
14
100
AcDbSymbolTableRecord
100
AcDbLayerTableRecord
  2
0
 70
         0
 62
         7
  6
CONTINUOUS
  0
LAYER
  5
2D
100
AcDbSymbolTableRecord
100
AcDbLayerTableRecord
  2
DEFAULT
 70
         0
 62
         7
  6
CONTINUOUS
  0
LAYER
  5
37
100
AcDbSymbolTableRecord
100
AcDbLayerTableRecord
  2
TA900_ISI_B_DN32
 70
         0
 62
         7
  6
CONTINUOUS
  0
ENDTAB
  0
TABLE
  2
STYLE
  5
3
100
AcDbSymbolTable
 70
         1
  0
STYLE
  5
17
100
AcDbSymbolTableRecord
100
AcDbTextStyleTableRecord
  2
Standard
 70
         0
 40
0.0
 41
1.0
 50
0.0
 71
         0
 42
0.2
  3
txt
  4

  0
ENDTAB
  0
TABLE
  2
VIEW
  5
5
100
AcDbSymbolTable
 70
         0
  0
ENDTAB
  0
TABLE
  2
UCS
  5
6
100
AcDbSymbolTable
 70
         0
  0
ENDTAB
  0
TABLE
  2
APPID
  5
8
100
AcDbSymbolTable
 70
         1
  0
APPID
  5
16
100
AcDbSymbolTableRecord
100
AcDbRegAppTableRecord
  2
ACAD
 70
         0
  0
ENDTAB
  0
TABLE
  2
DIMSTYLE
  5
9
100
AcDbSymbolTable
 70
         1
  0
DIMSTYLE
105
18
100
AcDbSymbolTableRecord
100
AcDbDimStyleTableRecord
  2
Standard
 70
         0
  3

  4

  5

  6

  7

 40
1.0
 41
0.18
 42
0.0625
 43
0.38
 44
0.18
 45
0.0
 46
0.0
 47
0.0
 48
0.0
 71
         0
 72
         0
 73
         1
 74
         1
 75
         0
 76
         0
 77
         0
 78
         0
140
0.18
141
0.09
142
0.0
143
25.4
144
1.0
145
0.0
146
1.0
147
0.09
170
         0
171
         2
172
         0
173
         0
174
         0
175
         0
176
         0
177
         0
178
         0
270
         2
271
         4
272
         4
273
         2
274
         2
275
         0
280
         0
281
         0
282
         0
283
         1
284
         0
285
         0
286
         0
287
         0
288
         0
340
17
  0
ENDTAB
  0
TABLE
  2
BLOCK_RECORD
  5
1
100
AcDbSymbolTable
 70
         8
  0
BLOCK_RECORD
  5
A
100
AcDbSymbolTableRecord
100
AcDbBlockTableRecord
  2
*MODEL_SPACE
  0
BLOCK_RECORD
  5
B
100
AcDbSymbolTableRecord
100
AcDbBlockTableRecord
  2
*PAPER_SPACE
  0
BLOCK_RECORD
  5
38
100
AcDbSymbolTableRecord
100
AcDbBlockTableRecord
  2
SE0
  0
BLOCK_RECORD
  5
39
100
AcDbSymbolTableRecord
100
AcDbBlockTableRecord
  2
SE1
  0
BLOCK_RECORD
  5
3F
100
AcDbSymbolTableRecord
100
AcDbBlockTableRecord
  2
SE2
  0
BLOCK_RECORD
  5
40
100
AcDbSymbolTableRecord
100
AcDbBlockTableRecord
  2
SE3
  0
BLOCK_RECORD
  5
46
100
AcDbSymbolTableRecord
100
AcDbBlockTableRecord
  2
SE4
  0
BLOCK_RECORD
  5
47
100
AcDbSymbolTableRecord
100
AcDbBlockTableRecord
  2
SE5
  0
BLOCK_RECORD
  5
4D
100
AcDbSymbolTableRecord
100
AcDbBlockTableRecord
  2
SE6
  0
BLOCK_RECORD
  5
4E
100
AcDbSymbolTableRecord
100
AcDbBlockTableRecord
  2
SE7
  0
ENDTAB
  0
ENDSEC
  0
SECTION
  2
BLOCKS
  0
BLOCK
  5
D
100
AcDbEntity
  8
0
100
AcDbBlockBegin
  2
*MODEL_SPACE
 70
         0
 10
0.0
 20
0.0
 30
0.0
  3
*MODEL_SPACE
  1

  0
ENDBLK
  5
E
100
AcDbEntity
  8
0
100
AcDbBlockEnd
  0
BLOCK
  5
F
100
AcDbEntity
 67
         1
  8
0
100
AcDbBlockBegin
  2
*PAPER_SPACE
 70
         0
 10
0.0
 20
0.0
 30
0.0
  3
*PAPER_SPACE
  1

  0
ENDBLK
  5
10
100
AcDbEntity
 67
         1
  8
0
100
AcDbBlockEnd
  0
BLOCK
  5
D4
100
AcDbEntity
  8
0
 62
         1
 48
0.0
100
AcDbBlockBegin
  2
SE0
 70
         0
 10
0.0
 20
0.0
 30
0.0
  3
SE0
  1

  0
ENDBLK
  5
D5
100
AcDbEntity
  8
0
 62
         1
 48
0.0
100
AcDbBlockEnd
  0
BLOCK
  5
54
100
AcDbEntity
  8
0
 62
         1
 48
0.0
100
AcDbBlockBegin
  2
SE1
 70
         0
 10
0.0
 20
0.0
 30
0.0
  3
SE1
  1

  0
LINE
  5
55
100
AcDbEntity
  8
TA900_ISI_B_DN32
  6
CONTINUOUS
 62
         7
100
AcDbLine
 10
41.0283343228
 20
77.8933179692
 30
0.0
 11
37.0311116721
 21
77.8933179692
 31
0.0
  0
LINE
  5
56
100
AcDbEntity
  8
TA900_ISI_B_DN32
  6
CONTINUOUS
 62
         7
100
AcDbLine
 10
116.1311116721
 20
58.3933179692
 30
0.0
 11
114.3594816579
 21
63.2608314286
 31
0.0
  0
LINE
  5
57
100
AcDbEntity
  8
TA900_ISI_B_DN32
  6
CONTINUOUS
 62
         7
100
AcDbLine
 10
17.8811116721
 20
57.8433179692
 30
0.0
 11
15.9092980291
 21
63.2608314286
 31
0.0
  0
LINE
  5
58
100
AcDbEntity
  8
TA900_ISI_B_DN32
  6
CONTINUOUS
 62
         7
100
AcDbLine
 10
25.0311116721
 20
79.8933179692
 30
0.0
 11
25.0311116721
 21
71.8933179692
 31
0.0
  0
LINE
  5
59
100
AcDbEntity
  8
TA900_ISI_B_DN32
  6
CONTINUOUS
 62
         7
100
AcDbLine
 10
39.1311116721
 20
89.3933179692
 30
0.0
 11
39.1311116721
 21
77.8933179692
 31
0.0
  0
LINE
  5
5A
100
AcDbEntity
  8
TA900_ISI_B_DN32
  6
CONTINUOUS
 62
         7
100
AcDbLine
 10
135.1311116721
 20
92.8933179692
 30
0.0
 11
78.0130546882
 21
92.8933179692
 31
0.0
  0
LINE
  5
5B
100
AcDbEntity
  8
TA900_ISI_B_DN32
  6
CONTINUOUS
 62
         7
100
AcDbLine
 10
44.2491686559
 20
92.8933179692
 30
0.0
 11
22.6311116721
 21
92.8933179692
 31
0.0
  0
LINE
  5
5C
100
AcDbEntity
  8
TA900_ISI_B_DN32
  6
CONTINUOUS
 62
         7
100
AcDbLine
 10
17.6311116721
 20
92.8933179692
 30
0.0
 11
17.6311116721
 21
100.3533814104
 31
0.0
  0
LINE
  5
5D
100
AcDbEntity
  8
TA900_ISI_B_DN32
  6
CONTINUOUS
 62
         7
100
AcDbLine
 10
22.6311116721
 20
92.8933179692
 30
0.0
 11
17.6311116721
 21
92.8933179692
 31
0.0
  0
LINE
  5
5E
100
AcDbEntity
  8
TA900_ISI_B_DN32
  6
CONTINUOUS
 62
         7
100
AcDbLine
 10
140.1311116721
 20
92.8933179692
 30
0.0
 11
135.1311116721
 21
92.8933179692
 31
0.0
  0
LINE
  5
5F
100
AcDbEntity
  8
TA900_ISI_B_DN32
  6
CONTINUOUS
 62
         7
100
AcDbLine
 10
140.1311116721
 20
106.5201670869
 30
0.0
 11
140.1311116721
 21
92.8933179692
 31
0.0
  0
ARC
  5
60
100
AcDbEntity
  8
TA900_ISI_B_DN32
  6
CONTINUOUS
 62
         7
100
AcDbCircle
 10
30.1311116721
 20
100.3533814104
 30
0.0
 40
12.5
100
AcDbArc
 50
101.4704010157
 51
180.0
  0
ARC
  5
61
100
AcDbEntity
  8
TA900_ISI_B_DN32
  6
CONTINUOUS
 62
         7
100
AcDbCircle
 10
125.1311116721
 20
106.5201670869
 30
0.0
 40
15.0
100
AcDbArc
 50
0.0
 51
88.9493478404
  0
ARC
  5
62
100
AcDbEntity
  8
TA900_ISI_B_DN32
  6
CONTINUOUS
 62
         7
100
AcDbCircle
 10
117.1529824013
 20
-328.5066820308
 30
0.0
 40
450.1
100
AcDbArc
 50
88.9493478404
 51
101.4704010157
  0
LINE
  5
63
100
AcDbEntity
  8
TA900_ISI_B_DN32
  6
CONTINUOUS
 62
         7
100
AcDbLine
 10
100.3811116721
 20
57.8251163095
 30
0.0
 11
100.3811116721
 21
66.6433179692
 31
0.0
  0
LINE
  5
64
100
AcDbEntity
  8
TA900_ISI_B_DN32
  6
CONTINUOUS
 62
         7
100
AcDbLine
 10
85.2311116721
 20
79.8933179692
 30
0.0
 11
85.2311116721
 21
71.8933179692
 31
0.0
  0
LINE
  5
65
100
AcDbEntity
  8
TA900_ISI_B_DN32
  6
CONTINUOUS
 62
         7
100
AcDbLine
 10
114.3594816579
 20
5.5258045097
 30
0.0
 11
116.1311116721
 21
10.3933179692
 31
0.0
  0
LINE
  5
66
100
AcDbEntity
  8
TA900_ISI_B_DN32
  6
CONTINUOUS
 62
         7
100
AcDbLine
 10
15.9092980291
 20
5.5258045097
 30
0.0
 11
17.8811116721
 21
10.9433179692
 31
0.0
  0
LINE
  5
67
100
AcDbEntity
  8
TA900_ISI_B_DN32
  6
CONTINUOUS
 62
         7
100
AcDbLine
 10
55.6890788505
 20
48.8933179692
 30
0.0
 11
61.1311116721
 21
48.8933179692
 31
0.0
  0
LINE
  5
68
100
AcDbEntity
  8
TA900_ISI_B_DN32
  6
CONTINUOUS
 62
         7
100
AcDbLine
 10
55.0411169659
 20
46.6868595255
 30
0.0
 11
55.6890788505
 21
48.8933179692
 31
0.0
  0
LINE
  5
69
100
AcDbEntity
  8
TA900_ISI_B_DN32
  6
CONTINUOUS
 62
         7
100
AcDbLine
 10
56.7986606398
 20
46.6868595255
 30
0.0
 11
55.0411169659
 21
46.6868595255
 31
0.0
  0
LINE
  5
6A
100
AcDbEntity
  8
TA900_ISI_B_DN32
  6
CONTINUOUS
 62
         7
100
AcDbLine
 10
56.7986606398
 20
40.8933179692
 30
0.0
 11
56.7986606398
 21
46.6868595255
 31
0.0
  0
LINE
  5
6B
100
AcDbEntity
  8
TA900_ISI_B_DN32
  6
CONTINUOUS
 62
         7
100
AcDbLine
 10
59.1829909733
 20
40.8933179692
 30
0.0
 11
56.7986606398
 21
40.8933179692
 31
0.0
  0
LINE
  5
6C
100
AcDbEntity
  8
TA900_ISI_B_DN32
  6
CONTINUOUS
 62
         7
100
AcDbLine
 10
59.1829909733
 20
46.6868595255
 30
0.0
 11
59.1829909733
 21
40.8933179692
 31
0.0
  0
LINE
  5
6D
100
AcDbEntity
  8
TA900_ISI_B_DN32
  6
CONTINUOUS
 62
         7
100
AcDbLine
 10
60.4746796975
 20
46.6868595255
 30
0.0
 11
59.1829909733
 21
46.6868595255
 31
0.0
  0
LINE
  5
6E
100
AcDbEntity
  8
TA900_ISI_B_DN32
  6
CONTINUOUS
 62
         7
100
AcDbLine
 10
61.1311116721
 20
48.8933179692
 30
0.0
 11
60.4746796975
 21
46.6868595255
 31
0.0
  0
LINE
  5
6F
100
AcDbEntity
  8
TA900_ISI_B_DN32
  6
CONTINUOUS
 62
         7
100
AcDbLine
 10
35.4305280211
 20
4.5933179692
 30
0.0
 11
86.831695323
 21
4.5933179692
 31
0.0
  0
ARC
  5
70
100
AcDbEntity
  8
TA900_ISI_B_DN32
  6
CONTINUOUS
 62
         7
100
AcDbCircle
 10
61.1311116721
 20
33.3933179692
 30
0.0
 40
38.6
100
AcDbArc
 50
215.5195774235
 51
228.2548716325
  0
LINE
  5
71
100
AcDbEntity
  8
TA900_ISI_B_DN32
  6
CONTINUOUS
 62
         7
100
AcDbLine
 10
59.4243885381
 20
40.8933179692
 30
0.0
 11
63.3926257006
 21
40.8933179692
 31
0.0
  0
LINE
  5
72
100
AcDbEntity
  8
TA900_ISI_B_DN32
  6
CONTINUOUS
 62
         7
100
AcDbLine
 10
63.3926257006
 20
40.8933179692
 30
0.0
 11
64.0151773153
 21
42.9557848829
 31
0.0
  0
LINE
  5
73
100
AcDbEntity
  8
TA900_ISI_B_DN32
  6
CONTINUOUS
 62
         7
100
AcDbLine
 10
100.3811116721
 20
66.8933179692
 30
0.0
 11
100.3811116721
 21
71.8933179692
 31
0.0
  0
LINE
  5
74
100
AcDbEntity
  8
TA900_ISI_B_DN32
  6
CONTINUOUS
 62
         7
100
AcDbLine
 10
64.0151773153
 20
42.9557848829
 30
0.0
 11
62.4566807562
 21
42.9557848829
 31
0.0
  0
LINE
  5
75
100
AcDbEntity
  8
TA900_ISI_B_DN32
  6
CONTINUOUS
 62
         7
100
AcDbLine
 10
64.9807675747
 20
48.8933179692
 30
0.0
 11
61.8002487816
 21
48.8933179692
 31
0.0
  0
LINE
  5
76
100
AcDbEntity
  8
TA900_ISI_B_DN32
  6
CONTINUOUS
 62
         7
100
AcDbLine
 10
61.8002487816
 20
48.8933179692
 30
0.0
 11
59.4243885381
 21
40.8933179692
 31
0.0
  0
LINE
  5
77
100
AcDbEntity
  8
TA900_ISI_B_DN32
  6
CONTINUOUS
 62
         7
100
AcDbLine
 10
62.4566807562
 20
42.9557848829
 30
0.0
 11
63.3926257006
 21
46.9113169104
 31
0.0
  0
LINE
  5
78
100
AcDbEntity
  8
TA900_ISI_B_DN32
  6
CONTINUOUS
 62
         7
100
AcDbLine
 10
63.3926257006
 20
46.9113169104
 30
0.0
 11
64.8283059547
 21
40.8933179692
 31
0.0
  0
LINE
  5
79
100
AcDbEntity
  8
TA900_ISI_B_DN32
  6
CONTINUOUS
 62
         7
100
AcDbLine
 10
64.8283059547
 20
40.8933179692
 30
0.0
 11
67.3566278182
 21
40.8933179692
 31
0.0
  0
LINE
  5
7A
100
AcDbEntity
  8
TA900_ISI_B_DN32
  6
CONTINUOUS
 62
         7
100
AcDbLine
 10
67.3566278182
 20
40.8933179692
 30
0.0
 11
64.9807675747
 21
48.8933179692
 31
0.0
  0
LINE
  5
7B
100
AcDbEntity
  8
TA900_ISI_B_DN32
  6
CONTINUOUS
 62
         7
100
AcDbLine
 10
21.8811116721
 20
71.8933179692
 30
0.0
 11
21.8811116721
 21
66.8933179692
 31
0.0
  0
LINE
  5
7C
100
AcDbEntity
  8
TA900_ISI_B_DN32
  6
CONTINUOUS
 62
         7
100
AcDbLine
 10
22.1311116721
 20
66.8933179692
 30
0.0
 11
21.8811116721
 21
66.6433179692
 31
0.0
  0
LINE
  5
7D
100
AcDbEntity
  8
TA900_ISI_B_DN32
  6
CONTINUOUS
 62
         7
100
AcDbLine
 10
100.3811116721
 20
66.6433179692
 30
0.0
 11
100.1311116721
 21
66.8933179692
 31
0.0
  0
LINE
  5
7E
100
AcDbEntity
  8
TA900_ISI_B_DN32
  6
CONTINUOUS
 62
         7
100
AcDbLine
 10
85.2311116721
 20
79.8933179692
 30
0.0
 11
97.2311116721
 21
79.8933179692
 31
0.0
  0
LINE
  5
7F
100
AcDbEntity
  8
TA900_ISI_B_DN32
  6
CONTINUOUS
 62
         7
100
AcDbLine
 10
25.0311116721
 20
79.8933179692
 30
0.0
 11
37.0311116721
 21
79.8933179692
 31
0.0
  0
LINE
  5
80
100
AcDbEntity
  8
TA900_ISI_B_DN32
  6
CONTINUOUS
 62
         7
100
AcDbLine
 10
41.0283343228
 20
71.8933179692
 30
0.0
 11
41.0283343228
 21
77.8933179692
 31
0.0
  0
LINE
  5
81
100
AcDbEntity
  8
TA900_ISI_B_DN32
  6
CONTINUOUS
 62
         7
100
AcDbLine
 10
81.2338890213
 20
77.8933179692
 30
0.0
 11
81.2338890213
 21
71.8933179692
 31
0.0
  0
LINE
  5
82
100
AcDbEntity
  8
TA900_ISI_B_DN32
  6
CONTINUOUS
 62
         7
100
AcDbLine
 10
83.1311116721
 20
89.3933179692
 30
0.0
 11
39.1311116721
 21
89.3933179692
 31
0.0
  0
LINE
  5
83
100
AcDbEntity
  8
TA900_ISI_B_DN32
  6
CONTINUOUS
 62
         7
100
AcDbLine
 10
21.8811116721
 20
66.8933179692
 30
0.0
 11
24.3857831928
 21
66.8933179692
 31
0.0
  0
LINE
  5
84
100
AcDbEntity
  8
TA900_ISI_B_DN32
  6
CONTINUOUS
 62
         7
100
AcDbLine
 10
41.3811116721
 20
92.8933179692
 30
0.0
 11
41.3811116721
 21
89.8933179692
 31
0.0
  0
LINE
  5
85
100
AcDbEntity
  8
TA900_ISI_B_DN32
  6
CONTINUOUS
 62
         7
100
AcDbLine
 10
21.8811116721
 20
71.8933179692
 30
0.0
 11
24.3857831928
 21
71.8933179692
 31
0.0
  0
LINE
  5
86
100
AcDbEntity
  8
TA900_ISI_B_DN32
  6
CONTINUOUS
 62
         7
100
AcDbLine
 10
97.8764401513
 20
66.8933179692
 30
0.0
 11
100.3811116721
 21
66.8933179692
 31
0.0
  0
LINE
  5
87
100
AcDbEntity
  8
TA900_ISI_B_DN32
  6
CONTINUOUS
 62
         7
100
AcDbLine
 10
28.5624658851
 20
66.8933179692
 30
0.0
 11
24.3857831928
 21
66.8933179692
 31
0.0
  0
LINE
  5
88
100
AcDbEntity
  8
TA900_ISI_B_DN32
  6
CONTINUOUS
 62
         7
100
AcDbLine
 10
97.8764401513
 20
66.8933179692
 30
0.0
 11
93.699757459
 21
66.8933179692
 31
0.0
  0
LINE
  5
89
100
AcDbEntity
  8
TA900_ISI_B_DN32
  6
CONTINUOUS
 62
         7
100
AcDbLine
 10
93.699757459
 20
66.8933179692
 30
0.0
 11
28.5624658851
 21
66.8933179692
 31
0.0
  0
LINE
  5
8A
100
AcDbEntity
  8
TA900_ISI_B_DN32
  6
CONTINUOUS
 62
         7
100
AcDbLine
 10
47.1311116721
 20
89.8933179692
 30
0.0
 11
47.1311116721
 21
89.3933179692
 31
0.0
  0
LINE
  5
8B
100
AcDbEntity
  8
TA900_ISI_B_DN32
  6
CONTINUOUS
 62
         7
100
AcDbLine
 10
97.8764401513
 20
71.8933179692
 30
0.0
 11
100.3811116721
 21
71.8933179692
 31
0.0
  0
LINE
  5
8C
100
AcDbEntity
  8
TA900_ISI_B_DN32
  6
CONTINUOUS
 62
         7
100
AcDbLine
 10
37.0311116721
 20
71.8933179692
 30
0.0
 11
37.0311116721
 21
79.8933179692
 31
0.0
  0
LINE
  5
8D
100
AcDbEntity
  8
TA900_ISI_B_DN32
  6
CONTINUOUS
 62
         7
100
AcDbLine
 10
28.5624658851
 20
71.8933179692
 30
0.0
 11
24.3857831928
 21
71.8933179692
 31
0.0
  0
LINE
  5
8E
100
AcDbEntity
  8
TA900_ISI_B_DN32
  6
CONTINUOUS
 62
         7
100
AcDbLine
 10
97.8764401513
 20
71.8933179692
 30
0.0
 11
93.699757459
 21
71.8933179692
 31
0.0
  0
LINE
  5
8F
100
AcDbEntity
  8
TA900_ISI_B_DN32
  6
CONTINUOUS
 62
         7
100
AcDbLine
 10
93.699757459
 20
71.8933179692
 30
0.0
 11
28.5624658851
 21
71.8933179692
 31
0.0
  0
LINE
  5
90
100
AcDbEntity
  8
TA900_ISI_B_DN32
  6
CONTINUOUS
 62
         7
100
AcDbLine
 10
83.1311116721
 20
77.8933179692
 30
0.0
 11
83.1311116721
 21
89.3933179692
 31
0.0
  0
LINE
  5
91
100
AcDbEntity
  8
TA900_ISI_B_DN32
  6
CONTINUOUS
 62
         7
100
AcDbLine
 10
86.831695323
 20
56.5899730566
 30
0.0
 11
86.831695323
 21
33.3933179692
 31
0.0
  0
LINE
  5
92
100
AcDbEntity
  8
TA900_ISI_B_DN32
  6
CONTINUOUS
 62
         7
100
AcDbLine
 10
35.4305280211
 20
56.5899730566
 30
0.0
 11
35.4305280211
 21
33.3933179692
 31
0.0
  0
ARC
  5
93
100
AcDbEntity
  8
TA900_ISI_B_DN32
  6
CONTINUOUS
 62
         7
100
AcDbCircle
 10
61.1311116721
 20
183.2141689336
 30
0.0
 40
129.2060640276
100
AcDbArc
 50
258.5266809925
 51
281.4733190075
  0
LINE
  5
94
100
AcDbEntity
  8
TA900_ISI_B_DN32
  6
CONTINUOUS
 62
         7
100
AcDbLine
 10
6.1311116721
 20
58.3933179692
 30
0.0
 11
6.1311116721
 21
10.3933179692
 31
0.0
  0
SPLINE
  5
95
100
AcDbEntity
  8
TA900_ISI_B_DN32
  6
CONTINUOUS
 62
         7
100
AcDbSpline
210
0.0
220
0.0
230
1.0
 70
         8
 71
         3
 72
        12
 73
         8
 74
         0
 42
0.0
 43
0.0
 40
0.0
 40
0.0
 40
0.0
 40
0.0
 40
0.25
 40
0.25
 40
0.375
 40
0.375
 40
0.4998851632555202
 40
0.4998851632555202
 40
0.4998851632555202
 40
0.4998851632555202
 10
100.27783615963213
 20
56.885934480740332
 30
0.0
 10
100.31113377763329
 20
57.201102518306818
 30
0.0
 10
100.33706799383678
 20
57.440389339235857
 30
0.0
 10
100.36341185207067
 20
57.682137312822611
 30
0.0
 10
100.37009359939037
 20
57.743061424633467
 30
0.0
 10
100.37891992788478
 20
57.823435677953313
 30
0.0
 10
100.38111166472953
 20
57.843317949788165
 30
0.0
 10
100.38111167206058
 20
57.843317969226675
 30
0.0
  0
ARC
  5
96
100
AcDbEntity
  8
TA900_ISI_B_DN32
  6
CONTINUOUS
 62
         7
100
AcDbCircle
 10
75.6746535738
 20
35.8247576037
 30
0.0
 40
32.38656766
100
AcDbArc
 50
40.5646713661
 51
46.7231275566
  0
LINE
  5
97
100
AcDbEntity
  8
TA900_ISI_B_DN32
  6
CONTINUOUS
 62
         7
100
AcDbLine
 10
17.8811116721
 20
57.8433179692
 30
0.0
 11
17.8811116721
 21
10.9433179692
 31
0.0
  0
LINE
  5
98
100
AcDbEntity
  8
TA900_ISI_B_DN32
  6
CONTINUOUS
 62
         7
100
AcDbLine
 10
104.3811116721
 20
57.8433179692
 30
0.0
 11
104.3811116721
 21
10.9433179692
 31
0.0
  0
LINE
  5
99
100
AcDbEntity
  8
TA900_ISI_B_DN32
  6
CONTINUOUS
 62
         7
100
AcDbLine
 10
116.1311116721
 20
58.3933179692
 30
0.0
 11
116.1311116721
 21
10.3933179692
 31
0.0
  0
LINE
  5
9A
100
AcDbEntity
  8
TA900_ISI_B_DN32
  6
CONTINUOUS
 62
         7
100
AcDbLine
 10
97.2311116721
 20
71.8933179692
 30
0.0
 11
97.2311116721
 21
79.8933179692
 31
0.0
  0
ARC
  5
9B
100
AcDbEntity
  8
TA900_ISI_B_DN32
  6
CONTINUOUS
 62
         7
100
AcDbCircle
 10
-58.0428692194
 20
34.3933179692
 30
0.0
 40
75.347570459
100
AcDbArc
 50
348.9560255106
 51
11.0439744894
  0
ARC
  5
9C
100
AcDbEntity
  8
TA900_ISI_B_DN32
  6
CONTINUOUS
 62
         7
100
AcDbCircle
 10
40.4073162052
 20
34.3933179692
 30
0.0
 40
75.3475686965
100
AcDbArc
 50
348.956025249
 51
11.043974751
  0
ARC
  5
9D
100
AcDbEntity
  8
TA900_ISI_B_DN32
  6
CONTINUOUS
 62
         7
100
AcDbCircle
 10
180.3050925635
 20
34.3933179692
 30
0.0
 40
75.347570459
100
AcDbArc
 50
168.9560255106
 51
191.0439744894
  0
ARC
  5
9E
100
AcDbEntity
  8
TA900_ISI_B_DN32
  6
CONTINUOUS
 62
         7
100
AcDbCircle
 10
124.3705816138
 20
12.7426828745
 30
0.0
 40
19.4092573746
100
AcDbArc
 50
158.1716867869
 51
201.8283132131
  0
ARC
  5
9F
100
AcDbEntity
  8
TA900_ISI_B_DN32
  6
CONTINUOUS
 62
         7
100
AcDbCircle
 10
124.3705816138
 20
56.0439530638
 30
0.0
 40
19.4092573746
100
AcDbArc
 50
158.1716867869
 51
201.8283132131
  0
LINE
  5
A0
100
AcDbEntity
  8
TA900_ISI_B_DN32
  6
CONTINUOUS
 62
         7
100
AcDbLine
 10
15.9092980291
 20
63.2608314286
 30
0.0
 11
7.9027416862
 21
63.2608314286
 31
0.0
  0
LINE
  5
A1
100
AcDbEntity
  8
TA900_ISI_B_DN32
  6
CONTINUOUS
 62
         7
100
AcDbLine
 10
15.9092980291
 20
48.8270746989
 30
0.0
 11
7.9027416862
 21
48.8270746989
 31
0.0
  0
LINE
  5
A2
100
AcDbEntity
  8
TA900_ISI_B_DN32
  6
CONTINUOUS
 62
         7
100
AcDbLine
 10
15.9092980291
 20
19.9595612394
 30
0.0
 11
7.9027416862
 21
19.9595612394
 31
0.0
  0
LINE
  5
A3
100
AcDbEntity
  8
TA900_ISI_B_DN32
  6
CONTINUOUS
 62
         7
100
AcDbLine
 10
15.9092980291
 20
5.5258045097
 30
0.0
 11
7.9027416862
 21
5.5258045097
 31
0.0
  0
LINE
  5
A4
100
AcDbEntity
  8
TA900_ISI_B_DN32
  6
CONTINUOUS
 62
         7
100
AcDbLine
 10
97.8764401513
 20
66.6433179692
 30
0.0
 11
93.699757459
 21
66.6433179692
 31
0.0
  0
LINE
  5
A5
100
AcDbEntity
  8
TA900_ISI_B_DN32
  6
CONTINUOUS
 62
         7
100
AcDbLine
 10
100.3811116721
 20
66.6433179692
 30
0.0
 11
97.8764401513
 21
66.6433179692
 31
0.0
  0
LINE
  5
A6
100
AcDbEntity
  8
TA900_ISI_B_DN32
  6
CONTINUOUS
 62
         7
100
AcDbLine
 10
85.2311116721
 20
77.8933179692
 30
0.0
 11
81.2338890213
 21
77.8933179692
 31
0.0
  0
LINE
  5
A7
100
AcDbEntity
  8
TA900_ISI_B_DN32
  6
CONTINUOUS
 62
         7
100
AcDbLine
 10
81.2338890213
 20
77.8933179692
 30
0.0
 11
41.0283343228
 21
77.8933179692
 31
0.0
  0
LINE
  5
A8
100
AcDbEntity
  8
TA900_ISI_B_DN32
  6
CONTINUOUS
 62
         7
100
AcDbLine
 10
80.8811116721
 20
89.8933179692
 30
0.0
 11
80.8811116721
 21
92.8933179692
 31
0.0
  0
LINE
  5
A9
100
AcDbEntity
  8
TA900_ISI_B_DN32
  6
CONTINUOUS
 62
         7
100
AcDbLine
 10
75.1311116721
 20
89.3933179692
 30
0.0
 11
75.1311116721
 21
89.8933179692
 31
0.0
  0
LINE
  5
AA
100
AcDbEntity
  8
TA900_ISI_B_DN32
  6
CONTINUOUS
 62
         7
100
AcDbLine
 10
6.1311116721
 20
10.3933179692
 30
0.0
 11
7.9027416862
 21
5.5258045097
 31
0.0
  0
LINE
  5
AB
100
AcDbEntity
  8
TA900_ISI_B_DN32
  6
CONTINUOUS
 62
         7
100
AcDbLine
 10
80.8811116721
 20
89.8933179692
 30
0.0
 11
41.3811116721
 21
89.8933179692
 31
0.0
  0
LINE
  5
AC
100
AcDbEntity
  8
TA900_ISI_B_DN32
  6
CONTINUOUS
 62
         7
100
AcDbLine
 10
104.3811116721
 20
10.9433179692
 30
0.0
 11
106.352925315
 21
5.5258045097
 31
0.0
  0
ARC
  5
AD
100
AcDbEntity
  8
TA900_ISI_B_DN32
  6
CONTINUOUS
 62
         7
100
AcDbCircle
 10
61.1311116721
 20
92.8933179692
 30
0.0
 40
16.8819430161
100
AcDbArc
 50
0.0
 51
180.0
  0
LINE
  5
AE
100
AcDbEntity
  8
TA900_ISI_B_DN32
  6
CONTINUOUS
 62
         7
100
AcDbLine
 10
21.8811116721
 20
66.6433179692
 30
0.0
 11
21.8811116721
 21
57.8251163095
 31
0.0
  0
LINE
  5
AF
100
AcDbEntity
  8
TA900_ISI_B_DN32
  6
CONTINUOUS
 62
         7
100
AcDbLine
 10
92.5298636552
 20
10.9433179692
 30
0.0
 11
104.3811116721
 21
10.9433179692
 31
0.0
  0
LINE
  5
B0
100
AcDbEntity
  8
TA900_ISI_B_DN32
  6
CONTINUOUS
 62
         7
100
AcDbLine
 10
17.8811116721
 20
10.9433179692
 30
0.0
 11
29.7323596889
 21
10.9433179692
 31
0.0
  0
ARC
  5
B1
100
AcDbEntity
  8
TA900_ISI_B_DN32
  6
CONTINUOUS
 62
         7
100
AcDbCircle
 10
61.1311116721
 20
33.3933179692
 30
0.0
 40
38.6
100
AcDbArc
 50
311.7451283675
 51
324.4810534084
  0
LINE
  5
B2
100
AcDbEntity
  8
TA900_ISI_B_DN32
  6
CONTINUOUS
 62
         7
100
AcDbLine
 10
7.9027416862
 20
63.2608314286
 30
0.0
 11
6.1311116721
 21
58.3933179692
 31
0.0
  0
LINE
  5
B3
100
AcDbEntity
  8
TA900_ISI_B_DN32
  6
CONTINUOUS
 62
         7
100
AcDbLine
 10
106.352925315
 20
63.2608314286
 30
0.0
 11
104.3811116721
 21
57.8433179692
 31
0.0
  0
LINE
  5
B4
100
AcDbEntity
  8
TA900_ISI_B_DN32
  6
CONTINUOUS
 62
         7
100
AcDbLine
 10
86.831695323
 20
4.5933179692
 30
0.0
 11
86.831695323
 21
33.3933179692
 31
0.0
  0
LINE
  5
B5
100
AcDbEntity
  8
TA900_ISI_B_DN32
  6
CONTINUOUS
 62
         7
100
AcDbLine
 10
35.4305280211
 20
4.5933179692
 30
0.0
 11
35.4305280211
 21
33.3933179692
 31
0.0
  0
ARC
  5
B6
100
AcDbEntity
  8
TA900_ISI_B_DN32
  6
CONTINUOUS
 62
         7
100
AcDbCircle
 10
46.6394650491
 20
35.7752625228
 30
0.0
 40
32.4581782456
100
AcDbArc
 50
133.2836724912
 51
139.4285285861
  0
SPLINE
  5
B7
100
AcDbEntity
  8
TA900_ISI_B_DN32
  6
CONTINUOUS
 62
         7
100
AcDbSpline
210
0.0
220
0.0
230
1.0
 70
         8
 71
         3
 72
        14
 73
        10
 74
         0
 42
0.0
 43
0.0
 40
0.4998851632555217
 40
0.4998851632555217
 40
0.4998851632555217
 40
0.4998851632555217
 40
0.5000000000000001
 40
0.5000000000000001
 40
0.7500000000000001
 40
0.7500000000000001
 40
0.875
 40
0.875
 40
1.0
 40
1.0
 40
1.0
 40
1.0
 10
21.881111672060111
 20
57.843317969226675
 30
0.0
 10
21.881111672053365
 20
57.843317969244552
 30
0.0
 10
21.881111673899849
 20
57.84331795245096
 30
0.0
 10
21.881119731810671
 20
57.843244761192651
 30
0.0
 10
21.889910612815243
 20
57.763797251416797
 30
0.0
 10
21.915951879192875
 20
57.524856048310589
 30
0.0
 10
21.926774896930194
 20
57.425172965132148
 30
0.0
 10
21.952652196266271
 20
57.184668257258686
 30
0.0
 10
21.967639969845145
 20
57.044449926910701
 30
0.0
 10
21.984387184488558
 20
56.885934480740332
 30
0.0
  0
LINE
  5
B8
100
AcDbEntity
  8
TA900_ISI_B_DN32
  6
CONTINUOUS
 62
         7
100
AcDbLine
 10
98.9827826665
 20
56.5899730566
 30
0.0
 11
100.2778361596
 21
56.8859344807
 31
0.0
  0
LINE
  5
B9
100
AcDbEntity
  8
TA900_ISI_B_DN32
  6
CONTINUOUS
 62
         7
100
AcDbLine
 10
21.9843871845
 20
56.8859344807
 30
0.0
 11
23.2794406777
 21
56.5899730566
 31
0.0
  0
SPLINE
  5
BA
100
AcDbEntity
  8
TA900_ISI_B_DN32
  6
CONTINUOUS
 62
         7
100
AcDbSpline
210
0.0
220
0.0
230
1.0
 70
         8
 71
         3
 72
        20
 73
        16
 74
         0
 42
0.0
 43
0.0
 40
0.0
 40
0.0
 40
0.0
 40
0.0
 40
0.2499999999999977
 40
0.2499999999999977
 40
0.3749999999999981
 40
0.3749999999999981
 40
0.4999999999999985
 40
0.4999999999999985
 40
0.6249999999999988
 40
0.6249999999999988
 40
0.7499999999999991
 40
0.7499999999999991
 40
0.8749999999999996
 40
0.8749999999999996
 40
1.0
 40
1.0
 40
1.0
 40
1.0
 10
28.562465885082364
 20
59.403782977176149
 30
0.0
 10
28.041062279037494
 20
59.480274922741522
 30
0.0
 10
27.543490509223069
 20
59.538336556840086
 30
0.0
 10
26.833561554516923
 20
59.598429773862883
 30
0.0
 10
26.60743848939827
 20
59.613465877889197
 30
0.0
 10
26.181969341948914
 20
59.63350910296672
 30
0.0
 10
25.98154108539935
 20
59.638608793862154
 30
0.0
 10
25.6060612166428
 20
59.638693711071994
 30
0.0
 10
25.433073135058216
 20
59.63359141984612
 30
0.0
 10
25.124536840716178
 20
59.613606789413396
 30
0.0
 10
24.987511938997507
 20
59.598732812772681
 30
0.0
 10
24.74847662917966
 20
59.558973618256474
 30
0.0
 10
24.647274880524346
 20
59.534067598171873
 30
0.0
 10
24.486613749440654
 20
59.475669492306466
 30
0.0
 10
24.42612233139657
 20
59.442031182167703
 30
0.0
 10
24.385783192774678
 20
59.403782977176149
 30
0.0
  0
SPLINE
  5
BB
100
AcDbEntity
  8
TA900_ISI_B_DN32
  6
CONTINUOUS
 62
         7
100
AcDbSpline
210
0.0
220
0.0
230
1.0
 70
         8
 71
         3
 72
        20
 73
        16
 74
         0
 42
0.0
 43
0.0
 40
0.0
 40
0.0
 40
0.0
 40
0.0
 40
0.2500000000000001
 40
0.2500000000000001
 40
0.375
 40
0.375
 40
0.5
 40
0.5
 40
0.6249999999999999
 40
0.6249999999999999
 40
0.7499999999999999
 40
0.7499999999999999
 40
0.875
 40
0.875
 40
1.0
 40
1.0
 40
1.0
 40
1.0
 10
97.876440151345989
 20
59.403782977176142
 30
0.0
 10
97.795766582578409
 20
59.480274922741529
 30
0.0
 10
97.636346296386662
 20
59.538336556840072
 30
0.0
 10
97.277256823634659
 20
59.598429773862854
 30
0.0
 10
97.139165632798338
 20
59.613465877889183
 30
0.0
 10
96.83110970462532
 20
59.63350910296672
 30
0.0
 10
96.660605506655628
 20
59.63860879386214
 30
0.0
 10
96.285623646858966
 20
59.63869371107198
 30
0.0
 10
96.08269620119404
 20
59.633591419846113
 30
0.0
 10
95.657088958176189
 20
59.613606789413389
 30
0.0
 10
95.432980428569067
 20
59.598732812772674
 30
0.0
 10
94.96181291687715
 20
59.558973618256459
 30
0.0
 10
94.715451039388029
 20
59.534067598171873
 30
0.0
 10
94.215727427483003
 20
59.475669492306459
 30
0.0
 10
93.960474477803274
 20
59.44203118216771
 30
0.0
 10
93.69975745903831
 20
59.403782977176149
 30
0.0
  0
ARC
  5
BC
100
AcDbEntity
  8
TA900_ISI_B_DN32
  6
CONTINUOUS
 62
         7
100
AcDbCircle
 10
61.1311116721
 20
260.6934569919
 30
0.0
 40
203.9074534032
100
AcDbArc
 50
260.8091998067
 51
279.1908001933
  0
LINE
  5
BD
100
AcDbEntity
  8
TA900_ISI_B_DN32
  6
CONTINUOUS
 62
         7
100
AcDbLine
 10
21.8811116721
 20
66.6433179692
 30
0.0
 11
24.3857831928
 21
66.6433179692
 31
0.0
  0
LINE
  5
BE
100
AcDbEntity
  8
TA900_ISI_B_DN32
  6
CONTINUOUS
 62
         7
100
AcDbLine
 10
28.5624658851
 20
66.6433179692
 30
0.0
 11
24.3857831928
 21
66.6433179692
 31
0.0
  0
LINE
  5
BF
100
AcDbEntity
  8
TA900_ISI_B_DN32
  6
CONTINUOUS
 62
         7
100
AcDbLine
 10
93.699757459
 20
66.6433179692
 30
0.0
 11
28.5624658851
 21
66.6433179692
 31
0.0
  0
LINE
  5
C0
100
AcDbEntity
  8
TA900_ISI_B_DN32
  6
CONTINUOUS
 62
         7
100
AcDbLine
 10
104.3811116721
 20
57.8433179692
 30
0.0
 11
100.3790993951
 21
57.8433179692
 31
0.0
  0
LINE
  5
C1
100
AcDbEntity
  8
TA900_ISI_B_DN32
  6
CONTINUOUS
 62
         7
100
AcDbLine
 10
21.883123949
 20
57.8433179692
 30
0.0
 11
17.8811116721
 21
57.8433179692
 31
0.0
  0
SPLINE
  5
C2
100
AcDbEntity
  8
TA900_ISI_B_DN32
  6
CONTINUOUS
 62
         7
100
AcDbSpline
210
0.0
220
0.0
230
1.0
 70
         8
 71
         3
 72
        20
 73
        16
 74
         0
 42
0.0
 43
0.0
 40
0.0
 40
0.0
 40
0.0
 40
0.0
 40
0.0624999999999999
 40
0.0624999999999999
 40
0.1249999999999998
 40
0.1249999999999998
 40
0.1874999999999998
 40
0.1874999999999998
 40
0.2499999999999997
 40
0.2499999999999997
 40
0.3124999999999997
 40
0.3124999999999997
 40
0.3749999999999997
 40
0.3749999999999997
 40
0.4999471431163597
 40
0.4999471431163597
 40
0.4999471431163597
 40
0.4999471431163597
 10
91.80777218131395
 20
33.393317969159312
 30
0.0
 10
91.856859969443363
 20
31.887468557563011
 30
0.0
 10
91.904832410432746
 20
30.412224358017859
 30
0.0
 10
91.998659081475239
 20
27.520426863445877
 30
0.0
 10
92.044949622286623
 20
26.09035061088645
 30
0.0
 10
92.133088065766927
 20
23.361768859341549
 30
0.0
 10
92.174651577836286
 20
22.072148462442208
 30
0.0
 10
92.25290419618517
 20
19.639848445857652
 30
0.0
 10
92.28986379027782
 20
18.48869771630681
 30
0.0
 10
92.355986670337145
 20
16.426205169562184
 30
0.0
 10
92.385486531486762
 20
15.504430371942741
 30
0.0
 10
92.437357876672678
 20
13.881878586813556
 30
0.0
 10
92.45956714107048
 20
13.186163234386775
 30
0.0
 10
92.512594038481936
 20
11.523974891925109
 30
0.0
 10
92.531070992325496
 20
10.943345696188551
 30
0.0
 10
92.531071862850624
 20
10.943317977796054
 30
0.0
  0
SPLINE
  5
C3
100
AcDbEntity
  8
TA900_ISI_B_DN32
  6
CONTINUOUS
 62
         7
100
AcDbSpline
210
0.0
220
0.0
230
1.0
 70
         8
 71
         3
 72
        22
 73
        18
 74
         0
 42
0.0
 43
0.0
 40
0.4999488244343983
 40
0.4999488244343983
 40
0.4999488244343983
 40
0.4999488244343983
 40
0.4999999999999998
 40
0.4999999999999998
 40
0.5624999999999998
 40
0.5624999999999998
 40
0.6249999999999998
 40
0.6249999999999998
 40
0.6874999999999999
 40
0.6874999999999999
 40
0.7499999999999999
 40
0.7499999999999999
 40
0.8124999999999999
 40
0.8124999999999999
 40
0.8749999999999999
 40
0.8749999999999999
 40
1.0
 40
1.0
 40
1.0
 40
1.0
 10
29.731151481244957
 20
10.943317976992487
 30
0.0
 10
29.731151481092066
 20
10.943317972039477
 30
0.0
 10
29.731151484038612
 20
10.943318064484759
 30
0.0
 10
29.731158874098814
 20
10.943550112080743
 30
0.0
 10
29.735708862651826
 20
11.086450593708996
 30
0.0
 10
29.753909314809022
 20
11.657695492267765
 30
0.0
 10
29.767357440283817
 20
12.079685056959152
 30
0.0
 10
29.802779855724467
 20
13.190037615377333
 30
0.0
 10
29.825069642337677
 20
13.888269610643746
 30
0.0
 10
29.876871176313756
 20
15.508628911041253
 30
0.0
 10
29.906370201140771
 20
16.430376987761473
 30
0.0
 10
29.972641249695343
 20
18.49747741994679
 30
0.0
 10
30.009569729475224
 20
19.647645645465186
 30
0.0
 10
30.087755065608068
 20
22.077837389825536
 30
0.0
 10
30.129352574046663
 20
23.368511293368623
 30
0.0
 10
30.261958672060913
 20
27.473672139856589
 30
0.0
 10
30.35627562392186
 20
30.381620292474501
 30
0.0
 10
30.454451162806734
 20
33.393317969159312
 30
0.0
  0
ARC
  5
C4
100
AcDbEntity
  8
TA900_ISI_B_DN32
  6
CONTINUOUS
 62
         7
100
AcDbCircle
 10
-12.0938896812
 20
32.9405802667
 30
0.0
 40
42.5507494646
100
AcDbArc
 50
0.6096355379
 51
33.7653262691
  0
LINE
  5
C5
100
AcDbEntity
  8
TA900_ISI_B_DN32
  6
CONTINUOUS
 62
         7
100
AcDbLine
 10
35.4305280211
 20
56.5899730566
 30
0.0
 11
23.2794406777
 21
56.5899730566
 31
0.0
  0
LINE
  5
C6
100
AcDbEntity
  8
TA900_ISI_B_DN32
  6
CONTINUOUS
 62
         7
100
AcDbLine
 10
98.9827826665
 20
56.5899730566
 30
0.0
 11
86.831695323
 21
56.5899730566
 31
0.0
  0
ARC
  5
C7
100
AcDbEntity
  8
TA900_ISI_B_DN32
  6
CONTINUOUS
 62
         7
100
AcDbCircle
 10
134.3575183608
 20
32.9401455792
 30
0.0
 40
42.5521593477
100
AcDbArc
 50
146.2352388638
 51
179.3897993292
  0
ARC
  5
C8
100
AcDbEntity
  8
TA900_ISI_B_DN32
  6
CONTINUOUS
 62
         7
100
AcDbCircle
 10
96.3418253591
 20
12.7426828745
 30
0.0
 40
19.4092573746
100
AcDbArc
 50
338.1716867869
 51
21.8283132131
  0
LINE
  5
C9
100
AcDbEntity
  8
TA900_ISI_B_DN32
  6
CONTINUOUS
 62
         7
100
AcDbLine
 10
114.3594816579
 20
19.9595612394
 30
0.0
 11
106.352925315
 21
19.9595612394
 31
0.0
  0
ARC
  5
CA
100
AcDbEntity
  8
TA900_ISI_B_DN32
  6
CONTINUOUS
 62
         7
100
AcDbCircle
 10
81.8549071389
 20
34.3933179692
 30
0.0
 40
75.3475686965
100
AcDbArc
 50
168.956025249
 51
191.043974751
  0
ARC
  5
CB
100
AcDbEntity
  8
TA900_ISI_B_DN32
  6
CONTINUOUS
 62
         7
100
AcDbCircle
 10
25.920397985
 20
56.0439530638
 30
0.0
 40
19.4092573746
100
AcDbArc
 50
158.1716867869
 51
201.8283132131
  0
ARC
  5
CC
100
AcDbEntity
  8
TA900_ISI_B_DN32
  6
CONTINUOUS
 62
         7
100
AcDbCircle
 10
25.920397985
 20
12.7426828745
 30
0.0
 40
19.4092573746
100
AcDbArc
 50
158.1716867869
 51
201.8283132131
  0
ARC
  5
CD
100
AcDbEntity
  8
TA900_ISI_B_DN32
  6
CONTINUOUS
 62
         7
100
AcDbCircle
 10
-2.1083582697
 20
56.0439530638
 30
0.0
 40
19.4092573746
100
AcDbArc
 50
338.1716867869
 51
21.8283132131
  0
ARC
  5
CE
100
AcDbEntity
  8
TA900_ISI_B_DN32
  6
CONTINUOUS
 62
         7
100
AcDbCircle
 10
-2.1083582697
 20
12.7426828745
 30
0.0
 40
19.4092573746
100
AcDbArc
 50
338.1716867869
 51
21.8283132131
  0
ARC
  5
CF
100
AcDbEntity
  8
TA900_ISI_B_DN32
  6
CONTINUOUS
 62
         7
100
AcDbCircle
 10
96.3418253591
 20
56.0439530638
 30
0.0
 40
19.4092573746
100
AcDbArc
 50
338.1716867869
 51
21.8283132131
  0
LINE
  5
D0
100
AcDbEntity
  8
TA900_ISI_B_DN32
  6
CONTINUOUS
 62
         7
100
AcDbLine
 10
114.3594816579
 20
63.2608314286
 30
0.0
 11
106.352925315
 21
63.2608314286
 31
0.0
  0
LINE
  5
D1
100
AcDbEntity
  8
TA900_ISI_B_DN32
  6
CONTINUOUS
 62
         7
100
AcDbLine
 10
114.3594816579
 20
48.8270746989
 30
0.0
 11
106.352925315
 21
48.8270746989
 31
0.0
  0
LINE
  5
D2
100
AcDbEntity
  8
TA900_ISI_B_DN32
  6
CONTINUOUS
 62
         7
100
AcDbLine
 10
114.3594816579
 20
5.5258045097
 30
0.0
 11
106.352925315
 21
5.5258045097
 31
0.0
  0
ENDBLK
  5
D3
100
AcDbEntity
  8
TA900_ISI_B_DN32
  6
CONTINUOUS
 62
         7
100
AcDbBlockEnd
  0
BLOCK
  5
126
100
AcDbEntity
  8
0
 62
         1
 48
0.0
100
AcDbBlockBegin
  2
SE2
 70
         0
 10
0.0
 20
0.0
 30
0.0
  3
SE2
  1

  0
ENDBLK
  5
127
100
AcDbEntity
  8
0
 62
         1
 48
0.0
100
AcDbBlockEnd
  0
BLOCK
  5
D6
100
AcDbEntity
  8
0
 62
         1
 48
0.0
100
AcDbBlockBegin
  2
SE3
 70
         0
 10
0.0
 20
0.0
 30
0.0
  3
SE3
  1

  0
LINE
  5
D7
100
AcDbEntity
  8
TA900_ISI_B_DN32
  6
CONTINUOUS
 62
         7
100
AcDbLine
 10
116.1311116721
 20
225.938636918
 30
0.0
 11
115.7671414378
 21
226.938636918
 31
0.0
  0
LINE
  5
D8
100
AcDbEntity
  8
TA900_ISI_B_DN32
  6
CONTINUOUS
 62
         7
100
AcDbLine
 10
17.8811116721
 20
225.388636918
 30
0.0
 11
17.3169578089
 21
226.938636918
 31
0.0
  0
LINE
  5
D9
100
AcDbEntity
  8
TA900_ISI_B_DN32
  6
CONTINUOUS
 62
         7
100
AcDbLine
 10
135.1311116721
 20
191.688636918
 30
0.0
 11
116.1311116721
 21
191.688636918
 31
0.0
  0
LINE
  5
DA
100
AcDbEntity
  8
TA900_ISI_B_DN32
  6
CONTINUOUS
 62
         7
100
AcDbLine
 10
135.1311116721
 20
212.188636918
 30
0.0
 11
116.1311116721
 21
212.188636918
 31
0.0
  0
LINE
  5
DB
100
AcDbEntity
  8
TA900_ISI_B_DN32
  6
CONTINUOUS
 62
         7
100
AcDbLine
 10
140.1311116721
 20
207.188636918
 30
0.0
 11
140.1311116721
 21
196.688636918
 31
0.0
  0
ARC
  5
DC
100
AcDbEntity
  8
TA900_ISI_B_DN32
  6
CONTINUOUS
 62
         7
100
AcDbCircle
 10
135.1311116721
 20
207.188636918
 30
0.0
 40
5.0
100
AcDbArc
 50
0.0
 51
90.0
  0
ARC
  5
DD
100
AcDbEntity
  8
TA900_ISI_B_DN32
  6
CONTINUOUS
 62
         7
100
AcDbCircle
 10
135.1311116721
 20
196.688636918
 30
0.0
 40
5.0
100
AcDbArc
 50
270.0
 51
360.0
  0
LINE
  5
DE
100
AcDbEntity
  8
TA900_ISI_B_DN32
  6
CONTINUOUS
 62
         7
100
AcDbLine
 10
115.7671414378
 20
176.938636918
 30
0.0
 11
116.1311116721
 21
177.938636918
 31
0.0
  0
LINE
  5
DF
100
AcDbEntity
  8
TA900_ISI_B_DN32
  6
CONTINUOUS
 62
         7
100
AcDbLine
 10
56.7986606398
 20
231.038636918
 30
0.0
 11
55.0411169659
 21
231.038636918
 31
0.0
  0
LINE
  5
E0
100
AcDbEntity
  8
TA900_ISI_B_DN32
  6
CONTINUOUS
 62
         7
100
AcDbLine
 10
17.3169578089
 20
176.938636918
 30
0.0
 11
17.8811116721
 21
178.488636918
 31
0.0
  0
LINE
  5
E1
100
AcDbEntity
  8
TA900_ISI_B_DN32
  6
CONTINUOUS
 62
         7
100
AcDbLine
 10
59.4243885381
 20
231.038636918
 30
0.0
 11
59.1829909733
 21
231.038636918
 31
0.0
  0
LINE
  5
E2
100
AcDbEntity
  8
TA900_ISI_B_DN32
  6
CONTINUOUS
 62
         7
100
AcDbLine
 10
56.7986606398
 20
231.038636918
 30
0.0
 11
56.7986606398
 21
230.738636918
 31
0.0
  0
LINE
  5
E3
100
AcDbEntity
  8
TA900_ISI_B_DN32
  6
CONTINUOUS
 62
         7
100
AcDbLine
 10
59.1829909733
 20
231.038636918
 30
0.0
 11
59.1829909733
 21
230.738636918
 31
0.0
  0
LINE
  5
E4
100
AcDbEntity
  8
TA900_ISI_B_DN32
  6
CONTINUOUS
 62
         7
100
AcDbLine
 10
59.1829909733
 20
231.038636918
 30
0.0
 11
56.7986606398
 21
231.038636918
 31
0.0
  0
LINE
  5
E5
100
AcDbEntity
  8
TA900_ISI_B_DN32
  6
CONTINUOUS
 62
         7
100
AcDbLine
 10
55.0411169659
 20
231.038636918
 30
0.0
 11
55.0411169659
 21
230.738636918
 31
0.0
  0
LINE
  5
E6
100
AcDbEntity
  8
TA900_ISI_B_DN32
  6
CONTINUOUS
 62
         7
100
AcDbLine
 10
59.4243885381
 20
231.038636918
 30
0.0
 11
63.3926257006
 21
231.038636918
 31
0.0
  0
LINE
  5
E7
100
AcDbEntity
  8
TA900_ISI_B_DN32
  6
CONTINUOUS
 62
         7
100
AcDbLine
 10
63.3926257006
 20
231.038636918
 30
0.0
 11
64.0151773153
 21
231.038636918
 31
0.0
  0
LINE
  5
E8
100
AcDbEntity
  8
TA900_ISI_B_DN32
  6
CONTINUOUS
 62
         7
100
AcDbLine
 10
64.0151773153
 20
231.038636918
 30
0.0
 11
64.8283059547
 21
231.038636918
 31
0.0
  0
LINE
  5
E9
100
AcDbEntity
  8
TA900_ISI_B_DN32
  6
CONTINUOUS
 62
         7
100
AcDbLine
 10
64.8283059547
 20
231.038636918
 30
0.0
 11
67.3566278182
 21
231.038636918
 31
0.0
  0
LINE
  5
EA
100
AcDbEntity
  8
TA900_ISI_B_DN32
  6
CONTINUOUS
 62
         7
100
AcDbLine
 10
67.3566278182
 20
231.038636918
 30
0.0
 11
67.3566278182
 21
230.738636918
 31
0.0
  0
LINE
  5
EB
100
AcDbEntity
  8
TA900_ISI_B_DN32
  6
CONTINUOUS
 62
         7
100
AcDbLine
 10
64.8283059547
 20
231.038636918
 30
0.0
 11
64.8283059547
 21
230.738636918
 31
0.0
  0
LINE
  5
EC
100
AcDbEntity
  8
TA900_ISI_B_DN32
  6
CONTINUOUS
 62
         7
100
AcDbLine
 10
59.4243885381
 20
231.038636918
 30
0.0
 11
59.4243885381
 21
230.738636918
 31
0.0
  0
LINE
  5
ED
100
AcDbEntity
  8
TA900_ISI_B_DN32
  6
CONTINUOUS
 62
         7
100
AcDbLine
 10
64.0151773153
 20
231.038636918
 30
0.0
 11
64.0151773153
 21
230.738636918
 31
0.0
  0
LINE
  5
EE
100
AcDbEntity
  8
TA900_ISI_B_DN32
  6
CONTINUOUS
 62
         7
100
AcDbLine
 10
63.3926257006
 20
231.038636918
 30
0.0
 11
63.3926257006
 21
230.738636918
 31
0.0
  0
ARC
  5
EF
100
AcDbEntity
  8
TA900_ISI_B_DN32
  6
CONTINUOUS
 62
         7
100
AcDbCircle
 10
-112.6188883279
 20
201.938636918
 30
0.0
 40
213.0
100
AcDbArc
 50
6.3211458554
 51
8.795280832
  0
LINE
  5
F0
100
AcDbEntity
  8
TA900_ISI_B_DN32
  6
CONTINUOUS
 62
         7
100
AcDbLine
 10
6.1311116721
 20
177.938636918
 30
0.0
 11
6.1311116721
 21
225.938636918
 31
0.0
  0
LINE
  5
F1
100
AcDbEntity
  8
TA900_ISI_B_DN32
  6
CONTINUOUS
 62
         7
100
AcDbLine
 10
17.8811116721
 20
178.488636918
 30
0.0
 11
17.8811116721
 21
225.388636918
 31
0.0
  0
LINE
  5
F2
100
AcDbEntity
  8
TA900_ISI_B_DN32
  6
CONTINUOUS
 62
         7
100
AcDbLine
 10
116.1311116721
 20
177.938636918
 30
0.0
 11
116.1311116721
 21
225.938636918
 31
0.0
  0
ARC
  5
F3
100
AcDbEntity
  8
TA900_ISI_B_DN32
  6
CONTINUOUS
 62
         7
100
AcDbCircle
 10
59.0523008196
 20
189.438636918
 30
0.0
 40
56.7021538592
100
AcDbArc
 50
347.2645244266
 51
12.7354755734
  0
ARC
  5
F4
100
AcDbEntity
  8
TA900_ISI_B_DN32
  6
CONTINUOUS
 62
         7
100
AcDbCircle
 10
63.2099225245
 20
189.438636918
 30
0.0
 40
56.7021538592
100
AcDbArc
 50
167.2645244266
 51
192.7354755734
  0
LINE
  5
F5
100
AcDbEntity
  8
TA900_ISI_B_DN32
  6
CONTINUOUS
 62
         7
100
AcDbLine
 10
104.3811116721
 20
178.488636918
 30
0.0
 11
104.3811116721
 21
225.388636918
 31
0.0
  0
LINE
  5
F6
100
AcDbEntity
  8
TA900_ISI_B_DN32
  6
CONTINUOUS
 62
         7
100
AcDbLine
 10
17.3169547369
 20
226.938636918
 30
0.0
 11
15.9092980291
 21
226.938636918
 31
0.0
  0
LINE
  5
F7
100
AcDbEntity
  8
TA900_ISI_B_DN32
  6
CONTINUOUS
 62
         7
100
AcDbLine
 10
115.7671384034
 20
226.938636918
 30
0.0
 11
114.3594816579
 21
226.938636918
 31
0.0
  0
LINE
  5
F8
100
AcDbEntity
  8
TA900_ISI_B_DN32
  6
CONTINUOUS
 62
         7
100
AcDbLine
 10
104.9452686072
 20
226.938636918
 30
0.0
 11
106.352925315
 21
226.938636918
 31
0.0
  0
ARC
  5
F9
100
AcDbEntity
  8
TA900_ISI_B_DN32
  6
CONTINUOUS
 62
         7
100
AcDbCircle
 10
161.6601061533
 20
214.438636918
 30
0.0
 40
56.7021538592
100
AcDbArc
 50
167.2645244266
 51
192.7354755734
  0
LINE
  5
FA
100
AcDbEntity
  8
TA900_ISI_B_DN32
  6
CONTINUOUS
 62
         7
100
AcDbLine
 10
15.9092980291
 20
176.938636918
 30
0.0
 11
7.9027416862
 21
176.938636918
 31
0.0
  0
LINE
  5
FB
100
AcDbEntity
  8
TA900_ISI_B_DN32
  6
CONTINUOUS
 62
         7
100
AcDbLine
 10
15.9092980291
 20
226.938636918
 30
0.0
 11
7.9027416862
 21
226.938636918
 31
0.0
  0
LINE
  5
FC
100
AcDbEntity
  8
TA900_ISI_B_DN32
  6
CONTINUOUS
 62
         7
100
AcDbLine
 10
15.9092980291
 20
201.938636918
 30
0.0
 11
7.9027416862
 21
201.938636918
 31
0.0
  0
ARC
  5
FD
100
AcDbEntity
  8
TA900_ISI_B_DN32
  6
CONTINUOUS
 62
         7
100
AcDbCircle
 10
161.6601061533
 20
189.438636918
 30
0.0
 40
56.7021538592
100
AcDbArc
 50
167.2645244266
 51
192.7354755734
  0
LINE
  5
FE
100
AcDbEntity
  8
TA900_ISI_B_DN32
  6
CONTINUOUS
 62
         7
100
AcDbLine
 10
6.1311116721
 20
177.938636918
 30
0.0
 11
6.4950819063
 21
176.938636918
 31
0.0
  0
LINE
  5
FF
100
AcDbEntity
  8
TA900_ISI_B_DN32
  6
CONTINUOUS
 62
         7
100
AcDbLine
 10
104.3811116721
 20
178.488636918
 30
0.0
 11
104.9452655352
 21
176.938636918
 31
0.0
  0
LINE
  5
100
100
AcDbEntity
  8
TA900_ISI_B_DN32
  6
CONTINUOUS
 62
         7
100
AcDbLine
 10
17.8811116721
 20
178.488636918
 30
0.0
 11
30.4578410373
 21
178.488636918
 31
0.0
  0
LINE
  5
101
100
AcDbEntity
  8
TA900_ISI_B_DN32
  6
CONTINUOUS
 62
         7
100
AcDbLine
 10
91.7971420719
 20
178.488636918
 30
0.0
 11
104.3811116721
 21
178.488636918
 31
0.0
  0
LINE
  5
102
100
AcDbEntity
  8
TA900_ISI_B_DN32
  6
CONTINUOUS
 62
         7
100
AcDbLine
 10
6.4950819063
 20
226.938636918
 30
0.0
 11
6.1311116721
 21
225.938636918
 31
0.0
  0
ARC
  5
103
100
AcDbEntity
  8
TA900_ISI_B_DN32
  6
CONTINUOUS
 62
         7
100
AcDbCircle
 10
234.8811116721
 20
201.938636918
 30
0.0
 40
213.0
100
AcDbArc
 50
171.204719168
 51
173.6789949691
  0
LINE
  5
104
100
AcDbEntity
  8
TA900_ISI_B_DN32
  6
CONTINUOUS
 62
         7
100
AcDbLine
 10
104.9452655352
 20
226.938636918
 30
0.0
 11
104.3811116721
 21
225.388636918
 31
0.0
  0
LINE
  5
105
100
AcDbEntity
  8
TA900_ISI_B_DN32
  6
CONTINUOUS
 62
         7
100
AcDbLine
 10
86.831695323
 20
230.738636918
 30
0.0
 11
86.831695323
 21
173.138636918
 31
0.0
  0
ARC
  5
106
100
AcDbEntity
  8
TA900_ISI_B_DN32
  6
CONTINUOUS
 62
         7
100
AcDbCircle
 10
61.1311116721
 20
201.938636918
 30
0.0
 40
38.6
100
AcDbArc
 50
131.7451283675
 51
142.6299626822
  0
LINE
  5
107
100
AcDbEntity
  8
TA900_ISI_B_DN32
  6
CONTINUOUS
 62
         7
100
AcDbLine
 10
35.4305280211
 20
230.738636918
 30
0.0
 11
35.4305280211
 21
173.138636918
 31
0.0
  0
ARC
  5
108
100
AcDbEntity
  8
TA900_ISI_B_DN32
  6
CONTINUOUS
 62
         7
100
AcDbCircle
 10
234.881111672
 20
201.938636918
 30
0.0
 40
213.0
100
AcDbArc
 50
186.3211458554
 51
188.795280832
  0
ARC
  5
109
100
AcDbEntity
  8
TA900_ISI_B_DN32
  6
CONTINUOUS
 62
         7
100
AcDbCircle
 10
29.3269880867
 20
170.1345133326
 30
0.0
 40
5.0
100
AcDbArc
 50
188.795280832
 51
261.204719168
  0
ARC
  5
10A
100
AcDbEntity
  8
TA900_ISI_B_DN32
  6
CONTINUOUS
 62
         7
100
AcDbCircle
 10
29.3269880867
 20
233.7427605034
 30
0.0
 40
5.0
100
AcDbArc
 50
98.795280832
 51
171.204719168
  0
ARC
  5
10B
100
AcDbEntity
  8
TA900_ISI_B_DN32
  6
CONTINUOUS
 62
         7
100
AcDbCircle
 10
92.9352352575
 20
233.7427605034
 30
0.0
 40
5.0
100
AcDbArc
 50
8.795280832
 51
81.204719168
  0
ARC
  5
10C
100
AcDbEntity
  8
TA900_ISI_B_DN32
  6
CONTINUOUS
 62
         7
100
AcDbCircle
 10
61.1311116721
 20
28.188636918
 30
0.0
 40
213.0
100
AcDbArc
 50
81.204719168
 51
98.795280832
  0
ARC
  5
10D
100
AcDbEntity
  8
TA900_ISI_B_DN32
  6
CONTINUOUS
 62
         7
100
AcDbCircle
 10
92.9352352575
 20
170.1345133326
 30
0.0
 40
5.0
100
AcDbArc
 50
278.795280832
 51
351.204719168
  0
ARC
  5
10E
100
AcDbEntity
  8
TA900_ISI_B_DN32
  6
CONTINUOUS
 62
         7
100
AcDbCircle
 10
-112.6188883279
 20
201.938636918
 30
0.0
 40
213.0
100
AcDbArc
 50
351.204719168
 51
353.6789949691
  0
ARC
  5
10F
100
AcDbEntity
  8
TA900_ISI_B_DN32
  6
CONTINUOUS
 62
         7
100
AcDbCircle
 10
61.1311116721
 20
375.688636918
 30
0.0
 40
213.0
100
AcDbArc
 50
261.204719168
 51
278.795280832
  0
LINE
  5
110
100
AcDbEntity
  8
TA900_ISI_B_DN32
  6
CONTINUOUS
 62
         7
100
AcDbLine
 10
30.4650812723
 20
225.388636918
 30
0.0
 11
17.8811116721
 21
225.388636918
 31
0.0
  0
LINE
  5
111
100
AcDbEntity
  8
TA900_ISI_B_DN32
  6
CONTINUOUS
 62
         7
100
AcDbLine
 10
104.3811116721
 20
225.388636918
 30
0.0
 11
91.8043823069
 21
225.388636918
 31
0.0
  0
ARC
  5
112
100
AcDbEntity
  8
TA900_ISI_B_DN32
  6
CONTINUOUS
 62
         7
100
AcDbCircle
 10
-292.0549273008
 20
201.938636918
 30
0.0
 40
384.5770073128
100
AcDbArc
 50
356.5073431238
 51
3.4926568762
  0
ARC
  5
113
100
AcDbEntity
  8
TA900_ISI_B_DN32
  6
CONTINUOUS
 62
         7
100
AcDbCircle
 10
414.3171506449
 20
201.938636918
 30
0.0
 40
384.5770073128
100
AcDbArc
 50
176.5073431238
 51
183.4926568762
  0
ARC
  5
114
100
AcDbEntity
  8
TA900_ISI_B_DN32
  6
CONTINUOUS
 62
         7
100
AcDbCircle
 10
61.1311116721
 20
201.938636918
 30
0.0
 40
38.6
100
AcDbArc
 50
311.7451283675
 51
322.6299626822
  0
ARC
  5
115
100
AcDbEntity
  8
TA900_ISI_B_DN32
  6
CONTINUOUS
 62
         7
100
AcDbCircle
 10
61.1311116721
 20
201.938636918
 30
0.0
 40
38.6
100
AcDbArc
 50
37.3700373178
 51
48.2548716325
  0
LINE
  5
116
100
AcDbEntity
  8
TA900_ISI_B_DN32
  6
CONTINUOUS
 62
         7
100
AcDbLine
 10
86.831695323
 20
173.138636918
 30
0.0
 11
35.4305280211
 21
173.138636918
 31
0.0
  0
ARC
  5
117
100
AcDbEntity
  8
TA900_ISI_B_DN32
  6
CONTINUOUS
 62
         7
100
AcDbCircle
 10
61.1311116721
 20
201.938636918
 30
0.0
 40
38.6
100
AcDbArc
 50
217.3700373178
 51
228.2548716325
  0
LINE
  5
118
100
AcDbEntity
  8
TA900_ISI_B_DN32
  6
CONTINUOUS
 62
         7
100
AcDbLine
 10
86.831695323
 20
230.738636918
 30
0.0
 11
35.4305280211
 21
230.738636918
 31
0.0
  0
ARC
  5
119
100
AcDbEntity
  8
TA900_ISI_B_DN32
  6
CONTINUOUS
 62
         7
100
AcDbCircle
 10
59.0523008196
 20
214.438636918
 30
0.0
 40
56.7021538592
100
AcDbArc
 50
347.2645244266
 51
12.7354755734
  0
LINE
  5
11A
100
AcDbEntity
  8
TA900_ISI_B_DN32
  6
CONTINUOUS
 62
         7
100
AcDbLine
 10
17.3169547369
 20
176.938636918
 30
0.0
 11
15.9092980291
 21
176.938636918
 31
0.0
  0
ARC
  5
11B
100
AcDbEntity
  8
TA900_ISI_B_DN32
  6
CONTINUOUS
 62
         7
100
AcDbCircle
 10
-39.3978828092
 20
189.438636918
 30
0.0
 40
56.7021538592
100
AcDbArc
 50
347.2645244266
 51
12.7354755734
  0
LINE
  5
11C
100
AcDbEntity
  8
TA900_ISI_B_DN32
  6
CONTINUOUS
 62
         7
100
AcDbLine
 10
114.3594816579
 20
226.938636918
 30
0.0
 11
106.352925315
 21
226.938636918
 31
0.0
  0
LINE
  5
11D
100
AcDbEntity
  8
TA900_ISI_B_DN32
  6
CONTINUOUS
 62
         7
100
AcDbLine
 10
6.4950849408
 20
226.938636918
 30
0.0
 11
7.9027416862
 21
226.938636918
 31
0.0
  0
ARC
  5
11E
100
AcDbEntity
  8
TA900_ISI_B_DN32
  6
CONTINUOUS
 62
         7
100
AcDbCircle
 10
63.2099225245
 20
214.438636918
 30
0.0
 40
56.7021538592
100
AcDbArc
 50
167.2645244266
 51
192.7354755734
  0
LINE
  5
11F
100
AcDbEntity
  8
TA900_ISI_B_DN32
  6
CONTINUOUS
 62
         7
100
AcDbLine
 10
7.9027416862
 20
176.938636918
 30
0.0
 11
6.4950849408
 21
176.938636918
 31
0.0
  0
ARC
  5
120
100
AcDbEntity
  8
TA900_ISI_B_DN32
  6
CONTINUOUS
 62
         7
100
AcDbCircle
 10
-39.3978828092
 20
214.438636918
 30
0.0
 40
56.7021538592
100
AcDbArc
 50
347.2645244266
 51
12.7354755734
  0
LINE
  5
121
100
AcDbEntity
  8
TA900_ISI_B_DN32
  6
CONTINUOUS
 62
         7
100
AcDbLine
 10
104.9452686072
 20
176.938636918
 30
0.0
 11
106.352925315
 21
176.938636918
 31
0.0
  0
LINE
  5
122
100
AcDbEntity
  8
TA900_ISI_B_DN32
  6
CONTINUOUS
 62
         7
100
AcDbLine
 10
115.7671384034
 20
176.938636918
 30
0.0
 11
114.3594816579
 21
176.938636918
 31
0.0
  0
LINE
  5
123
100
AcDbEntity
  8
TA900_ISI_B_DN32
  6
CONTINUOUS
 62
         7
100
AcDbLine
 10
114.3594816579
 20
176.938636918
 30
0.0
 11
106.352925315
 21
176.938636918
 31
0.0
  0
LINE
  5
124
100
AcDbEntity
  8
TA900_ISI_B_DN32
  6
CONTINUOUS
 62
         7
100
AcDbLine
 10
114.3594816579
 20
201.938636918
 30
0.0
 11
106.352925315
 21
201.938636918
 31
0.0
  0
ENDBLK
  5
125
100
AcDbEntity
  8
TA900_ISI_B_DN32
  6
CONTINUOUS
 62
         7
100
AcDbBlockEnd
  0
BLOCK
  5
179
100
AcDbEntity
  8
0
 62
         1
 48
0.0
100
AcDbBlockBegin
  2
SE4
 70
         0
 10
0.0
 20
0.0
 30
0.0
  3
SE4
  1

  0
ENDBLK
  5
17A
100
AcDbEntity
  8
0
 62
         1
 48
0.0
100
AcDbBlockEnd
  0
BLOCK
  5
128
100
AcDbEntity
  8
0
 62
         1
 48
0.0
100
AcDbBlockBegin
  2
SE5
 70
         0
 10
0.0
 20
0.0
 30
0.0
  3
SE5
  1

  0
LINE
  5
129
100
AcDbEntity
  8
TA900_ISI_B_DN32
  6
CONTINUOUS
 62
         7
100
AcDbLine
 10
207.4986195959
 20
226.038636918
 30
0.0
 11
207.4986195959
 21
222.0414142672
 31
0.0
  0
LINE
  5
12A
100
AcDbEntity
  8
TA900_ISI_B_DN32
  6
CONTINUOUS
 62
         7
100
AcDbLine
 10
205.4986195959
 20
226.038636918
 30
0.0
 11
213.4986195959
 21
226.038636918
 31
0.0
  0
LINE
  5
12B
100
AcDbEntity
  8
TA900_ISI_B_DN32
  6
CONTINUOUS
 62
         7
100
AcDbLine
 10
195.9986195959
 20
179.938636918
 30
0.0
 11
207.4986195959
 21
179.938636918
 31
0.0
  0
LINE
  5
12C
100
AcDbEntity
  8
TA900_ISI_B_DN32
  6
CONTINUOUS
 62
         7
100
AcDbLine
 10
168.7986195959
 20
212.188636918
 30
0.0
 11
177.6883494001
 21
212.188636918
 31
0.0
  0
LINE
  5
12D
100
AcDbEntity
  8
TA900_ISI_B_DN32
  6
CONTINUOUS
 62
         7
100
AcDbLine
 10
228.6277975334
 20
162.688636918
 30
0.0
 11
231.4278665943
 21
173.138636918
 31
0.0
  0
LINE
  5
12E
100
AcDbEntity
  8
TA900_ISI_B_DN32
  6
CONTINUOUS
 62
         7
100
AcDbLine
 10
192.4986195959
 20
207.188636918
 30
0.0
 11
192.4986195959
 21
196.688636918
 31
0.0
  0
LINE
  5
12F
100
AcDbEntity
  8
TA900_ISI_B_DN32
  6
CONTINUOUS
 62
         7
100
AcDbLine
 10
205.4986195959
 20
165.838636918
 30
0.0
 11
213.4986195959
 21
165.838636918
 31
0.0
  0
LINE
  5
130
100
AcDbEntity
  8
TA900_ISI_B_DN32
  6
CONTINUOUS
 62
         7
100
AcDbLine
 10
177.6883494001
 20
212.188636918
 30
0.0
 11
185.0385561547
 21
212.188636918
 31
0.0
  0
LINE
  5
131
100
AcDbEntity
  8
TA900_ISI_B_DN32
  6
CONTINUOUS
 62
         7
100
AcDbLine
 10
192.4986195959
 20
212.188636918
 30
0.0
 11
192.4986195959
 21
207.188636918
 31
0.0
  0
LINE
  5
132
100
AcDbEntity
  8
TA900_ISI_B_DN32
  6
CONTINUOUS
 62
         7
100
AcDbLine
 10
185.0385561547
 20
212.188636918
 30
0.0
 11
192.4986195959
 21
212.188636918
 31
0.0
  0
LINE
  5
133
100
AcDbEntity
  8
TA900_ISI_B_DN32
  6
CONTINUOUS
 62
         7
100
AcDbLine
 10
177.6883494001
 20
191.688636918
 30
0.0
 11
168.7986195959
 21
191.688636918
 31
0.0
  0
LINE
  5
134
100
AcDbEntity
  8
TA900_ISI_B_DN32
  6
CONTINUOUS
 62
         7
100
AcDbLine
 10
192.4986195959
 20
196.688636918
 30
0.0
 11
192.4986195959
 21
191.688636918
 31
0.0
  0
LINE
  5
135
100
AcDbEntity
  8
TA900_ISI_B_DN32
  6
CONTINUOUS
 62
         7
100
AcDbLine
 10
192.4986195959
 20
191.688636918
 30
0.0
 11
185.0385561547
 21
191.688636918
 31
0.0
  0
LINE
  5
136
100
AcDbEntity
  8
TA900_ISI_B_DN32
  6
CONTINUOUS
 62
         7
100
AcDbLine
 10
185.0385561547
 20
191.688636918
 30
0.0
 11
177.6883494001
 21
191.688636918
 31
0.0
  0
LINE
  5
137
100
AcDbEntity
  8
TA900_ISI_B_DN32
  6
CONTINUOUS
 62
         7
100
AcDbLine
 10
238.7050780395
 20
231.038636918
 30
0.0
 11
236.4986195959
 21
231.038636918
 31
0.0
  0
LINE
  5
138
100
AcDbEntity
  8
TA900_ISI_B_DN32
  6
CONTINUOUS
 62
         7
100
AcDbLine
 10
244.4986195959
 20
231.038636918
 30
0.0
 11
238.7050780395
 21
231.038636918
 31
0.0
  0
LINE
  5
139
100
AcDbEntity
  8
TA900_ISI_B_DN32
  6
CONTINUOUS
 62
         7
100
AcDbLine
 10
244.4986195959
 20
231.038636918
 30
0.0
 11
244.4986195959
 21
230.738636918
 31
0.0
  0
LINE
  5
13A
100
AcDbEntity
  8
TA900_ISI_B_DN32
  6
CONTINUOUS
 62
         7
100
AcDbLine
 10
238.7050780395
 20
231.038636918
 30
0.0
 11
238.7050780395
 21
230.738636918
 31
0.0
  0
LINE
  5
13B
100
AcDbEntity
  8
TA900_ISI_B_DN32
  6
CONTINUOUS
 62
         7
100
AcDbLine
 10
236.4986195959
 20
231.038636918
 30
0.0
 11
236.4986195959
 21
230.738636918
 31
0.0
  0
LINE
  5
13C
100
AcDbEntity
  8
TA900_ISI_B_DN32
  6
CONTINUOUS
 62
         7
100
AcDbLine
 10
213.4986195959
 20
162.688636918
 30
0.0
 11
218.4986195959
 21
162.688636918
 31
0.0
  0
LINE
  5
13D
100
AcDbEntity
  8
TA900_ISI_B_DN32
  6
CONTINUOUS
 62
         7
100
AcDbLine
 10
218.4986195959
 20
241.188636918
 30
0.0
 11
213.4986195959
 21
241.188636918
 31
0.0
  0
LINE
  5
13E
100
AcDbEntity
  8
TA900_ISI_B_DN32
  6
CONTINUOUS
 62
         7
100
AcDbLine
 10
218.4986195959
 20
162.938636918
 30
0.0
 11
218.7486195959
 21
162.688636918
 31
0.0
  0
LINE
  5
13F
100
AcDbEntity
  8
TA900_ISI_B_DN32
  6
CONTINUOUS
 62
         7
100
AcDbLine
 10
218.7486195959
 20
241.188636918
 30
0.0
 11
218.4986195959
 21
240.938636918
 31
0.0
  0
LINE
  5
140
100
AcDbEntity
  8
TA900_ISI_B_DN32
  6
CONTINUOUS
 62
         7
100
AcDbLine
 10
205.4986195959
 20
226.038636918
 30
0.0
 11
205.4986195959
 21
238.038636918
 31
0.0
  0
LINE
  5
141
100
AcDbEntity
  8
TA900_ISI_B_DN32
  6
CONTINUOUS
 62
         7
100
AcDbLine
 10
205.4986195959
 20
165.838636918
 30
0.0
 11
205.4986195959
 21
177.838636918
 31
0.0
  0
LINE
  5
142
100
AcDbEntity
  8
TA900_ISI_B_DN32
  6
CONTINUOUS
 62
         7
100
AcDbLine
 10
207.4986195959
 20
222.0414142672
 30
0.0
 11
213.4986195959
 21
222.0414142672
 31
0.0
  0
LINE
  5
143
100
AcDbEntity
  8
TA900_ISI_B_DN32
  6
CONTINUOUS
 62
         7
100
AcDbLine
 10
195.9986195959
 20
179.938636918
 30
0.0
 11
195.9986195959
 21
223.938636918
 31
0.0
  0
LINE
  5
144
100
AcDbEntity
  8
TA900_ISI_B_DN32
  6
CONTINUOUS
 62
         7
100
AcDbLine
 10
207.4986195959
 20
181.8358595687
 30
0.0
 11
207.4986195959
 21
177.838636918
 31
0.0
  0
LINE
  5
145
100
AcDbEntity
  8
TA900_ISI_B_DN32
  6
CONTINUOUS
 62
         7
100
AcDbLine
 10
218.4986195959
 20
162.688636918
 30
0.0
 11
218.4986195959
 21
165.1933084387
 31
0.0
  0
LINE
  5
146
100
AcDbEntity
  8
TA900_ISI_B_DN32
  6
CONTINUOUS
 62
         7
100
AcDbLine
 10
218.4986195959
 20
169.369991131
 30
0.0
 11
218.4986195959
 21
165.1933084387
 31
0.0
  0
LINE
  5
147
100
AcDbEntity
  8
TA900_ISI_B_DN32
  6
CONTINUOUS
 62
         7
100
AcDbLine
 10
218.4986195959
 20
234.5072827049
 30
0.0
 11
218.4986195959
 21
169.369991131
 31
0.0
  0
LINE
  5
148
100
AcDbEntity
  8
TA900_ISI_B_DN32
  6
CONTINUOUS
 62
         7
100
AcDbLine
 10
192.4986195959
 20
182.188636918
 30
0.0
 11
195.4986195959
 21
182.188636918
 31
0.0
  0
LINE
  5
149
100
AcDbEntity
  8
TA900_ISI_B_DN32
  6
CONTINUOUS
 62
         7
100
AcDbLine
 10
213.4986195959
 20
162.688636918
 30
0.0
 11
213.4986195959
 21
165.1933084387
 31
0.0
  0
LINE
  5
14A
100
AcDbEntity
  8
TA900_ISI_B_DN32
  6
CONTINUOUS
 62
         7
100
AcDbLine
 10
218.4986195959
 20
241.188636918
 30
0.0
 11
218.4986195959
 21
238.6839653972
 31
0.0
  0
LINE
  5
14B
100
AcDbEntity
  8
TA900_ISI_B_DN32
  6
CONTINUOUS
 62
         7
100
AcDbLine
 10
218.4986195959
 20
238.6839653972
 30
0.0
 11
218.4986195959
 21
234.5072827049
 31
0.0
  0
LINE
  5
14C
100
AcDbEntity
  8
TA900_ISI_B_DN32
  6
CONTINUOUS
 62
         7
100
AcDbLine
 10
213.4986195959
 20
169.369991131
 30
0.0
 11
213.4986195959
 21
165.1933084387
 31
0.0
  0
LINE
  5
14D
100
AcDbEntity
  8
TA900_ISI_B_DN32
  6
CONTINUOUS
 62
         7
100
AcDbLine
 10
213.4986195959
 20
234.5072827049
 30
0.0
 11
213.4986195959
 21
169.369991131
 31
0.0
  0
LINE
  5
14E
100
AcDbEntity
  8
TA900_ISI_B_DN32
  6
CONTINUOUS
 62
         7
100
AcDbLine
 10
195.4986195959
 20
187.938636918
 30
0.0
 11
195.9986195959
 21
187.938636918
 31
0.0
  0
LINE
  5
14F
100
AcDbEntity
  8
TA900_ISI_B_DN32
  6
CONTINUOUS
 62
         7
100
AcDbLine
 10
213.4986195959
 20
241.188636918
 30
0.0
 11
213.4986195959
 21
238.6839653972
 31
0.0
  0
LINE
  5
150
100
AcDbEntity
  8
TA900_ISI_B_DN32
  6
CONTINUOUS
 62
         7
100
AcDbLine
 10
213.4986195959
 20
238.038636918
 30
0.0
 11
205.4986195959
 21
238.038636918
 31
0.0
  0
LINE
  5
151
100
AcDbEntity
  8
TA900_ISI_B_DN32
  6
CONTINUOUS
 62
         7
100
AcDbLine
 10
213.4986195959
 20
238.6839653972
 30
0.0
 11
213.4986195959
 21
234.5072827049
 31
0.0
  0
LINE
  5
152
100
AcDbEntity
  8
TA900_ISI_B_DN32
  6
CONTINUOUS
 62
         7
100
AcDbLine
 10
207.4986195959
 20
223.938636918
 30
0.0
 11
195.9986195959
 21
223.938636918
 31
0.0
  0
LINE
  5
153
100
AcDbEntity
  8
TA900_ISI_B_DN32
  6
CONTINUOUS
 62
         7
100
AcDbLine
 10
228.8019645085
 20
230.738636918
 30
0.0
 11
251.9986195959
 21
230.738636918
 31
0.0
  0
LINE
  5
154
100
AcDbEntity
  8
TA900_ISI_B_DN32
  6
CONTINUOUS
 62
         7
100
AcDbLine
 10
228.8019645085
 20
173.138636918
 30
0.0
 11
251.9986195959
 21
173.138636918
 31
0.0
  0
LINE
  5
155
100
AcDbEntity
  8
TA900_ISI_B_DN32
  6
CONTINUOUS
 62
         7
100
AcDbLine
 10
213.4986195959
 20
177.838636918
 30
0.0
 11
205.4986195959
 21
177.838636918
 31
0.0
  0
CIRCLE
  5
156
100
AcDbEntity
  8
TA900_ISI_B_DN32
  6
CONTINUOUS
 62
         7
100
AcDbCircle
 10
250.9986195959
 20
201.938636918
 30
0.0
 40
24.0
  0
LINE
  5
157
100
AcDbEntity
  8
TA900_ISI_B_DN32
  6
CONTINUOUS
 62
         7
100
AcDbLine
 10
265.4323763256
 20
176.938636918
 30
0.0
 11
279.8661330554
 21
201.938636918
 31
0.0
  0
LINE
  5
158
100
AcDbEntity
  8
TA900_ISI_B_DN32
  6
CONTINUOUS
 62
         7
100
AcDbLine
 10
218.7486195959
 20
165.1933084387
 30
0.0
 11
218.7486195959
 21
162.688636918
 31
0.0
  0
LINE
  5
159
100
AcDbEntity
  8
TA900_ISI_B_DN32
  6
CONTINUOUS
 62
         7
100
AcDbLine
 10
163.7986195959
 20
207.188636918
 30
0.0
 11
163.7986195959
 21
196.688636918
 31
0.0
  0
LINE
  5
15A
100
AcDbEntity
  8
TA900_ISI_B_DN32
  6
CONTINUOUS
 62
         7
100
AcDbLine
 10
213.4986195959
 20
181.8358595687
 30
0.0
 11
207.4986195959
 21
181.8358595687
 31
0.0
  0
ARC
  5
15B
100
AcDbEntity
  8
TA900_ISI_B_DN32
  6
CONTINUOUS
 62
         7
100
AcDbCircle
 10
168.7986195959
 20
207.188636918
 30
0.0
 40
5.0
100
AcDbArc
 50
90.0
 51
180.0
  0
ARC
  5
15C
100
AcDbEntity
  8
TA900_ISI_B_DN32
  6
CONTINUOUS
 62
         7
100
AcDbCircle
 10
168.7986195959
 20
196.688636918
 30
0.0
 40
5.0
100
AcDbArc
 50
180.0
 51
270.0
  0
LINE
  5
15D
100
AcDbEntity
  8
TA900_ISI_B_DN32
  6
CONTINUOUS
 62
         7
100
AcDbLine
 10
207.4986195959
 20
222.0414142672
 30
0.0
 11
207.4986195959
 21
181.8358595687
 31
0.0
  0
ARC
  5
15E
100
AcDbEntity
  8
TA900_ISI_B_DN32
  6
CONTINUOUS
 62
         7
100
AcDbCircle
 10
192.4986195959
 20
201.938636918
 30
0.0
 40
19.75
100
AcDbArc
 50
211.2643488704
 51
270.0
  0
ARC
  5
15F
100
AcDbEntity
  8
TA900_ISI_B_DN32
  6
CONTINUOUS
 62
         7
100
AcDbCircle
 10
192.4986195959
 20
201.938636918
 30
0.0
 40
19.75
100
AcDbArc
 50
90.0
 51
148.7356511296
  0
LINE
  5
160
100
AcDbEntity
  8
TA900_ISI_B_DN32
  6
CONTINUOUS
 62
         7
100
AcDbLine
 10
195.4986195959
 20
221.688636918
 30
0.0
 11
192.4986195959
 21
221.688636918
 31
0.0
  0
LINE
  5
161
100
AcDbEntity
  8
TA900_ISI_B_DN32
  6
CONTINUOUS
 62
         7
100
AcDbLine
 10
195.9986195959
 20
215.938636918
 30
0.0
 11
195.4986195959
 21
215.938636918
 31
0.0
  0
LINE
  5
162
100
AcDbEntity
  8
TA900_ISI_B_DN32
  6
CONTINUOUS
 62
         7
100
AcDbLine
 10
195.4986195959
 20
182.188636918
 30
0.0
 11
195.4986195959
 21
221.688636918
 31
0.0
  0
LINE
  5
163
100
AcDbEntity
  8
TA900_ISI_B_DN32
  6
CONTINUOUS
 62
         7
100
AcDbLine
 10
218.7486195959
 20
162.688636918
 30
0.0
 11
228.6277975334
 21
162.688636918
 31
0.0
  0
LINE
  5
164
100
AcDbEntity
  8
TA900_ISI_B_DN32
  6
CONTINUOUS
 62
         7
100
AcDbLine
 10
228.6277975334
 20
241.188636918
 30
0.0
 11
218.7486195959
 21
241.188636918
 31
0.0
  0
ARC
  5
165
100
AcDbEntity
  8
TA900_ISI_B_DN32
  6
CONTINUOUS
 62
         7
100
AcDbCircle
 10
251.9986195959
 20
201.938636918
 30
0.0
 40
28.8
100
AcDbArc
 50
270.0
 51
90.0
  0
ARC
  5
166
100
AcDbEntity
  8
TA900_ISI_B_DN32
  6
CONTINUOUS
 62
         7
100
AcDbCircle
 10
-9.446960814
 20
198.5614051388
 30
0.0
 40
238.1633886186
100
AcDbArc
 50
3.3889615437
 51
8.6807953991
  0
SPLINE
  5
167
100
AcDbEntity
  8
TA900_ISI_B_DN32
  6
CONTINUOUS
 62
         7
100
AcDbSpline
210
0.0
220
0.0
230
1.0
 70
         8
 71
         3
 72
        20
 73
        16
 74
         0
 42
0.0
 43
0.0
 40
0.0
 40
0.0
 40
0.0
 40
0.0
 40
0.2500000000000001
 40
0.2500000000000001
 40
0.375
 40
0.375
 40
0.5
 40
0.5
 40
0.6249999999999999
 40
0.6249999999999999
 40
0.7499999999999999
 40
0.7499999999999999
 40
0.875
 40
0.875
 40
1.0
 40
1.0
 40
1.0
 40
1.0
 10
225.98815458786959
 20
169.36999113098474
 30
0.0
 10
225.91166264230424
 20
168.84858752493989
 30
0.0
 10
225.85360100820569
 20
168.35101575512547
 30
0.0
 10
225.79350779118286
 20
167.64108680041934
 30
0.0
 10
225.77847168715655
 20
167.41496373530069
 30
0.0
 10
225.75842846207902
 20
166.98949458785134
 30
0.0
 10
225.75332877118359
 20
166.78906633130174
 30
0.0
 10
225.75324385397377
 20
166.4135864625452
 30
0.0
 10
225.75834614519962
 20
166.24059838096062
 30
0.0
 10
225.77833077563236
 20
165.9320620866186
 30
0.0
 10
225.79320475227306
 20
165.79503718489991
 30
0.0
 10
225.83296394678928
 20
165.55600187508207
 30
0.0
 10
225.85786996687384
 20
165.4548001264267
 30
0.0
 10
225.91626807273926
 20
165.29413899534305
 30
0.0
 10
225.94990638287805
 20
165.23364757729897
 30
0.0
 10
225.98815458786959
 20
165.19330843867704
 30
0.0
  0
ARC
  5
168
100
AcDbEntity
  8
TA900_ISI_B_DN32
  6
CONTINUOUS
 62
         7
100
AcDbCircle
 10
-5.571754112
 20
204.9396743462
 30
0.0
 40
234.2758922321
100
AcDbArc
 50
351.2671126303
 51
356.648837063
  0
SPLINE
  5
169
100
AcDbEntity
  8
TA900_ISI_B_DN32
  6
CONTINUOUS
 62
         7
100
AcDbSpline
210
0.0
220
0.0
230
1.0
 70
         8
 71
         3
 72
        20
 73
        16
 74
         0
 42
0.0
 43
0.0
 40
0.0
 40
0.0
 40
0.0
 40
0.0
 40
0.2499999999999977
 40
0.2499999999999977
 40
0.3749999999999981
 40
0.3749999999999981
 40
0.4999999999999985
 40
0.4999999999999985
 40
0.6249999999999988
 40
0.6249999999999988
 40
0.7499999999999991
 40
0.7499999999999991
 40
0.8749999999999996
 40
0.8749999999999996
 40
1.0
 40
1.0
 40
1.0
 40
1.0
 10
225.98815458786959
 20
238.68396539724836
 30
0.0
 10
225.91166264230424
 20
238.60329182848079
 30
0.0
 10
225.85360100820566
 20
238.44387154228903
 30
0.0
 10
225.79350779118283
 20
238.084782069537
 30
0.0
 10
225.77847168715655
 20
237.94669087870068
 30
0.0
 10
225.75842846207902
 20
237.63863495052766
 30
0.0
 10
225.75332877118359
 20
237.46813075255798
 30
0.0
 10
225.75324385397374
 20
237.09314889276132
 30
0.0
 10
225.75834614519962
 20
236.89022144709639
 30
0.0
 10
225.77833077563233
 20
236.46461420407854
 30
0.0
 10
225.79320475227306
 20
236.24050567447145
 30
0.0
 10
225.83296394678928
 20
235.76933816277952
 30
0.0
 10
225.85786996687386
 20
235.52297628529038
 30
0.0
 10
225.91626807273926
 20
235.02325267338537
 30
0.0
 10
225.94990638287805
 20
234.76799972370563
 30
0.0
 10
225.98815458786959
 20
234.50728270494068
 30
0.0
  0
ARC
  5
16A
100
AcDbEntity
  8
TA900_ISI_B_DN32
  6
CONTINUOUS
 62
         7
100
AcDbCircle
 10
249.2290214149
 20
216.833990864
 30
0.0
 40
31.899204974
100
AcDbArc
 50
130.2273744939
 51
136.7668110506
  0
LINE
  5
16B
100
AcDbEntity
  8
TA900_ISI_B_DN32
  6
CONTINUOUS
 62
         7
100
AcDbLine
 10
231.4278665943
 20
230.738636918
 30
0.0
 11
228.6277975334
 21
241.188636918
 31
0.0
  0
LINE
  5
16C
100
AcDbEntity
  8
TA900_ISI_B_DN32
  6
CONTINUOUS
 62
         7
100
AcDbLine
 10
218.7486195959
 20
238.6839653972
 30
0.0
 11
218.7486195959
 21
241.188636918
 31
0.0
  0
LINE
  5
16D
100
AcDbEntity
  8
TA900_ISI_B_DN32
  6
CONTINUOUS
 62
         7
100
AcDbLine
 10
218.7486195959
 20
169.369991131
 30
0.0
 11
218.7486195959
 21
165.1933084387
 31
0.0
  0
LINE
  5
16E
100
AcDbEntity
  8
TA900_ISI_B_DN32
  6
CONTINUOUS
 62
         7
100
AcDbLine
 10
218.7486195959
 20
238.6839653972
 30
0.0
 11
218.7486195959
 21
234.5072827049
 31
0.0
  0
LINE
  5
16F
100
AcDbEntity
  8
TA900_ISI_B_DN32
  6
CONTINUOUS
 62
         7
100
AcDbLine
 10
218.7486195959
 20
234.5072827049
 30
0.0
 11
218.7486195959
 21
169.369991131
 31
0.0
  0
ARC
  5
170
100
AcDbEntity
  8
TA900_ISI_B_DN32
  6
CONTINUOUS
 62
         7
100
AcDbCircle
 10
249.2290214193
 20
187.0432829673
 30
0.0
 40
31.8992049741
100
AcDbArc
 50
223.2331889379
 51
229.7726254947
  0
LINE
  5
171
100
AcDbEntity
  8
TA900_ISI_B_DN32
  6
CONTINUOUS
 62
         7
100
AcDbLine
 10
228.8019645085
 20
190.3758555776
 30
0.0
 11
228.8019645085
 21
173.138636918
 31
0.0
  0
LINE
  5
172
100
AcDbEntity
  8
TA900_ISI_B_DN32
  6
CONTINUOUS
 62
         7
100
AcDbLine
 10
228.8019645085
 20
230.738636918
 30
0.0
 11
228.8019645085
 21
213.5014820606
 31
0.0
  0
LINE
  5
173
100
AcDbEntity
  8
TA900_ISI_B_DN32
  6
CONTINUOUS
 62
         7
100
AcDbLine
 10
279.8661330554
 20
201.938636918
 30
0.0
 11
265.4323763256
 21
226.938636918
 31
0.0
  0
LINE
  5
174
100
AcDbEntity
  8
TA900_ISI_B_DN32
  6
CONTINUOUS
 62
         7
100
AcDbLine
 10
265.4323763256
 20
226.938636918
 30
0.0
 11
236.5648628661
 21
226.938636918
 31
0.0
  0
LINE
  5
175
100
AcDbEntity
  8
TA900_ISI_B_DN32
  6
CONTINUOUS
 62
         7
100
AcDbLine
 10
236.5648628661
 20
226.938636918
 30
0.0
 11
222.1311061364
 21
201.938636918
 31
0.0
  0
LINE
  5
176
100
AcDbEntity
  8
TA900_ISI_B_DN32
  6
CONTINUOUS
 62
         7
100
AcDbLine
 10
222.1311061364
 20
201.938636918
 30
0.0
 11
236.5648628661
 21
176.938636918
 31
0.0
  0
LINE
  5
177
100
AcDbEntity
  8
TA900_ISI_B_DN32
  6
CONTINUOUS
 62
         7
100
AcDbLine
 10
236.5648628661
 20
176.938636918
 30
0.0
 11
265.4323763256
 21
176.938636918
 31
0.0
  0
ENDBLK
  5
178
100
AcDbEntity
  8
TA900_ISI_B_DN32
  6
CONTINUOUS
 62
         7
100
AcDbBlockEnd
  0
BLOCK
  5
1EA
100
AcDbEntity
  8
0
 62
         1
 48
0.0
100
AcDbBlockBegin
  2
SE6
 70
         0
 10
0.0
 20
0.0
 30
0.0
  3
SE6
  1

  0
ENDBLK
  5
1EB
100
AcDbEntity
  8
0
 62
         1
 48
0.0
100
AcDbBlockEnd
  0
BLOCK
  5
17B
100
AcDbEntity
  8
0
 62
         1
 48
0.0
100
AcDbBlockBegin
  2
SE7
 70
         0
 10
0.0
 20
0.0
 30
0.0
  3
SE7
  1

  0
LINE
  5
17C
100
AcDbEntity
  8
TA900_ISI_B_DN32
  6
CONTINUOUS
 62
         7
100
AcDbLine
 10
185.0030780076
 20
10.3933179692
 30
0.0
 11
186.7747080217
 21
5.5258045097
 31
0.0
  0
LINE
  5
17D
100
AcDbEntity
  8
TA900_ISI_B_DN32
  6
CONTINUOUS
 62
         7
100
AcDbLine
 10
283.2530780076
 20
10.9433179692
 30
0.0
 11
285.2248916505
 21
5.5258045097
 31
0.0
  0
ARC
  5
17E
100
AcDbEntity
  8
TA900_ISI_B_DN32
  6
CONTINUOUS
 62
         7
100
AcDbCircle
 10
240.0030780076
 20
92.8933179692
 30
0.0
 40
16.8819430161
100
AcDbArc
 50
0.0
 51
180.0
  0
LINE
  5
17F
100
AcDbEntity
  8
TA900_ISI_B_DN32
  6
CONTINUOUS
 62
         7
100
AcDbLine
 10
218.0030780076
 20
89.3933179692
 30
0.0
 11
218.0030780076
 21
77.8933179692
 31
0.0
  0
LINE
  5
180
100
AcDbEntity
  8
TA900_ISI_B_DN32
  6
CONTINUOUS
 62
         7
100
AcDbLine
 10
166.0030780076
 20
92.8933179692
 30
0.0
 11
223.1211349914
 21
92.8933179692
 31
0.0
  0
LINE
  5
181
100
AcDbEntity
  8
TA900_ISI_B_DN32
  6
CONTINUOUS
 62
         7
100
AcDbLine
 10
256.8850210237
 20
92.8933179692
 30
0.0
 11
278.5030780076
 21
92.8933179692
 31
0.0
  0
LINE
  5
182
100
AcDbEntity
  8
TA900_ISI_B_DN32
  6
CONTINUOUS
 62
         7
100
AcDbLine
 10
200.7530780076
 20
66.6433179692
 30
0.0
 11
200.7530780076
 21
57.8251163095
 31
0.0
  0
LINE
  5
183
100
AcDbEntity
  8
TA900_ISI_B_DN32
  6
CONTINUOUS
 62
         7
100
AcDbLine
 10
264.1030780075
 20
79.8933179692
 30
0.0
 11
264.1030780075
 21
71.8933179692
 31
0.0
  0
LINE
  5
184
100
AcDbEntity
  8
TA900_ISI_B_DN32
  6
CONTINUOUS
 62
         7
100
AcDbLine
 10
161.0030780076
 20
92.8933179692
 30
0.0
 11
161.0030780076
 21
106.5201670869
 31
0.0
  0
LINE
  5
185
100
AcDbEntity
  8
TA900_ISI_B_DN32
  6
CONTINUOUS
 62
         7
100
AcDbLine
 10
166.0030780076
 20
92.8933179692
 30
0.0
 11
161.0030780076
 21
92.8933179692
 31
0.0
  0
LINE
  5
186
100
AcDbEntity
  8
TA900_ISI_B_DN32
  6
CONTINUOUS
 62
         7
100
AcDbLine
 10
283.5030780076
 20
92.8933179692
 30
0.0
 11
278.5030780076
 21
92.8933179692
 31
0.0
  0
LINE
  5
187
100
AcDbEntity
  8
TA900_ISI_B_DN32
  6
CONTINUOUS
 62
         7
100
AcDbLine
 10
203.9030780075
 20
79.8933179692
 30
0.0
 11
203.9030780075
 21
71.8933179692
 31
0.0
  0
ARC
  5
188
100
AcDbEntity
  8
TA900_ISI_B_DN32
  6
CONTINUOUS
 62
         7
100
AcDbCircle
 10
176.0030780076
 20
106.5201670869
 30
0.0
 40
15.0
100
AcDbArc
 50
91.0506521596
 51
180.0
  0
LINE
  5
189
100
AcDbEntity
  8
TA900_ISI_B_DN32
  6
CONTINUOUS
 62
         7
100
AcDbLine
 10
283.5030780076
 20
100.3533814104
 30
0.0
 11
283.5030780076
 21
92.8933179692
 31
0.0
  0
ARC
  5
18A
100
AcDbEntity
  8
TA900_ISI_B_DN32
  6
CONTINUOUS
 62
         7
100
AcDbCircle
 10
183.9812072783
 20
-328.5066820308
 30
0.0
 40
450.1
100
AcDbArc
 50
78.5295989843
 51
91.0506521596
  0
ARC
  5
18B
100
AcDbEntity
  8
TA900_ISI_B_DN32
  6
CONTINUOUS
 62
         7
100
AcDbCircle
 10
271.0030780076
 20
100.3533814104
 30
0.0
 40
12.5
100
AcDbArc
 50
0.0
 51
78.5295989843
  0
LINE
  5
18C
100
AcDbEntity
  8
TA900_ISI_B_DN32
  6
CONTINUOUS
 62
         7
100
AcDbLine
 10
186.7747080217
 20
63.2608314286
 30
0.0
 11
185.0030780076
 21
58.3933179692
 31
0.0
  0
LINE
  5
18D
100
AcDbEntity
  8
TA900_ISI_B_DN32
  6
CONTINUOUS
 62
         7
100
AcDbLine
 10
285.2248916505
 20
63.2608314286
 30
0.0
 11
283.2530780076
 21
57.8433179692
 31
0.0
  0
LINE
  5
18E
100
AcDbEntity
  8
TA900_ISI_B_DN32
  6
CONTINUOUS
 62
         7
100
AcDbLine
 10
214.3024943566
 20
4.5933179692
 30
0.0
 11
265.7036616585
 21
4.5933179692
 31
0.0
  0
ARC
  5
18F
100
AcDbEntity
  8
TA900_ISI_B_DN32
  6
CONTINUOUS
 62
         7
100
AcDbCircle
 10
240.0030780076
 20
33.3933179692
 30
0.0
 40
38.6
100
AcDbArc
 50
311.7451283675
 51
324.4811997172
  0
LINE
  5
190
100
AcDbEntity
  8
TA900_ISI_B_DN32
  6
CONTINUOUS
 62
         7
100
AcDbLine
 10
200.7530780076
 20
71.8933179692
 30
0.0
 11
200.7530780076
 21
66.8933179692
 31
0.0
  0
LINE
  5
191
100
AcDbEntity
  8
TA900_ISI_B_DN32
  6
CONTINUOUS
 62
         7
100
AcDbLine
 10
279.2530780076
 20
66.8933179692
 30
0.0
 11
279.2530780076
 21
71.8933179692
 31
0.0
  0
LINE
  5
192
100
AcDbEntity
  8
TA900_ISI_B_DN32
  6
CONTINUOUS
 62
         7
100
AcDbLine
 10
279.2530780076
 20
66.6433179692
 30
0.0
 11
279.0030780076
 21
66.8933179692
 31
0.0
  0
LINE
  5
193
100
AcDbEntity
  8
TA900_ISI_B_DN32
  6
CONTINUOUS
 62
         7
100
AcDbLine
 10
201.0030780076
 20
66.8933179692
 30
0.0
 11
200.7530780076
 21
66.6433179692
 31
0.0
  0
LINE
  5
194
100
AcDbEntity
  8
TA900_ISI_B_DN32
  6
CONTINUOUS
 62
         7
100
AcDbLine
 10
264.1030780075
 20
79.8933179692
 30
0.0
 11
276.1030780075
 21
79.8933179692
 31
0.0
  0
LINE
  5
195
100
AcDbEntity
  8
TA900_ISI_B_DN32
  6
CONTINUOUS
 62
         7
100
AcDbLine
 10
203.9030780075
 20
79.8933179692
 30
0.0
 11
215.9030780075
 21
79.8933179692
 31
0.0
  0
LINE
  5
196
100
AcDbEntity
  8
TA900_ISI_B_DN32
  6
CONTINUOUS
 62
         7
100
AcDbLine
 10
219.9003006583
 20
77.8933179692
 30
0.0
 11
215.9030780075
 21
77.8933179692
 31
0.0
  0
LINE
  5
197
100
AcDbEntity
  8
TA900_ISI_B_DN32
  6
CONTINUOUS
 62
         7
100
AcDbLine
 10
218.0030780076
 20
89.3933179692
 30
0.0
 11
262.0030780076
 21
89.3933179692
 31
0.0
  0
LINE
  5
198
100
AcDbEntity
  8
TA900_ISI_B_DN32
  6
CONTINUOUS
 62
         7
100
AcDbLine
 10
264.1030780075
 20
77.8933179692
 30
0.0
 11
260.1058553568
 21
77.8933179692
 31
0.0
  0
LINE
  5
199
100
AcDbEntity
  8
TA900_ISI_B_DN32
  6
CONTINUOUS
 62
         7
100
AcDbLine
 10
279.2530780076
 20
66.8933179692
 30
0.0
 11
276.7484064868
 21
66.8933179692
 31
0.0
  0
LINE
  5
19A
100
AcDbEntity
  8
TA900_ISI_B_DN32
  6
CONTINUOUS
 62
         7
100
AcDbLine
 10
260.1058553568
 20
77.8933179692
 30
0.0
 11
219.9003006583
 21
77.8933179692
 31
0.0
  0
LINE
  5
19B
100
AcDbEntity
  8
TA900_ISI_B_DN32
  6
CONTINUOUS
 62
         7
100
AcDbLine
 10
276.7484064868
 20
66.8933179692
 30
0.0
 11
272.5717237945
 21
66.8933179692
 31
0.0
  0
LINE
  5
19C
100
AcDbEntity
  8
TA900_ISI_B_DN32
  6
CONTINUOUS
 62
         7
100
AcDbLine
 10
272.5717237945
 20
66.8933179692
 30
0.0
 11
207.4344322206
 21
66.8933179692
 31
0.0
  0
LINE
  5
19D
100
AcDbEntity
  8
TA900_ISI_B_DN32
  6
CONTINUOUS
 62
         7
100
AcDbLine
 10
220.2530780076
 20
92.8933179692
 30
0.0
 11
220.2530780076
 21
89.8933179692
 31
0.0
  0
LINE
  5
19E
100
AcDbEntity
  8
TA900_ISI_B_DN32
  6
CONTINUOUS
 62
         7
100
AcDbLine
 10
279.2530780076
 20
71.8933179692
 30
0.0
 11
276.7484064868
 21
71.8933179692
 31
0.0
  0
LINE
  5
19F
100
AcDbEntity
  8
TA900_ISI_B_DN32
  6
CONTINUOUS
 62
         7
100
AcDbLine
 10
203.2577495283
 20
66.8933179692
 30
0.0
 11
200.7530780076
 21
66.8933179692
 31
0.0
  0
LINE
  5
1A0
100
AcDbEntity
  8
TA900_ISI_B_DN32
  6
CONTINUOUS
 62
         7
100
AcDbLine
 10
207.4344322206
 20
66.8933179692
 30
0.0
 11
203.2577495283
 21
66.8933179692
 31
0.0
  0
LINE
  5
1A1
100
AcDbEntity
  8
TA900_ISI_B_DN32
  6
CONTINUOUS
 62
         7
100
AcDbLine
 10
276.7484064868
 20
71.8933179692
 30
0.0
 11
272.5717237945
 21
71.8933179692
 31
0.0
  0
LINE
  5
1A2
100
AcDbEntity
  8
TA900_ISI_B_DN32
  6
CONTINUOUS
 62
         7
100
AcDbLine
 10
272.5717237945
 20
71.8933179692
 30
0.0
 11
207.4344322206
 21
71.8933179692
 31
0.0
  0
LINE
  5
1A3
100
AcDbEntity
  8
TA900_ISI_B_DN32
  6
CONTINUOUS
 62
         7
100
AcDbLine
 10
226.0030780076
 20
89.8933179692
 30
0.0
 11
226.0030780076
 21
89.3933179692
 31
0.0
  0
LINE
  5
1A4
100
AcDbEntity
  8
TA900_ISI_B_DN32
  6
CONTINUOUS
 62
         7
100
AcDbLine
 10
203.2577495283
 20
71.8933179692
 30
0.0
 11
200.7530780076
 21
71.8933179692
 31
0.0
  0
LINE
  5
1A5
100
AcDbEntity
  8
TA900_ISI_B_DN32
  6
CONTINUOUS
 62
         7
100
AcDbLine
 10
207.4344322206
 20
71.8933179692
 30
0.0
 11
203.2577495283
 21
71.8933179692
 31
0.0
  0
LINE
  5
1A6
100
AcDbEntity
  8
TA900_ISI_B_DN32
  6
CONTINUOUS
 62
         7
100
AcDbLine
 10
262.0030780076
 20
77.8933179692
 30
0.0
 11
262.0030780076
 21
89.3933179692
 31
0.0
  0
LINE
  5
1A7
100
AcDbEntity
  8
TA900_ISI_B_DN32
  6
CONTINUOUS
 62
         7
100
AcDbLine
 10
265.7036616585
 20
56.5899730566
 30
0.0
 11
265.7036616585
 21
33.3933179692
 31
0.0
  0
LINE
  5
1A8
100
AcDbEntity
  8
TA900_ISI_B_DN32
  6
CONTINUOUS
 62
         7
100
AcDbLine
 10
214.3024943566
 20
56.5899730566
 30
0.0
 11
214.3024943566
 21
33.3933179692
 31
0.0
  0
LINE
  5
1A9
100
AcDbEntity
  8
TA900_ISI_B_DN32
  6
CONTINUOUS
 62
         7
100
AcDbLine
 10
200.85635352
 20
56.8859344807
 30
0.0
 11
202.1514070131
 21
56.5899730566
 31
0.0
  0
LINE
  5
1AA
100
AcDbEntity
  8
TA900_ISI_B_DN32
  6
CONTINUOUS
 62
         7
100
AcDbLine
 10
295.0030780076
 20
58.3933179692
 30
0.0
 11
295.0030780076
 21
10.3933179692
 31
0.0
  0
ARC
  5
1AB
100
AcDbEntity
  8
TA900_ISI_B_DN32
  6
CONTINUOUS
 62
         7
100
AcDbCircle
 10
-17.1681577421
 20
33.8513105274
 30
0.0
 40
219.2379561384
100
AcDbArc
 50
6.0310134884
 51
6.2826683908
  0
LINE
  5
1AC
100
AcDbEntity
  8
TA900_ISI_B_DN32
  6
CONTINUOUS
 62
         7
100
AcDbLine
 10
276.1030780075
 20
71.8933179692
 30
0.0
 11
276.1030780075
 21
79.8933179692
 31
0.0
  0
LINE
  5
1AD
100
AcDbEntity
  8
TA900_ISI_B_DN32
  6
CONTINUOUS
 62
         7
100
AcDbLine
 10
196.7530780076
 20
57.8433179692
 30
0.0
 11
196.7530780076
 21
10.9433179692
 31
0.0
  0
ARC
  5
1AE
100
AcDbEntity
  8
TA900_ISI_B_DN32
  6
CONTINUOUS
 62
         7
100
AcDbCircle
 10
275.2137916946
 20
12.7426828745
 30
0.0
 40
19.4092573746
100
AcDbArc
 50
338.1716867869
 51
21.8283132131
  0
LINE
  5
1AF
100
AcDbEntity
  8
TA900_ISI_B_DN32
  6
CONTINUOUS
 62
         7
100
AcDbLine
 10
185.0030780076
 20
58.3933179692
 30
0.0
 11
185.0030780076
 21
10.3933179692
 31
0.0
  0
ARC
  5
1B0
100
AcDbEntity
  8
TA900_ISI_B_DN32
  6
CONTINUOUS
 62
         7
100
AcDbCircle
 10
204.7923643205
 20
12.7426828745
 30
0.0
 40
19.4092573746
100
AcDbArc
 50
158.1716867869
 51
201.8283132131
  0
LINE
  5
1B1
100
AcDbEntity
  8
TA900_ISI_B_DN32
  6
CONTINUOUS
 62
         7
100
AcDbLine
 10
283.2530780076
 20
57.8433179692
 30
0.0
 11
283.2530780076
 21
10.9433179692
 31
0.0
  0
LINE
  5
1B2
100
AcDbEntity
  8
TA900_ISI_B_DN32
  6
CONTINUOUS
 62
         7
100
AcDbLine
 10
215.9030780075
 20
71.8933179692
 30
0.0
 11
215.9030780075
 21
79.8933179692
 31
0.0
  0
ARC
  5
1B3
100
AcDbEntity
  8
TA900_ISI_B_DN32
  6
CONTINUOUS
 62
         7
100
AcDbCircle
 10
176.7636080658
 20
56.0439530638
 30
0.0
 40
19.4092573746
100
AcDbArc
 50
338.1716867869
 51
21.8283132131
  0
ARC
  5
1B4
100
AcDbEntity
  8
TA900_ISI_B_DN32
  6
CONTINUOUS
 62
         7
100
AcDbCircle
 10
303.2425479493
 20
56.0439530638
 30
0.0
 40
19.4092573746
100
AcDbArc
 50
158.1716867869
 51
201.8283132131
  0
LINE
  5
1B5
100
AcDbEntity
  8
TA900_ISI_B_DN32
  6
CONTINUOUS
 62
         7
100
AcDbLine
 10
285.2248916505
 20
63.2608314286
 30
0.0
 11
293.2314479934
 21
63.2608314286
 31
0.0
  0
LINE
  5
1B6
100
AcDbEntity
  8
TA900_ISI_B_DN32
  6
CONTINUOUS
 62
         7
100
AcDbLine
 10
285.2248916505
 20
48.8270746989
 30
0.0
 11
293.2314479934
 21
48.8270746989
 31
0.0
  0
LINE
  5
1B7
100
AcDbEntity
  8
TA900_ISI_B_DN32
  6
CONTINUOUS
 62
         7
100
AcDbLine
 10
285.2248916505
 20
5.5258045097
 30
0.0
 11
293.2314479934
 21
5.5258045097
 31
0.0
  0
LINE
  5
1B8
100
AcDbEntity
  8
TA900_ISI_B_DN32
  6
CONTINUOUS
 62
         7
100
AcDbLine
 10
285.2248916505
 20
19.9595612394
 30
0.0
 11
293.2314479934
 21
19.9595612394
 31
0.0
  0
ARC
  5
1B9
100
AcDbEntity
  8
TA900_ISI_B_DN32
  6
CONTINUOUS
 62
         7
100
AcDbCircle
 10
176.7636080658
 20
12.7426828745
 30
0.0
 40
19.4092573746
100
AcDbArc
 50
338.1716867869
 51
21.8283132131
  0
LINE
  5
1BA
100
AcDbEntity
  8
TA900_ISI_B_DN32
  6
CONTINUOUS
 62
         7
100
AcDbLine
 10
207.4344322206
 20
66.6433179692
 30
0.0
 11
203.2577495283
 21
66.6433179692
 31
0.0
  0
LINE
  5
1BB
100
AcDbEntity
  8
TA900_ISI_B_DN32
  6
CONTINUOUS
 62
         7
100
AcDbLine
 10
200.7530780076
 20
66.6433179692
 30
0.0
 11
203.2577495283
 21
66.6433179692
 31
0.0
  0
LINE
  5
1BC
100
AcDbEntity
  8
TA900_ISI_B_DN32
  6
CONTINUOUS
 62
         7
100
AcDbLine
 10
219.9003006583
 20
71.8933179692
 30
0.0
 11
219.9003006583
 21
77.8933179692
 31
0.0
  0
LINE
  5
1BD
100
AcDbEntity
  8
TA900_ISI_B_DN32
  6
CONTINUOUS
 62
         7
100
AcDbLine
 10
260.1058553568
 20
77.8933179692
 30
0.0
 11
260.1058553568
 21
71.8933179692
 31
0.0
  0
LINE
  5
1BE
100
AcDbEntity
  8
TA900_ISI_B_DN32
  6
CONTINUOUS
 62
         7
100
AcDbLine
 10
272.5717237945
 20
66.6433179692
 30
0.0
 11
207.4344322206
 21
66.6433179692
 31
0.0
  0
LINE
  5
1BF
100
AcDbEntity
  8
TA900_ISI_B_DN32
  6
CONTINUOUS
 62
         7
100
AcDbLine
 10
259.7530780076
 20
89.8933179692
 30
0.0
 11
259.7530780076
 21
92.8933179692
 31
0.0
  0
LINE
  5
1C0
100
AcDbEntity
  8
TA900_ISI_B_DN32
  6
CONTINUOUS
 62
         7
100
AcDbLine
 10
254.0030780076
 20
89.3933179692
 30
0.0
 11
254.0030780076
 21
89.8933179692
 31
0.0
  0
LINE
  5
1C1
100
AcDbEntity
  8
TA900_ISI_B_DN32
  6
CONTINUOUS
 62
         7
100
AcDbLine
 10
295.0030780076
 20
58.3933179692
 30
0.0
 11
293.2314479934
 21
63.2608314286
 31
0.0
  0
LINE
  5
1C2
100
AcDbEntity
  8
TA900_ISI_B_DN32
  6
CONTINUOUS
 62
         7
100
AcDbLine
 10
220.2530780076
 20
89.8933179692
 30
0.0
 11
259.7530780076
 21
89.8933179692
 31
0.0
  0
LINE
  5
1C3
100
AcDbEntity
  8
TA900_ISI_B_DN32
  6
CONTINUOUS
 62
         7
100
AcDbLine
 10
196.7530780076
 20
57.8433179692
 30
0.0
 11
194.7812643646
 21
63.2608314286
 31
0.0
  0
LINE
  5
1C4
100
AcDbEntity
  8
TA900_ISI_B_DN32
  6
CONTINUOUS
 62
         7
100
AcDbLine
 10
279.2530780076
 20
57.8251163095
 30
0.0
 11
279.2530780076
 21
66.6433179692
 31
0.0
  0
LINE
  5
1C5
100
AcDbEntity
  8
TA900_ISI_B_DN32
  6
CONTINUOUS
 62
         7
100
AcDbLine
 10
283.2530780076
 20
57.8433179692
 30
0.0
 11
279.2510657306
 21
57.8433179692
 31
0.0
  0
LINE
  5
1C6
100
AcDbEntity
  8
TA900_ISI_B_DN32
  6
CONTINUOUS
 62
         7
100
AcDbLine
 10
200.7550902845
 20
57.8433179692
 30
0.0
 11
196.7530780076
 21
57.8433179692
 31
0.0
  0
ARC
  5
1C7
100
AcDbEntity
  8
TA900_ISI_B_DN32
  6
CONTINUOUS
 62
         7
100
AcDbCircle
 10
240.0030780076
 20
33.3933179692
 30
0.0
 40
38.6
100
AcDbArc
 50
215.5191849193
 51
228.2548716325
  0
LINE
  5
1C8
100
AcDbEntity
  8
TA900_ISI_B_DN32
  6
CONTINUOUS
 62
         7
100
AcDbLine
 10
293.2314479934
 20
5.5258045097
 30
0.0
 11
295.0030780076
 21
10.3933179692
 31
0.0
  0
LINE
  5
1C9
100
AcDbEntity
  8
TA900_ISI_B_DN32
  6
CONTINUOUS
 62
         7
100
AcDbLine
 10
194.7812643646
 20
5.5258045097
 30
0.0
 11
196.7530780076
 21
10.9433179692
 31
0.0
  0
LINE
  5
1CA
100
AcDbEntity
  8
TA900_ISI_B_DN32
  6
CONTINUOUS
 62
         7
100
AcDbLine
 10
214.3024943566
 20
4.5933179692
 30
0.0
 11
214.3024943566
 21
33.3933179692
 31
0.0
  0
LINE
  5
1CB
100
AcDbEntity
  8
TA900_ISI_B_DN32
  6
CONTINUOUS
 62
         7
100
AcDbLine
 10
265.7036616585
 20
4.5933179692
 30
0.0
 11
265.7036616585
 21
33.3933179692
 31
0.0
  0
ARC
  5
1CC
100
AcDbEntity
  8
TA900_ISI_B_DN32
  6
CONTINUOUS
 62
         7
100
AcDbCircle
 10
497.1743137529
 20
33.8513105279
 30
0.0
 40
219.2379561341
100
AcDbArc
 50
173.7173316092
 51
173.9689865116
  0
LINE
  5
1CD
100
AcDbEntity
  8
TA900_ISI_B_DN32
  6
CONTINUOUS
 62
         7
100
AcDbLine
 10
277.854749002
 20
56.5899730566
 30
0.0
 11
279.1498024951
 21
56.8859344807
 31
0.0
  0
ARC
  5
1CE
100
AcDbEntity
  8
TA900_ISI_B_DN32
  6
CONTINUOUS
 62
         7
100
AcDbCircle
 10
254.5466199093
 20
35.8247576037
 30
0.0
 40
32.38656766
100
AcDbArc
 50
40.5646713661
 51
46.7231275566
  0
SPLINE
  5
1CF
100
AcDbEntity
  8
TA900_ISI_B_DN32
  6
CONTINUOUS
 62
         7
100
AcDbSpline
210
0.0
220
0.0
230
1.0
 70
         8
 71
         3
 72
        20
 73
        16
 74
         0
 42
0.0
 43
0.0
 40
0.0
 40
0.0
 40
0.0
 40
0.0
 40
0.2500000000000001
 40
0.2500000000000001
 40
0.375
 40
0.375
 40
0.5
 40
0.5
 40
0.6249999999999999
 40
0.6249999999999999
 40
0.7499999999999999
 40
0.7499999999999999
 40
0.875
 40
0.875
 40
1.0
 40
1.0
 40
1.0
 40
1.0
 10
276.74840648683738
 20
59.403782977176149
 30
0.0
 10
276.66773291806982
 20
59.480274922741529
 30
0.0
 10
276.50831263187808
 20
59.538336556840072
 30
0.0
 10
276.14922315912611
 20
59.598429773862854
 30
0.0
 10
276.01113196828976
 20
59.613465877889183
 30
0.0
 10
275.70307604011674
 20
59.63350910296672
 30
0.0
 10
275.53257184214709
 20
59.63860879386214
 30
0.0
 10
275.15758998235043
 20
59.63869371107198
 30
0.0
 10
274.95466253668548
 20
59.633591419846113
 30
0.0
 10
274.52905529366768
 20
59.613606789413389
 30
0.0
 10
274.3049467640605
 20
59.598732812772674
 30
0.0
 10
273.83377925236863
 20
59.558973618256459
 30
0.0
 10
273.58741737487946
 20
59.534067598171873
 30
0.0
 10
273.08769376297448
 20
59.475669492306473
 30
0.0
 10
272.83244081329474
 20
59.44203118216771
 30
0.0
 10
272.57172379452976
 20
59.403782977176149
 30
0.0
  0
SPLINE
  5
1D0
100
AcDbEntity
  8
TA900_ISI_B_DN32
  6
CONTINUOUS
 62
         7
100
AcDbSpline
210
0.0
220
0.0
230
1.0
 70
         8
 71
         3
 72
        20
 73
        16
 74
         0
 42
0.0
 43
0.0
 40
0.0
 40
0.0
 40
0.0
 40
0.0
 40
0.2500000000000001
 40
0.2500000000000001
 40
0.375
 40
0.375
 40
0.5
 40
0.5
 40
0.6249999999999999
 40
0.6249999999999999
 40
0.7499999999999999
 40
0.7499999999999999
 40
0.875
 40
0.875
 40
1.0
 40
1.0
 40
1.0
 40
1.0
 10
207.43443222057383
 20
59.403782977176149
 30
0.0
 10
206.91302861452897
 20
59.480274922741522
 30
0.0
 10
206.41545684471458
 20
59.538336556840086
 30
0.0
 10
205.70552789000845
 20
59.598429773862868
 30
0.0
 10
205.47940482488977
 20
59.61346587788919
 30
0.0
 10
205.05393567744042
 20
59.63350910296672
 30
0.0
 10
204.85350742089085
 20
59.638608793862154
 30
0.0
 10
204.47802755213428
 20
59.638693711072001
 30
0.0
 10
204.3050394705497
 20
59.633591419846113
 30
0.0
 10
203.99650317620768
 20
59.613606789413396
 30
0.0
 10
203.85947827448899
 20
59.598732812772681
 30
0.0
 10
203.62044296467116
 20
59.558973618256474
 30
0.0
 10
203.51924121601581
 20
59.53406759817188
 30
0.0
 10
203.35858008493213
 20
59.475669492306466
 30
0.0
 10
203.29808866688805
 20
59.442031182167717
 30
0.0
 10
203.25774952826615
 20
59.403782977176157
 30
0.0
  0
ARC
  5
1D1
100
AcDbEntity
  8
TA900_ISI_B_DN32
  6
CONTINUOUS
 62
         7
100
AcDbCircle
 10
225.5114313845
 20
35.7752625228
 30
0.0
 40
32.4581782456
100
AcDbArc
 50
133.2836724912
 51
139.4285285861
  0
LINE
  5
1D2
100
AcDbEntity
  8
TA900_ISI_B_DN32
  6
CONTINUOUS
 62
         7
100
AcDbLine
 10
279.2530780076
 20
66.6433179692
 30
0.0
 11
276.7484064868
 21
66.6433179692
 31
0.0
  0
LINE
  5
1D3
100
AcDbEntity
  8
TA900_ISI_B_DN32
  6
CONTINUOUS
 62
         7
100
AcDbLine
 10
276.7484064868
 20
66.6433179692
 30
0.0
 11
272.5717237945
 21
66.6433179692
 31
0.0
  0
ARC
  5
1D4
100
AcDbEntity
  8
TA900_ISI_B_DN32
  6
CONTINUOUS
 62
         7
100
AcDbCircle
 10
240.0030780076
 20
260.6934569919
 30
0.0
 40
203.9074534032
100
AcDbArc
 50
260.8091998067
 51
279.1908001933
  0
LINE
  5
1D5
100
AcDbEntity
  8
TA900_ISI_B_DN32
  6
CONTINUOUS
 62
         7
100
AcDbLine
 10
271.4018299907
 20
10.9433179692
 30
0.0
 11
283.2530780076
 21
10.9433179692
 31
0.0
  0
LINE
  5
1D6
100
AcDbEntity
  8
TA900_ISI_B_DN32
  6
CONTINUOUS
 62
         7
100
AcDbLine
 10
196.7530780076
 20
10.9433179692
 30
0.0
 11
208.6043260244
 21
10.9433179692
 31
0.0
  0
SPLINE
  5
1D7
100
AcDbEntity
  8
TA900_ISI_B_DN32
  6
CONTINUOUS
 62
         7
100
AcDbSpline
210
0.0
220
0.0
230
1.0
 70
         8
 71
         3
 72
        22
 73
        18
 74
         0
 42
0.0
 43
0.0
 40
0.4999478011092336
 40
0.4999478011092336
 40
0.4999478011092336
 40
0.4999478011092336
 40
0.4999999999999998
 40
0.4999999999999998
 40
0.5624999999999998
 40
0.5624999999999998
 40
0.6249999999999998
 40
0.6249999999999998
 40
0.6874999999999999
 40
0.6874999999999999
 40
0.7499999999999999
 40
0.7499999999999999
 40
0.8124999999999999
 40
0.8124999999999999
 40
0.8749999999999999
 40
0.8749999999999999
 40
1.0
 40
1.0
 40
1.0
 40
1.0
 10
208.60311781674932
 20
10.943317977406455
 30
0.0
 10
208.60311781646692
 20
10.943317968381292
 30
0.0
 10
208.60311781940919
 20
10.94331806068851
 30
0.0
 10
208.6031252095903
 20
10.943550112080743
 30
0.0
 10
208.60767519814331
 20
11.086450593708996
 30
0.0
 10
208.62587565030049
 20
11.657695492267765
 30
0.0
 10
208.6393237757753
 20
12.079685056959152
 30
0.0
 10
208.67474619121592
 20
13.190037615377333
 30
0.0
 10
208.69703597782916
 20
13.888269610643746
 30
0.0
 10
208.74883751180522
 20
15.508628911041253
 30
0.0
 10
208.77833653663225
 20
16.430376987761473
 30
0.0
 10
208.84460758518679
 20
18.49747741994679
 30
0.0
 10
208.88153606496667
 20
19.647645645465186
 30
0.0
 10
208.95972140109953
 20
22.077837389825536
 30
0.0
 10
209.00131890953813
 20
23.368511293368623
 30
0.0
 10
209.13392500755236
 20
27.473672139856589
 30
0.0
 10
209.22824195941331
 20
30.381620292474501
 30
0.0
 10
209.32641749829818
 20
33.393317969159312
 30
0.0
  0
SPLINE
  5
1D8
100
AcDbEntity
  8
TA900_ISI_B_DN32
  6
CONTINUOUS
 62
         7
100
AcDbSpline
210
0.0
220
0.0
230
1.0
 70
         8
 71
         3
 72
        20
 73
        16
 74
         0
 42
0.0
 43
0.0
 40
0.0
 40
0.0
 40
0.0
 40
0.0
 40
0.0624999999999999
 40
0.0624999999999999
 40
0.1249999999999998
 40
0.1249999999999998
 40
0.1874999999999998
 40
0.1874999999999998
 40
0.2499999999999997
 40
0.2499999999999997
 40
0.3124999999999997
 40
0.3124999999999997
 40
0.3749999999999997
 40
0.3749999999999997
 40
0.4999468375136218
 40
0.4999468375136218
 40
0.4999468375136218
 40
0.4999468375136218
 10
270.67973851680546
 20
33.393317969159312
 30
0.0
 10
270.72882630493484
 20
31.887468557563011
 30
0.0
 10
270.77679874592422
 20
30.412224358017859
 30
0.0
 10
270.87062541696673
 20
27.520426863445877
 30
0.0
 10
270.91691595777809
 20
26.09035061088645
 30
0.0
 10
271.00505440125841
 20
23.361768859341549
 30
0.0
 10
271.04661791332774
 20
22.072148462442208
 30
0.0
 10
271.12487053167666
 20
19.639848445857652
 30
0.0
 10
271.16183012576926
 20
18.48869771630681
 30
0.0
 10
271.22795300582857
 20
16.426205169562184
 30
0.0
 10
271.25745286697821
 20
15.504430371942741
 30
0.0
 10
271.30932421216414
 20
13.881878586813556
 30
0.0
 10
271.33153347656196
 20
13.186163234386775
 30
0.0
 10
271.38456028752142
 20
11.523977601858693
 30
0.0
 10
271.4030372374329
 20
10.943348536462679
 30
0.0
 10
271.40303819833537
 20
10.943317978009869
 30
0.0
  0
ARC
  5
1D9
100
AcDbEntity
  8
TA900_ISI_B_DN32
  6
CONTINUOUS
 62
         7
100
AcDbCircle
 10
313.2294846963
 20
32.9401455792
 30
0.0
 40
42.5521593477
100
AcDbArc
 50
146.2352388638
 51
179.3897993292
  0
ARC
  5
1DA
100
AcDbEntity
  8
TA900_ISI_B_DN32
  6
CONTINUOUS
 62
         7
100
AcDbCircle
 10
240.0030780076
 20
183.2141689336
 30
0.0
 40
129.2060640276
100
AcDbArc
 50
258.5266809925
 51
281.4733190075
  0
LINE
  5
1DB
100
AcDbEntity
  8
TA900_ISI_B_DN32
  6
CONTINUOUS
 62
         7
100
AcDbLine
 10
277.854749002
 20
56.5899730566
 30
0.0
 11
265.7036616585
 21
56.5899730566
 31
0.0
  0
LINE
  5
1DC
100
AcDbEntity
  8
TA900_ISI_B_DN32
  6
CONTINUOUS
 62
         7
100
AcDbLine
 10
214.3024943566
 20
56.5899730566
 30
0.0
 11
202.1514070131
 21
56.5899730566
 31
0.0
  0
ARC
  5
1DD
100
AcDbEntity
  8
TA900_ISI_B_DN32
  6
CONTINUOUS
 62
         7
100
AcDbCircle
 10
303.2425479493
 20
12.7426828745
 30
0.0
 40
19.4092573746
100
AcDbArc
 50
158.1716867869
 51
201.8283132131
  0
ARC
  5
1DE
100
AcDbEntity
  8
TA900_ISI_B_DN32
  6
CONTINUOUS
 62
         7
100
AcDbCircle
 10
359.177058899
 20
34.3933179692
 30
0.0
 40
75.347570459
100
AcDbArc
 50
168.9560255106
 51
191.0439744894
  0
ARC
  5
1DF
100
AcDbEntity
  8
TA900_ISI_B_DN32
  6
CONTINUOUS
 62
         7
100
AcDbCircle
 10
275.2137916946
 20
56.0439530638
 30
0.0
 40
19.4092573746
100
AcDbArc
 50
338.1716867869
 51
21.8283132131
  0
ARC
  5
1E0
100
AcDbEntity
  8
TA900_ISI_B_DN32
  6
CONTINUOUS
 62
         7
100
AcDbCircle
 10
219.2792825407
 20
34.3933179692
 30
0.0
 40
75.3475686965
100
AcDbArc
 50
348.956025249
 51
11.043974751
  0
ARC
  5
1E1
100
AcDbEntity
  8
TA900_ISI_B_DN32
  6
CONTINUOUS
 62
         7
100
AcDbCircle
 10
120.8290971161
 20
34.3933179692
 30
0.0
 40
75.347570459
100
AcDbArc
 50
348.9560255106
 51
11.0439744894
  0
ARC
  5
1E2
100
AcDbEntity
  8
TA900_ISI_B_DN32
  6
CONTINUOUS
 62
         7
100
AcDbCircle
 10
260.7268734744
 20
34.3933179692
 30
0.0
 40
75.3475686965
100
AcDbArc
 50
168.956025249
 51
191.043974751
  0
ARC
  5
1E3
100
AcDbEntity
  8
TA900_ISI_B_DN32
  6
CONTINUOUS
 62
         7
100
AcDbCircle
 10
204.7923643205
 20
56.0439530638
 30
0.0
 40
19.4092573746
100
AcDbArc
 50
158.1716867869
 51
201.8283132131
  0
LINE
  5
1E4
100
AcDbEntity
  8
TA900_ISI_B_DN32
  6
CONTINUOUS
 62
         7
100
AcDbLine
 10
186.7747080217
 20
19.9595612394
 30
0.0
 11
194.7812643646
 21
19.9595612394
 31
0.0
  0
LINE
  5
1E5
100
AcDbEntity
  8
TA900_ISI_B_DN32
  6
CONTINUOUS
 62
         7
100
AcDbLine
 10
186.7747080217
 20
63.2608314286
 30
0.0
 11
194.7812643646
 21
63.2608314286
 31
0.0
  0
LINE
  5
1E6
100
AcDbEntity
  8
TA900_ISI_B_DN32
  6
CONTINUOUS
 62
         7
100
AcDbLine
 10
186.7747080217
 20
48.8270746989
 30
0.0
 11
194.7812643646
 21
48.8270746989
 31
0.0
  0
LINE
  5
1E7
100
AcDbEntity
  8
TA900_ISI_B_DN32
  6
CONTINUOUS
 62
         7
100
AcDbLine
 10
186.7747080217
 20
5.5258045097
 30
0.0
 11
194.7812643646
 21
5.5258045097
 31
0.0
  0
ARC
  5
1E8
100
AcDbEntity
  8
TA900_ISI_B_DN32
  6
CONTINUOUS
 62
         7
100
AcDbCircle
 10
166.7780766543
 20
32.9405802667
 30
0.0
 40
42.5507494646
100
AcDbArc
 50
0.6096355379
 51
33.7653262691
  0
ENDBLK
  5
1E9
100
AcDbEntity
  8
TA900_ISI_B_DN32
  6
CONTINUOUS
 62
         7
100
AcDbBlockEnd
  0
ENDSEC
  0
SECTION
  2
ENTITIES
  0
INSERT
  5
3A
102
{ACAD_XDICTIONARY
360
3B
102
}
100
AcDbEntity
  8
0
 62
         0
 48
0.0
100
AcDbBlockReference
  2
SE1
 10
0.0
 20
0.0
 30
0.0
  0
INSERT
  5
3E
100
AcDbEntity
  8
0
 62
         0
 48
0.0
100
AcDbBlockReference
  2
SE0
 10
0.0
 20
0.0
 30
0.0
  0
INSERT
  5
41
102
{ACAD_XDICTIONARY
360
42
102
}
100
AcDbEntity
  8
0
 62
         0
 48
0.0
100
AcDbBlockReference
  2
SE3
 10
0.0
 20
0.0
 30
0.0
  0
INSERT
  5
45
100
AcDbEntity
  8
0
 62
         0
 48
0.0
100
AcDbBlockReference
  2
SE2
 10
0.0
 20
0.0
 30
0.0
  0
INSERT
  5
48
102
{ACAD_XDICTIONARY
360
49
102
}
100
AcDbEntity
  8
0
 62
         0
 48
0.0
100
AcDbBlockReference
  2
SE5
 10
0.0
 20
0.0
 30
0.0
  0
INSERT
  5
4C
100
AcDbEntity
  8
0
 62
         0
 48
0.0
100
AcDbBlockReference
  2
SE4
 10
0.0
 20
0.0
 30
0.0
  0
INSERT
  5
4F
102
{ACAD_XDICTIONARY
360
50
102
}
100
AcDbEntity
  8
0
 62
         0
 48
0.0
100
AcDbBlockReference
  2
SE7
 10
0.0
 20
0.0
 30
0.0
  0
INSERT
  5
53
100
AcDbEntity
  8
0
 62
         0
 48
0.0
100
AcDbBlockReference
  2
SE6
 10
0.0
 20
0.0
 30
0.0
  0
ENDSEC
  0
SECTION
  2
OBJECTS
  0
DICTIONARY
  5
19
100
AcDbDictionary
  3
ACAD_GROUP
350
1A
  3
ACAD_MLINESTYLE
350
1B
  3
ACDBVARIABLEDICTIONARY
350
1EC
  0
DICTIONARY
  5
1A
102
{ACAD_REACTORS
330
19
102
}
100
AcDbDictionary
  0
DICTIONARY
  5
1B
102
{ACAD_REACTORS
330
19
102
}
100
AcDbDictionary
  3
STANDARD
350
1C
  0
MLINESTYLE
  5
1C
102
{ACAD_REACTORS
330
1B
102
}
100
AcDbMlineStyle
  2
Standard
 70
         0
  3

 62
         0
 51
90.0
 52
90.0
 71
         2
 49
0.5
 62
       256
  6
ByLayer
 49
-0.5
 62
       256
  6
ByLayer
  0
DICTIONARY
  5
22
102
{ACAD_REACTORS
330
19
102
}
100
AcDbDictionary
  0
DICTIONARY
  5
3B
100
AcDbDictionary
  3
ACAD_FILTER
350
3C
  0
DICTIONARY
  5
3C
100
AcDbDictionary
  3
SPATIAL
350
3D
  0
SPATIAL_FILTER
  5
3D
100
AcDbFilter
100
AcDbSpatialFilter
 70
         2
 10
-0.2188883279
 20
-1.7566820308
 10
146.4811116721
 20
127.9433179692
210
0.0
220
0.0
230
1.0
 11
0.0
 21
0.0
 31
0.0
 71
         1
 72
         0
 73
         0
 40
1.0
 40
0.0
 40
0.0
 40
0.0
 40
0.0
 40
1.0
 40
0.0
 40
0.0
 40
0.0
 40
0.0
 40
1.0
 40
0.0
 40
1.0
 40
0.0
 40
0.0
 40
0.0
 40
0.0
 40
1.0
 40
0.0
 40
0.0
 40
0.0
 40
0.0
 40
1.0
 40
0.0
  0
DICTIONARY
  5
42
100
AcDbDictionary
  3
ACAD_FILTER
350
43
  0
DICTIONARY
  5
43
100
AcDbDictionary
  3
SPATIAL
350
44
  0
SPATIAL_FILTER
  5
44
100
AcDbFilter
100
AcDbSpatialFilter
 70
         2
 10
-0.2188883279
 20
156.338636918
 10
146.4811116721
 20
247.538636918
210
0.0
220
0.0
230
1.0
 11
0.0
 21
0.0
 31
0.0
 71
         1
 72
         0
 73
         0
 40
1.0
 40
0.0
 40
0.0
 40
0.0
 40
0.0
 40
1.0
 40
0.0
 40
0.0
 40
0.0
 40
0.0
 40
1.0
 40
0.0
 40
1.0
 40
0.0
 40
0.0
 40
0.0
 40
0.0
 40
1.0
 40
0.0
 40
0.0
 40
0.0
 40
0.0
 40
1.0
 40
0.0
  0
DICTIONARY
  5
49
100
AcDbDictionary
  3
ACAD_FILTER
350
4A
  0
DICTIONARY
  5
4A
100
AcDbDictionary
  3
SPATIAL
350
4B
  0
SPATIAL_FILTER
  5
4B
100
AcDbFilter
100
AcDbSpatialFilter
 70
         2
 10
157.4486195959
 20
156.338636867
 10
287.1486195959
 20
247.5386369683
210
0.0
220
0.0
230
1.0
 11
0.0
 21
0.0
 31
0.0
 71
         1
 72
         0
 73
         0
 40
1.0
 40
0.0
 40
0.0
 40
0.0
 40
0.0
 40
1.0
 40
0.0
 40
0.0
 40
0.0
 40
0.0
 40
1.0
 40
0.0
 40
1.0
 40
0.0
 40
0.0
 40
0.0
 40
0.0
 40
1.0
 40
0.0
 40
0.0
 40
0.0
 40
0.0
 40
1.0
 40
0.0
  0
DICTIONARY
  5
50
100
AcDbDictionary
  3
ACAD_FILTER
350
51
  0
DICTIONARY
  5
51
100
AcDbDictionary
  3
SPATIAL
350
52
  0
SPATIAL_FILTER
  5
52
100
AcDbFilter
100
AcDbSpatialFilter
 70
         2
 10
154.6530780076
 20
-1.7566820308
 10
301.3530780076
 20
127.9433179692
210
0.0
220
0.0
230
1.0
 11
0.0
 21
0.0
 31
0.0
 71
         1
 72
         0
 73
         0
 40
1.0
 40
0.0
 40
0.0
 40
0.0
 40
0.0
 40
1.0
 40
0.0
 40
0.0
 40
0.0
 40
0.0
 40
1.0
 40
0.0
 40
1.0
 40
0.0
 40
0.0
 40
0.0
 40
0.0
 40
1.0
 40
0.0
 40
0.0
 40
0.0
 40
0.0
 40
1.0
 40
0.0
  0
DICTIONARY
  5
1EC
100
AcDbDictionary
  3
DIMASSOC
350
1ED
  0
DICTIONARYVAR
  5
1ED
100
DictionaryVariables
280
         0
  1
2
  0
ENDSEC
  0
EOF
