  0
SECTION
  2
HEADER
  9
$ACADVER
  1
AC1014
  9
$ACADMAINTVER
 70
         0
  9
$DWGCODEPAGE
  3
ANSI_1252
  9
$INSBASE
 10
0.0
 20
0.0
 30
0.0
  9
$EXTMIN
 10
0.0
 20
0.0
 30
0.0
  9
$EXTMAX
 10
420.0
 20
297.0
 30
0.0
  9
$LIMMIN
 10
0.0
 20
0.0
  9
$LIMMAX
 10
420.0
 20
297.0
  9
$ORTHOMODE
 70
         0
  9
$REGENMODE
 70
         1
  9
$FILLMODE
 70
         1
  9
$QTEXTMODE
 70
         0
  9
$MIRRTEXT
 70
         1
  9
$DRAGMODE
 70
         2
  9
$LTSCALE
 40
25.4
  9
$OSMODE
 70
         0
  9
$ATTMODE
 70
         1
  9
$TEXTSIZE
 40
0.2
  9
$TRACEWID
 40
0.05
  9
$TEXTSTYLE
  7
Standard
  9
$CLAYER
  8
0
  9
$CELTYPE
  6
CONTINUOUS
  9
$CECOLOR
 62
       256
  9
$CELTSCALE
 40
1.0
  9
$DELOBJ
 70
         1
  9
$DISPSILH
 70
         0
  9
$DIMSCALE
 40
1.0
  9
$DIMASZ
 40
0.18
  9
$DIMEXO
 40
0.0625
  9
$DIMDLI
 40
0.38
  9
$DIMRND
 40
0.0
  9
$DIMDLE
 40
0.0
  9
$DIMEXE
 40
0.18
  9
$DIMTP
 40
0.0
  9
$DIMTM
 40
0.0
  9
$DIMTXT
 40
0.18
  9
$DIMCEN
 40
0.09
  9
$DIMTSZ
 40
0.0
  9
$DIMTOL
 70
         0
  9
$DIMLIM
 70
         0
  9
$DIMTIH
 70
         1
  9
$DIMTOH
 70
         1
  9
$DIMSE1
 70
         0
  9
$DIMSE2
 70
         0
  9
$DIMTAD
 70
         0
  9
$DIMZIN
 70
         0
  9
$DIMBLK
  1

  9
$DIMASO
 70
         1
  9
$DIMSHO
 70
         1
  9
$DIMPOST
  1

  9
$DIMAPOST
  1

  9
$DIMALT
 70
         0
  9
$DIMALTD
 70
         2
  9
$DIMALTF
 40
25.4
  9
$DIMLFAC
 40
1.0
  9
$DIMTOFL
 70
         0
  9
$DIMTVP
 40
0.0
  9
$DIMTIX
 70
         0
  9
$DIMSOXD
 70
         0
  9
$DIMSAH
 70
         0
  9
$DIMBLK1
  1

  9
$DIMBLK2
  1

  9
$DIMSTYLE
  2
Standard
  9
$DIMCLRD
 70
         0
  9
$DIMCLRE
 70
         0
  9
$DIMCLRT
 70
         0
  9
$DIMTFAC
 40
1.0
  9
$DIMGAP
 40
0.09
  9
$DIMJUST
 70
         0
  9
$DIMSD1
 70
         0
  9
$DIMSD2
 70
         0
  9
$DIMTOLJ
 70
         1
  9
$DIMTZIN
 70
         0
  9
$DIMALTZ
 70
         0
  9
$DIMALTTZ
 70
         0
  9
$DIMFIT
 70
         3
  9
$DIMUPT
 70
         0
  9
$DIMUNIT
 70
         2
  9
$DIMDEC
 70
         4
  9
$DIMTDEC
 70
         4
  9
$DIMALTU
 70
         2
  9
$DIMALTTD
 70
         2
  9
$DIMTXSTY
  7
Standard
  9
$DIMAUNIT
 70
         0
  9
$LUNITS
 70
         2
  9
$LUPREC
 70
         4
  9
$SKETCHINC
 40
0.1
  9
$FILLETRAD
 40
0.0
  9
$AUNITS
 70
         0
  9
$AUPREC
 70
         0
  9
$MENU
  1
acad
  9
$ELEVATION
 40
0.0
  9
$PELEVATION
 40
0.0
  9
$THICKNESS
 40
0.0
  9
$LIMCHECK
 70
         0
  9
$BLIPMODE
 70
         1
  9
$CHAMFERA
 40
0.0
  9
$CHAMFERB
 40
0.0
  9
$CHAMFERC
 40
0.0
  9
$CHAMFERD
 40
0.0
  9
$SKPOLY
 70
         0
  9
$TDCREATE
 40
0.000000000
  9
$TDUPDATE
 40
0.000000000
  9
$TDINDWG
 40
0.0000000000
  9
$TDUSRTIMER
 40
0.0000000000
  9
$USRTIMER
 70
         1
  9
$ANGBASE
 50
0.0
  9
$ANGDIR
 70
         0
  9
$PDMODE
 70
         0
  9
$PDSIZE
 40
0.0
  9
$PLINEWID
 40
0.0
  9
$COORDS
 70
         0
  9
$SPLFRAME
 70
         0
  9
$SPLINETYPE
 70
         6
  9
$SPLINESEGS
 70
         8
  9
$ATTDIA
 70
         0
  9
$ATTREQ
 70
         1
  9
$HANDLING
 70
         1
  9
$HANDSEED
  5
1C0
  9
$SURFTAB1
 70
         6
  9
$SURFTAB2
 70
         6
  9
$SURFTYPE
 70
         6
  9
$SURFU
 70
         6
  9
$SURFV
 70
         6
  9
$UCSNAME
  2

  9
$UCSORG
 10
0.0
 20
0.0
 30
0.0
  9
$UCSXDIR
 10
1.0
 20
0.0
 30
0.0
  9
$UCSYDIR
 10
0.0
 20
1.0
 30
0.0
  9
$PUCSNAME
  2

  9
$PUCSORG
 10
0.0
 20
0.0
 30
0.0
  9
$PUCSXDIR
 10
1.0
 20
0.0
 30
0.0
  9
$PUCSYDIR
 10
0.0
 20
1.0
 30
0.0
  9
$USERI1
 70
         0
  9
$USERI2
 70
         0
  9
$USERI3
 70
         0
  9
$USERI4
 70
         0
  9
$USERI5
 70
         0
  9
$USERR1
 40
0.0
  9
$USERR2
 40
0.0
  9
$USERR3
 40
0.0
  9
$USERR4
 40
0.0
  9
$USERR5
 40
0.0
  9
$WORLDVIEW
 70
         1
  9
$SHADEDGE
 70
         3
  9
$SHADEDIF
 70
        70
  9
$TILEMODE
 70
         1
  9
$MAXACTVP
 70
        16
  9
$PINSBASE
 10
0.0
 20
0.0
 30
0.0
  9
$PLIMCHECK
 70
         0
  9
$PEXTMIN
 10
1.0000000000E+20
 20
1.0000000000E+20
 30
1.0000000000E+20
  9
$PEXTMAX
 10
-1.0000000000E+20
 20
-1.0000000000E+20
 30
-1.0000000000E+20
  9
$PLIMMIN
 10
0.0
 20
0.0
  9
$PLIMMAX
 10
12.0
 20
9.0
  9
$UNITMODE
 70
         0
  9
$VISRETAIN
 70
         0
  9
$PLINEGEN
 70
         1
  9
$PSLTSCALE
 70
         0
  9
$TREEDEPTH
 70
      3020
  9
$PICKSTYLE
 70
         1
  9
$CMLSTYLE
  2
Standard
  9
$CMLJUST
 70
         0
  9
$CMLSCALE
 40
1.0
  9
$PROXYGRAPHICS
 70
         0
  9
$MEASUREMENT
 70
         0
  0
ENDSEC
  0
SECTION
  2
CLASSES
  0
CLASS
  1
LWPOLYLINE
  2
AcDbPolyline
  3
"AutoCAD"
 90
        0
280
         0
281
         1
  0
CLASS
  1
IMAGE
  2
AcDbRasterImage
  3
ISM
 90
      127
280
         0
281
         1
  0
CLASS
  1
OLE2FRAME
  2
AcDbOle2Frame
  3
""
 90
        0
280
         0
281
         1
  0
CLASS
  1
HATCH
  2
AcDbHatch
  3
"ACAD_SEDONA"
 90
        0
280
         0
281
         1
  0
CLASS
  1
DICTIONARYVAR
  2
AcDbDictionaryVar
  3
"AutoCAD"
 90
        0
280
         0
281
         0
  0
CLASS
  1
RASTERVARIABLES
  2
AcDbRasterVariables
  3
ISM
 90
        0
280
         0
281
         0
  0
CLASS
  1
IMAGEDEF
  2
AcDbRasterImageDef
  3
ISM
 90
        0
280
         0
281
         0
  0
CLASS
  1
IMAGEDEF_REACTOR
  2
AcDbRasterImageDefReactor
  3
ISM
 90
        1
280
         0
281
         0
  0
CLASS
  1
IDBUFFER
  2
AcDbIdBuffer
  3
"Acad"
 90
        0
280
         0
281
         0
  0
CLASS
  1
SPATIAL_FILTER
  2
AcDbSpatialFilter
  3
"Acad"
 90
        0
280
         0
281
         0
  0
CLASS
  1
XRECORD
  2
AcDbXrecord
  3
"<Built In>"
 90
        0
280
         0
281
         0
  0
CLASS
  1
SORTENTSTABLE
  2
AcDbSortentsTable
  3
"AutoCAD"
 90
        0
280
         0
281
         0
  0
CLASS
  1
LAYER_INDEX
  2
AcDbLayerIndex
  3
"Acad"
 90
        0
280
         0
281
         0
  0
CLASS
  1
SPATIAL_INDEX
  2
AcDbSpatialIndex
  3
"Acad"
 90
        0
280
         0
281
         0
  0
CLASS
  1
OBJECT_PTR
  2
CAseDLPNTableRecord
  3
"ASE-LPNTableRecord"
 90
        1
280
         0
281
         0
  0
CLASS
  1
LAYOUT
  2
AcDbLayout
  3
"AutoCAD 2000"
 90
        1
280
         0
281
         0
  0
CLASS
  1
PLOTSETTINGS
  2
AcDbPlotSettings
  3
"AutoCAD 2000"
 90
        1
280
         0
281
         0
  0
CLASS
  1
ACDBDICTIONARYWDFLT
  2
AcDbDictionaryWithDefault
  3
"AutoCAD 2000"
 90
        1
280
         0
281
         0
  0
CLASS
  1
ACDBPLACEHOLDER
  2
AcDbPlaceHolder
  3
"AutoCAD 2000"
 90
        1
280
         0
281
         0
  0
CLASS
  1
VBA_PROJECT
  2
AcDbVbaProject
  3
"acadvba"
 90
        1
280
         0
281
         0
  0
CLASS
  1
WIPEOUT
  2
AcDbWipeout
  3
WipeOut|AutoCAD Express Tool|expresstools@autodesk.com
 90
      127
280
         0
281
         1
  0
CLASS
  1
WIPEOUTVARIABLES
  2
AcDbWipeoutVariables
  3
WipeOut|AutoCAD Express Tool|expresstools@autodesk.com
 90
        0
280
         0
281
         0
  0
CLASS
  1
RTEXT
  2
RText
  3
RText|AutoCAD Express Tool|expresstools@autodesk.com
 90
        0
280
         0
281
         1
  0
CLASS
  1
ARCALIGNEDTEXT
  2
AcDbArcAlignedText
  3
ATEXT|AutoCAD Express Tool|expresstools@autodesk.com
 90
        0
280
         0
281
         1
  0
ENDSEC
  0
SECTION
  2
TABLES
  0
TABLE
  2
VPORT
  5
7
100
AcDbSymbolTable
 70
         1
  0
VPORT
  5
15
100
AcDbSymbolTableRecord
100
AcDbViewportTableRecord
  2
*ACTIVE
 70
         0
 10
0.0
 20
0.0
 11
1.0
 21
1.0
 12
210.0
 22
148.5
 13
0.0
 23
0.0
 14
1.0
 24
1.0
 15
0.0
 25
0.0
 16
0.0
 26
0.0
 36
1.0
 17
0.0
 27
0.0
 37
0.0
 40
297.0
 41
1.604229
 42
50.0
 43
0.0
 44
0.0
 50
0.0
 51
0.0
 71
         0
 72
       100
 73
         1
 74
         1
 75
         0
 76
         0
 77
         0
 78
         0
  0
ENDTAB
  0
TABLE
  2
LTYPE
  5
4
100
AcDbSymbolTable
 70
         7
  0
LTYPE
  5
11
100
AcDbSymbolTableRecord
100
AcDbLinetypeTableRecord
  2
ByBlock
 70
        64
  3

 72
        65
 73
         0
 40
0.0
  0
LTYPE
  5
12
100
AcDbSymbolTableRecord
100
AcDbLinetypeTableRecord
  2
ByLayer
 70
        64
  3

 72
        65
 73
         0
 40
0.0
  0
LTYPE
  5
13
100
AcDbSymbolTableRecord
100
AcDbLinetypeTableRecord
  2
CONTINUOUS
 70
         0
  3
Solid line
 72
        65
 73
         0
 40
0.0
  0
LTYPE
  5
28
100
AcDbSymbolTableRecord
100
AcDbLinetypeTableRecord
  2
HIDDEN2
 70
        64
  3
_ _ _ _ _ _ _ _ _ _ _ _ _ _ _ _ _ _ _ _ _ _ _ _
 72
        65
 73
         2
 40
0.1875
 49
0.125
 74
         0
 49
-0.0625
 74
         0
  0
LTYPE
  5
29
100
AcDbSymbolTableRecord
100
AcDbLinetypeTableRecord
  2
CENTER2
 70
        64
  3
___ _ ___ _ ___ _ ___ _ ___ _ ___ _ ___ _ ___ _
 72
        65
 73
         4
 40
1.125
 49
0.75
 74
         0
 49
-0.125
 74
         0
 49
0.125
 74
         0
 49
-0.125
 74
         0
  0
LTYPE
  5
2A
100
AcDbSymbolTableRecord
100
AcDbLinetypeTableRecord
  2
PHANTOM2
 70
        64
  3
___ _ _ ___ _ _ ___ _ _ ___ _ _ ___ _ _ ___ _ _
 72
        65
 73
         6
 40
1.25
 49
0.625
 74
         0
 49
-0.125
 74
         0
 49
0.125
 74
         0
 49
-0.125
 74
         0
 49
0.125
 74
         0
 49
-0.125
 74
         0
  0
LTYPE
  5
2B
100
AcDbSymbolTableRecord
100
AcDbLinetypeTableRecord
  2
DOT2
 70
        64
  3
...............................................
 72
        65
 73
         2
 40
0.125
 49
0.0
 74
         0
 49
-0.125
 74
         0
  0
ENDTAB
  0
TABLE
  2
LAYER
  5
2
100
AcDbSymbolTable
 70
         3
  0
LAYER
  5
14
100
AcDbSymbolTableRecord
100
AcDbLayerTableRecord
  2
0
 70
         0
 62
         7
  6
CONTINUOUS
  0
LAYER
  5
2D
100
AcDbSymbolTableRecord
100
AcDbLayerTableRecord
  2
DEFAULT
 70
         0
 62
         7
  6
CONTINUOUS
  0
LAYER
  5
37
100
AcDbSymbolTableRecord
100
AcDbLayerTableRecord
  2
TA900_ISI_B_DN20
 70
         0
 62
         7
  6
CONTINUOUS
  0
ENDTAB
  0
TABLE
  2
STYLE
  5
3
100
AcDbSymbolTable
 70
         1
  0
STYLE
  5
17
100
AcDbSymbolTableRecord
100
AcDbTextStyleTableRecord
  2
Standard
 70
         0
 40
0.0
 41
1.0
 50
0.0
 71
         0
 42
0.2
  3
txt
  4

  0
ENDTAB
  0
TABLE
  2
VIEW
  5
5
100
AcDbSymbolTable
 70
         0
  0
ENDTAB
  0
TABLE
  2
UCS
  5
6
100
AcDbSymbolTable
 70
         0
  0
ENDTAB
  0
TABLE
  2
APPID
  5
8
100
AcDbSymbolTable
 70
         1
  0
APPID
  5
16
100
AcDbSymbolTableRecord
100
AcDbRegAppTableRecord
  2
ACAD
 70
         0
  0
ENDTAB
  0
TABLE
  2
DIMSTYLE
  5
9
100
AcDbSymbolTable
 70
         1
  0
DIMSTYLE
105
18
100
AcDbSymbolTableRecord
100
AcDbDimStyleTableRecord
  2
Standard
 70
         0
  3

  4

  5

  6

  7

 40
1.0
 41
0.18
 42
0.0625
 43
0.38
 44
0.18
 45
0.0
 46
0.0
 47
0.0
 48
0.0
 71
         0
 72
         0
 73
         1
 74
         1
 75
         0
 76
         0
 77
         0
 78
         0
140
0.18
141
0.09
142
0.0
143
25.4
144
1.0
145
0.0
146
1.0
147
0.09
170
         0
171
         2
172
         0
173
         0
174
         0
175
         0
176
         0
177
         0
178
         0
270
         2
271
         4
272
         4
273
         2
274
         2
275
         0
280
         0
281
         0
282
         0
283
         1
284
         0
285
         0
286
         0
287
         0
288
         0
340
17
  0
ENDTAB
  0
TABLE
  2
BLOCK_RECORD
  5
1
100
AcDbSymbolTable
 70
         8
  0
BLOCK_RECORD
  5
A
100
AcDbSymbolTableRecord
100
AcDbBlockTableRecord
  2
*MODEL_SPACE
  0
BLOCK_RECORD
  5
B
100
AcDbSymbolTableRecord
100
AcDbBlockTableRecord
  2
*PAPER_SPACE
  0
BLOCK_RECORD
  5
38
100
AcDbSymbolTableRecord
100
AcDbBlockTableRecord
  2
SE0
  0
BLOCK_RECORD
  5
39
100
AcDbSymbolTableRecord
100
AcDbBlockTableRecord
  2
SE1
  0
BLOCK_RECORD
  5
3F
100
AcDbSymbolTableRecord
100
AcDbBlockTableRecord
  2
SE2
  0
BLOCK_RECORD
  5
40
100
AcDbSymbolTableRecord
100
AcDbBlockTableRecord
  2
SE3
  0
BLOCK_RECORD
  5
46
100
AcDbSymbolTableRecord
100
AcDbBlockTableRecord
  2
SE4
  0
BLOCK_RECORD
  5
47
100
AcDbSymbolTableRecord
100
AcDbBlockTableRecord
  2
SE5
  0
BLOCK_RECORD
  5
4D
100
AcDbSymbolTableRecord
100
AcDbBlockTableRecord
  2
SE6
  0
BLOCK_RECORD
  5
4E
100
AcDbSymbolTableRecord
100
AcDbBlockTableRecord
  2
SE7
  0
ENDTAB
  0
ENDSEC
  0
SECTION
  2
BLOCKS
  0
BLOCK
  5
D
100
AcDbEntity
  8
0
100
AcDbBlockBegin
  2
*MODEL_SPACE
 70
         0
 10
0.0
 20
0.0
 30
0.0
  3
*MODEL_SPACE
  1

  0
ENDBLK
  5
E
100
AcDbEntity
  8
0
100
AcDbBlockEnd
  0
BLOCK
  5
F
100
AcDbEntity
 67
         1
  8
0
100
AcDbBlockBegin
  2
*PAPER_SPACE
 70
         0
 10
0.0
 20
0.0
 30
0.0
  3
*PAPER_SPACE
  1

  0
ENDBLK
  5
10
100
AcDbEntity
 67
         1
  8
0
100
AcDbBlockEnd
  0
BLOCK
  5
C8
100
AcDbEntity
  8
0
 62
         1
 48
0.0
100
AcDbBlockBegin
  2
SE0
 70
         0
 10
0.0
 20
0.0
 30
0.0
  3
SE0
  1

  0
ENDBLK
  5
C9
100
AcDbEntity
  8
0
 62
         1
 48
0.0
100
AcDbBlockEnd
  0
BLOCK
  5
54
100
AcDbEntity
  8
0
 62
         1
 48
0.0
100
AcDbBlockBegin
  2
SE1
 70
         0
 10
0.0
 20
0.0
 30
0.0
  3
SE1
  1

  0
LINE
  5
55
100
AcDbEntity
  8
TA900_ISI_B_DN20
  6
CONTINUOUS
 62
         7
100
AcDbLine
 10
47.6934155381
 20
37.0055561129
 30
0.0
 11
46.5949507419
 21
37.0055561129
 31
0.0
  0
LINE
  5
56
100
AcDbEntity
  8
TA900_ISI_B_DN20
  6
CONTINUOUS
 62
         7
100
AcDbLine
 10
47.6934155381
 20
33.3845926402
 30
0.0
 11
47.6934155381
 21
37.0055561129
 31
0.0
  0
LINE
  5
57
100
AcDbEntity
  8
TA900_ISI_B_DN20
  6
CONTINUOUS
 62
         7
100
AcDbLine
 10
50.4011974333
 20
38.3845926402
 30
0.0
 11
49.9909274492
 21
37.0055561129
 31
0.0
  0
LINE
  5
58
100
AcDbEntity
  8
TA900_ISI_B_DN20
  6
CONTINUOUS
 62
         7
100
AcDbLine
 10
49.1836219965
 20
37.0055561129
 30
0.0
 11
49.1836219965
 21
33.3845926402
 31
0.0
  0
LINE
  5
59
100
AcDbEntity
  8
TA900_ISI_B_DN20
  6
CONTINUOUS
 62
         7
100
AcDbLine
 10
49.1836219965
 20
33.3845926402
 30
0.0
 11
47.6934155381
 21
33.3845926402
 31
0.0
  0
LINE
  5
5A
100
AcDbEntity
  8
TA900_ISI_B_DN20
  6
CONTINUOUS
 62
         7
100
AcDbLine
 10
49.9909274492
 20
37.0055561129
 30
0.0
 11
49.1836219965
 21
37.0055561129
 31
0.0
  0
LINE
  5
5B
100
AcDbEntity
  8
TA900_ISI_B_DN20
  6
CONTINUOUS
 62
         7
100
AcDbLine
 10
46.9999269198
 20
38.3845926402
 30
0.0
 11
50.4011974333
 21
38.3845926402
 31
0.0
  0
LINE
  5
5C
100
AcDbEntity
  8
TA900_ISI_B_DN20
  6
CONTINUOUS
 62
         7
100
AcDbLine
 10
46.5949507419
 20
37.0055561129
 30
0.0
 11
46.9999269198
 21
38.3845926402
 31
0.0
  0
LINE
  5
5D
100
AcDbEntity
  8
TA900_ISI_B_DN20
  6
CONTINUOUS
 62
         7
100
AcDbLine
 10
51.8146437012
 20
37.1458419784
 30
0.0
 11
52.71194386
 21
33.3845926402
 31
0.0
  0
LINE
  5
5E
100
AcDbEntity
  8
TA900_ISI_B_DN20
  6
CONTINUOUS
 62
         7
100
AcDbLine
 10
54.2921450246
 20
33.3845926402
 30
0.0
 11
52.8072323724
 21
38.3845926402
 31
0.0
  0
LINE
  5
5F
100
AcDbEntity
  8
TA900_ISI_B_DN20
  6
CONTINUOUS
 62
         7
100
AcDbLine
 10
52.8072323724
 20
38.3845926402
 30
0.0
 11
50.8194081268
 21
38.3845926402
 31
0.0
  0
LINE
  5
60
100
AcDbEntity
  8
TA900_ISI_B_DN20
  6
CONTINUOUS
 62
         7
100
AcDbLine
 10
49.3344954746
 20
33.3845926402
 30
0.0
 11
51.8146437012
 21
33.3845926402
 31
0.0
  0
LINE
  5
61
100
AcDbEntity
  8
TA900_ISI_B_DN20
  6
CONTINUOUS
 62
         7
100
AcDbLine
 10
51.8146437012
 20
33.3845926402
 30
0.0
 11
52.2037384603
 21
34.6736344612
 31
0.0
  0
LINE
  5
62
100
AcDbEntity
  8
TA900_ISI_B_DN20
  6
CONTINUOUS
 62
         7
100
AcDbLine
 10
52.2037384603
 20
34.6736344612
 30
0.0
 11
51.2296781109
 21
34.6736344612
 31
0.0
  0
LINE
  5
63
100
AcDbEntity
  8
TA900_ISI_B_DN20
  6
CONTINUOUS
 62
         7
100
AcDbLine
 10
51.2296781109
 20
34.6736344612
 30
0.0
 11
51.8146437012
 21
37.1458419784
 31
0.0
  0
LINE
  5
64
100
AcDbEntity
  8
TA900_ISI_B_DN20
  6
CONTINUOUS
 62
         7
100
AcDbLine
 10
52.71194386
 20
33.3845926402
 30
0.0
 11
54.2921450246
 21
33.3845926402
 31
0.0
  0
LINE
  5
65
100
AcDbEntity
  8
TA900_ISI_B_DN20
  6
CONTINUOUS
 62
         7
100
AcDbLine
 10
50.8194081268
 20
38.3845926402
 30
0.0
 11
49.3344954746
 21
33.3845926402
 31
0.0
  0
LINE
  5
66
100
AcDbEntity
  8
TA900_ISI_B_DN20
  6
CONTINUOUS
 62
         7
100
AcDbLine
 10
70.0311065857
 20
68.8845926402
 30
0.0
 11
60.2161520095
 21
68.8845926402
 31
0.0
  0
LINE
  5
67
100
AcDbEntity
  8
TA900_ISI_B_DN20
  6
CONTINUOUS
 62
         7
100
AcDbLine
 10
70.0311065857
 20
68.8845926402
 30
0.0
 11
70.0311065857
 21
60.3845926402
 31
0.0
  0
LINE
  5
68
100
AcDbEntity
  8
TA900_ISI_B_DN20
  6
CONTINUOUS
 62
         7
100
AcDbLine
 10
60.2161520095
 20
68.8845926402
 30
0.0
 11
40.5862428571
 21
68.8845926402
 31
0.0
  0
LINE
  5
69
100
AcDbEntity
  8
TA900_ISI_B_DN20
  6
CONTINUOUS
 62
         7
100
AcDbLine
 10
40.5862428571
 20
68.8845926402
 30
0.0
 11
30.7712882808
 21
68.8845926402
 31
0.0
  0
LINE
  5
6A
100
AcDbEntity
  8
TA900_ISI_B_DN20
  6
CONTINUOUS
 62
         7
100
AcDbLine
 10
60.2161520095
 20
68.8845926402
 30
0.0
 11
60.2161520095
 21
60.3845926402
 31
0.0
  0
LINE
  5
6B
100
AcDbEntity
  8
TA900_ISI_B_DN20
  6
CONTINUOUS
 62
         7
100
AcDbLine
 10
40.5862428571
 20
68.8845926402
 30
0.0
 11
40.5862428571
 21
60.3845926402
 31
0.0
  0
LINE
  5
6C
100
AcDbEntity
  8
TA900_ISI_B_DN20
  6
CONTINUOUS
 62
         7
100
AcDbLine
 10
30.7712882808
 20
68.8845926402
 30
0.0
 11
30.7712882808
 21
60.3845926402
 31
0.0
  0
LINE
  5
6D
100
AcDbEntity
  8
TA900_ISI_B_DN20
  6
CONTINUOUS
 62
         7
100
AcDbLine
 10
77.1011974333
 20
60.3845926402
 30
0.0
 11
23.7011974333
 21
60.3845926402
 31
0.0
  0
LINE
  5
6E
100
AcDbEntity
  8
TA900_ISI_B_DN20
  6
CONTINUOUS
 62
         7
100
AcDbLine
 10
77.4011974333
 20
57.8845926402
 30
0.0
 11
23.4011974333
 21
57.8845926402
 31
0.0
  0
LINE
  5
6F
100
AcDbEntity
  8
TA900_ISI_B_DN20
  6
CONTINUOUS
 62
         7
100
AcDbLine
 10
77.4011974333
 20
52.7845926402
 30
0.0
 11
23.4011974333
 21
52.7845926402
 31
0.0
  0
LINE
  5
70
100
AcDbEntity
  8
TA900_ISI_B_DN20
  6
CONTINUOUS
 62
         7
100
AcDbLine
 10
26.3505885101
 20
42.7630536092
 30
0.0
 11
25.1324680087
 21
43.0845926402
 31
0.0
  0
LINE
  5
71
100
AcDbEntity
  8
TA900_ISI_B_DN20
  6
CONTINUOUS
 62
         7
100
AcDbLine
 10
34.4262169951
 20
42.7630536092
 30
0.0
 11
26.3505885101
 21
42.7630536092
 31
0.0
  0
LINE
  5
72
100
AcDbEntity
  8
TA900_ISI_B_DN20
  6
CONTINUOUS
 62
         7
100
AcDbLine
 10
74.4518063565
 20
42.7630536092
 30
0.0
 11
66.3761778715
 21
42.7630536092
 31
0.0
  0
LINE
  5
73
100
AcDbEntity
  8
TA900_ISI_B_DN20
  6
CONTINUOUS
 62
         7
100
AcDbLine
 10
25.1324680087
 20
43.0845926402
 30
0.0
 11
75.6699268579
 21
43.0845926402
 31
0.0
  0
LINE
  5
74
100
AcDbEntity
  8
TA900_ISI_B_DN20
  6
CONTINUOUS
 62
         7
100
AcDbLine
 10
76.5011974333
 20
51.8845926402
 30
0.0
 11
24.3011974333
 21
51.8845926402
 31
0.0
  0
ARC
  5
75
100
AcDbEntity
  8
TA900_ISI_B_DN20
  6
CONTINUOUS
 62
         7
100
AcDbCircle
 10
100.7855497193
 20
29.526078976
 30
0.0
 40
29.4734378201
100
AcDbArc
 50
153.3130573113
 51
182.2195819511
  0
ARC
  5
76
100
AcDbEntity
  8
TA900_ISI_B_DN20
  6
CONTINUOUS
 62
         7
100
AcDbCircle
 10
58.8134623114
 20
29.8845926402
 30
0.0
 40
48.2224357333
100
AcDbArc
 50
168.9560233399
 51
191.0439766601
  0
SPLINE
  5
77
100
AcDbEntity
  8
TA900_ISI_B_DN20
  6
CONTINUOUS
 62
         7
100
AcDbSpline
210
0.0
220
0.0
230
1.0
 70
         8
 71
         3
 72
        16
 73
        12
 74
         0
 42
0.0
 43
0.0
 40
0.0
 40
0.0
 40
0.0
 40
0.0
 40
0.125
 40
0.125
 40
0.25
 40
0.25
 40
0.375
 40
0.375
 40
0.5
 40
0.5
 40
0.5001291442416078
 40
0.5001291442416078
 40
0.5001291442416078
 40
0.5001291442416078
 10
71.334224691690395
 20
28.384592640164676
 30
0.0
 10
71.436329392659431
 20
26.71223048782074
 30
0.0
 10
71.533737208342075
 20
25.105483942787654
 30
0.0
 10
71.71414137987189
 20
22.113317513253367
 30
0.0
 10
71.794580955715503
 20
20.770353988148649
 30
0.0
 10
71.928536202340865
 20
18.525841231530414
 30
0.0
 10
71.981457084616252
 20
17.634432376451883
 30
0.0
 10
72.052676869817873
 20
16.433182014099607
 30
0.0
 10
72.071150593722095
 20
16.12054426600211
 30
0.0
 10
72.071186052400861
 20
16.119944820137629
 30
0.0
 10
72.071186069221255
 20
16.119944536129957
 30
0.0
 10
72.071186066267316
 20
16.119944586763662
 30
0.0
  0
ARC
  5
78
100
AcDbEntity
  8
TA900_ISI_B_DN20
  6
CONTINUOUS
 62
         7
100
AcDbCircle
 10
7.414215979
 20
16.0281861796
 30
0.0
 40
12.4219247198
100
AcDbArc
 50
338.1716867869
 51
21.8283132131
  0
ARC
  5
79
100
AcDbEntity
  8
TA900_ISI_B_DN20
  6
CONTINUOUS
 62
         7
100
AcDbCircle
 10
-28.3838621127
 20
29.8845926402
 30
0.0
 40
48.2224363428
100
AcDbArc
 50
348.9560234812
 51
11.0439765188
  0
ARC
  5
7A
100
AcDbEntity
  8
TA900_ISI_B_DN20
  6
CONTINUOUS
 62
         7
100
AcDbCircle
 10
7.414215979
 20
43.7409991007
 30
0.0
 40
12.4219247198
100
AcDbArc
 50
338.1716867869
 51
21.8283132131
  0
LINE
  5
7B
100
AcDbEntity
  8
TA900_ISI_B_DN20
  6
CONTINUOUS
 62
         7
100
AcDbLine
 10
89.318310057
 20
48.3598012542
 30
0.0
 11
81.8568788564
 21
48.3598012542
 31
0.0
  0
LINE
  5
7C
100
AcDbEntity
  8
TA900_ISI_B_DN20
  6
CONTINUOUS
 62
         7
100
AcDbLine
 10
18.9455160102
 20
20.6469883331
 30
0.0
 11
11.4840848095
 21
20.6469883331
 31
0.0
  0
LINE
  5
7D
100
AcDbEntity
  8
TA900_ISI_B_DN20
  6
CONTINUOUS
 62
         7
100
AcDbLine
 10
18.9455160102
 20
39.1221969472
 30
0.0
 11
11.4840848095
 21
39.1221969472
 31
0.0
  0
LINE
  5
7E
100
AcDbEntity
  8
TA900_ISI_B_DN20
  6
CONTINUOUS
 62
         7
100
AcDbLine
 10
89.318310057
 20
39.1221969472
 30
0.0
 11
81.8568788564
 21
39.1221969472
 31
0.0
  0
ARC
  5
7F
100
AcDbEntity
  8
TA900_ISI_B_DN20
  6
CONTINUOUS
 62
         7
100
AcDbCircle
 10
50.4011974333
 20
125.2076817257
 30
0.0
 40
83.9780727646
100
AcDbArc
 50
259.0339099561
 51
280.9660900439
  0
ARC
  5
80
100
AcDbEntity
  8
TA900_ISI_B_DN20
  6
CONTINUOUS
 62
         7
100
AcDbCircle
 10
-23.7237246486
 20
20.9724765268
 30
0.0
 40
53.6271688604
100
AcDbArc
 50
24.3513160316
 51
26.4229656708
  0
LINE
  5
81
100
AcDbEntity
  8
TA900_ISI_B_DN20
  6
CONTINUOUS
 62
         7
100
AcDbLine
 10
75.6699268579
 20
43.0845926402
 30
0.0
 11
74.4518063565
 21
42.7630536092
 31
0.0
  0
LINE
  5
82
100
AcDbEntity
  8
TA900_ISI_B_DN20
  6
CONTINUOUS
 62
         7
100
AcDbLine
 10
34.4262169951
 20
9.2845926402
 30
0.0
 11
34.4262169951
 21
28.3845926402
 31
0.0
  0
LINE
  5
83
100
AcDbEntity
  8
TA900_ISI_B_DN20
  6
CONTINUOUS
 62
         7
100
AcDbLine
 10
66.3761778715
 20
9.2845926402
 30
0.0
 11
66.3761778715
 21
28.3845926402
 31
0.0
  0
LINE
  5
84
100
AcDbEntity
  8
TA900_ISI_B_DN20
  6
CONTINUOUS
 62
         7
100
AcDbLine
 10
23.0011974333
 20
45.1845926402
 30
0.0
 11
23.0011974333
 21
14.5845926402
 31
0.0
  0
LINE
  5
85
100
AcDbEntity
  8
TA900_ISI_B_DN20
  6
CONTINUOUS
 62
         7
100
AcDbLine
 10
77.8011974333
 20
45.1845926402
 30
0.0
 11
77.8011974333
 21
14.5845926402
 31
0.0
  0
LINE
  5
86
100
AcDbEntity
  8
TA900_ISI_B_DN20
  6
CONTINUOUS
 62
         7
100
AcDbLine
 10
90.4011974333
 20
45.3845926402
 30
0.0
 11
90.4011974333
 21
14.3845926402
 31
0.0
  0
LINE
  5
87
100
AcDbEntity
  8
TA900_ISI_B_DN20
  6
CONTINUOUS
 62
         7
100
AcDbLine
 10
80.7011974333
 20
45.1845926402
 30
0.0
 11
80.7011974333
 21
14.5845926402
 31
0.0
  0
LINE
  5
88
100
AcDbEntity
  8
TA900_ISI_B_DN20
  6
CONTINUOUS
 62
         7
100
AcDbLine
 10
20.1011974333
 20
45.1845926402
 30
0.0
 11
20.1011974333
 21
14.5845926402
 31
0.0
  0
LINE
  5
89
100
AcDbEntity
  8
TA900_ISI_B_DN20
  6
CONTINUOUS
 62
         7
100
AcDbLine
 10
10.4011974333
 20
45.3845926402
 30
0.0
 11
10.4011974333
 21
14.3845926402
 31
0.0
  0
LINE
  5
8A
100
AcDbEntity
  8
TA900_ISI_B_DN20
  6
CONTINUOUS
 62
         7
100
AcDbLine
 10
18.9455160102
 20
48.3598012542
 30
0.0
 11
11.4840848095
 21
48.3598012542
 31
0.0
  0
ARC
  5
8B
100
AcDbEntity
  8
TA900_ISI_B_DN20
  6
CONTINUOUS
 62
         7
100
AcDbCircle
 10
23.0153848408
 20
43.7409991007
 30
0.0
 40
12.4219247198
100
AcDbArc
 50
158.1716867869
 51
201.8283132131
  0
LINE
  5
8C
100
AcDbEntity
  8
TA900_ISI_B_DN20
  6
CONTINUOUS
 62
         7
100
AcDbLine
 10
18.9455160102
 20
11.4093840261
 30
0.0
 11
11.4840848095
 21
11.4093840261
 31
0.0
  0
ARC
  5
8D
100
AcDbEntity
  8
TA900_ISI_B_DN20
  6
CONTINUOUS
 62
         7
100
AcDbCircle
 10
93.3881788876
 20
43.7409991007
 30
0.0
 40
12.4219247198
100
AcDbArc
 50
158.1716867869
 51
201.8283132131
  0
ARC
  5
8E
100
AcDbEntity
  8
TA900_ISI_B_DN20
  6
CONTINUOUS
 62
         7
100
AcDbCircle
 10
129.1862569793
 20
29.8845926402
 30
0.0
 40
48.2224363428
100
AcDbArc
 50
168.9560234812
 51
191.0439765188
  0
ARC
  5
8F
100
AcDbEntity
  8
TA900_ISI_B_DN20
  6
CONTINUOUS
 62
         7
100
AcDbCircle
 10
93.3881788876
 20
16.0281861796
 30
0.0
 40
12.4219247198
100
AcDbArc
 50
158.1716867869
 51
201.8283132131
  0
LINE
  5
90
100
AcDbEntity
  8
TA900_ISI_B_DN20
  6
CONTINUOUS
 62
         7
100
AcDbLine
 10
89.318310057
 20
20.6469883331
 30
0.0
 11
81.8568788564
 21
20.6469883331
 31
0.0
  0
ARC
  5
91
100
AcDbEntity
  8
TA900_ISI_B_DN20
  6
CONTINUOUS
 62
         7
100
AcDbCircle
 10
23.0153848408
 20
16.0281861796
 30
0.0
 40
12.4219247198
100
AcDbArc
 50
158.1716867869
 51
201.8283132131
  0
ARC
  5
92
100
AcDbEntity
  8
TA900_ISI_B_DN20
  6
CONTINUOUS
 62
         7
100
AcDbCircle
 10
77.7870100258
 20
43.7409991007
 30
0.0
 40
12.4219247198
100
AcDbArc
 50
338.1716867869
 51
21.8283132131
  0
ARC
  5
93
100
AcDbEntity
  8
TA900_ISI_B_DN20
  6
CONTINUOUS
 62
         7
100
AcDbCircle
 10
41.9889325552
 20
29.8845926402
 30
0.0
 40
48.2224357333
100
AcDbArc
 50
348.9560233399
 51
11.0439766601
  0
ARC
  5
94
100
AcDbEntity
  8
TA900_ISI_B_DN20
  6
CONTINUOUS
 62
         7
100
AcDbCircle
 10
0.187974645
 20
29.5631837945
 30
0.0
 40
29.3039063501
100
AcDbArc
 50
357.6949654022
 51
26.7723953354
  0
LINE
  5
95
100
AcDbEntity
  8
TA900_ISI_B_DN20
  6
CONTINUOUS
 62
         7
100
AcDbLine
 10
34.4262169951
 20
42.7630536092
 30
0.0
 11
34.4262169951
 21
28.3845926402
 31
0.0
  0
LINE
  5
96
100
AcDbEntity
  8
TA900_ISI_B_DN20
  6
CONTINUOUS
 62
         7
100
AcDbLine
 10
66.3761778715
 20
42.7630536092
 30
0.0
 11
66.3761778715
 21
28.3845926402
 31
0.0
  0
ARC
  5
97
100
AcDbEntity
  8
TA900_ISI_B_DN20
  6
CONTINUOUS
 62
         7
100
AcDbCircle
 10
124.526119515
 20
20.9724765268
 30
0.0
 40
53.6271688602
100
AcDbArc
 50
153.5770343292
 51
155.6486839684
  0
SPLINE
  5
98
100
AcDbEntity
  8
TA900_ISI_B_DN20
  6
CONTINUOUS
 62
         7
100
AcDbSpline
210
0.0
220
0.0
230
1.0
 70
         8
 71
         3
 72
        14
 73
        10
 74
         0
 42
0.0
 43
0.0
 40
0.5001344064574292
 40
0.5001344064574292
 40
0.5001344064574292
 40
0.5001344064574292
 40
0.625
 40
0.625
 40
0.75
 40
0.75
 40
0.875
 40
0.875
 40
1.0
 40
1.0
 40
1.0
 40
1.0
 10
28.731208800768812
 20
16.11994459461997
 30
0.0
 10
28.731213214924697
 20
16.120019918362171
 30
0.0
 10
28.749703319728592
 20
16.432928879663571
 30
0.0
 10
28.820550804119041
 20
17.627910847185035
 30
0.0
 10
28.873810948143891
 20
18.525019063563214
 30
0.0
 10
29.006912303373564
 20
20.755269422318172
 30
0.0
 10
29.088249447048529
 20
22.113200564184034
 30
0.0
 10
29.267105137488802
 20
25.079783496281316
 30
0.0
 10
29.366065118524443
 20
26.71222466688144
 30
0.0
 10
29.468170174886161
 20
28.384592640164676
 30
0.0
  0
LINE
  5
99
100
AcDbEntity
  8
TA900_ISI_B_DN20
  6
CONTINUOUS
 62
         7
100
AcDbLine
 10
77.8011974333
 20
45.1845926402
 30
0.0
 11
76.4968334208
 21
44.8350893564
 31
0.0
  0
LINE
  5
9A
100
AcDbEntity
  8
TA900_ISI_B_DN20
  6
CONTINUOUS
 62
         7
100
AcDbLine
 10
11.4840848095
 20
48.3598012542
 30
0.0
 11
10.4011974333
 21
45.3845926402
 31
0.0
  0
LINE
  5
9B
100
AcDbEntity
  8
TA900_ISI_B_DN20
  6
CONTINUOUS
 62
         7
100
AcDbLine
 10
66.9011974333
 20
69.8845926402
 30
0.0
 11
33.9011974333
 21
69.8845926402
 31
0.0
  0
ARC
  5
9C
100
AcDbEntity
  8
TA900_ISI_B_DN20
  6
CONTINUOUS
 62
         7
100
AcDbCircle
 10
50.4011974333
 20
28.3845926402
 30
0.0
 40
24.9
100
AcDbArc
 50
309.9086526525
 51
330.5106059717
  0
ARC
  5
9D
100
AcDbEntity
  8
TA900_ISI_B_DN20
  6
CONTINUOUS
 62
         7
100
AcDbCircle
 10
50.4011974333
 20
72.8845926402
 30
0.0
 40
14.566657132
100
AcDbArc
 50
0.0
 51
180.0
  0
LINE
  5
9E
100
AcDbEntity
  8
TA900_ISI_B_DN20
  6
CONTINUOUS
 62
         7
100
AcDbLine
 10
64.9678545652
 20
71.8845926402
 30
0.0
 11
64.9678545652
 21
72.8845926402
 31
0.0
  0
LINE
  5
9F
100
AcDbEntity
  8
TA900_ISI_B_DN20
  6
CONTINUOUS
 62
         7
100
AcDbLine
 10
35.8345403013
 20
72.8845926402
 30
0.0
 11
35.8345403013
 21
71.8845926402
 31
0.0
  0
LINE
  5
A0
100
AcDbEntity
  8
TA900_ISI_B_DN20
  6
CONTINUOUS
 62
         7
100
AcDbLine
 10
106.4011974333
 20
71.8845926402
 30
0.0
 11
64.9678545652
 21
71.8845926402
 31
0.0
  0
LINE
  5
A1
100
AcDbEntity
  8
TA900_ISI_B_DN20
  6
CONTINUOUS
 62
         7
100
AcDbLine
 10
16.9011974333
 20
71.8845926402
 30
0.0
 11
16.9011974333
 21
77.5858828003
 31
0.0
  0
LINE
  5
A2
100
AcDbEntity
  8
TA900_ISI_B_DN20
  6
CONTINUOUS
 62
         7
100
AcDbLine
 10
109.4011974333
 20
71.8845926402
 30
0.0
 11
106.4011974333
 21
71.8845926402
 31
0.0
  0
LINE
  5
A3
100
AcDbEntity
  8
TA900_ISI_B_DN20
  6
CONTINUOUS
 62
         7
100
AcDbLine
 10
109.4011974333
 20
82.3774899332
 30
0.0
 11
109.4011974333
 21
71.8845926402
 31
0.0
  0
ARC
  5
A4
100
AcDbEntity
  8
TA900_ISI_B_DN20
  6
CONTINUOUS
 62
         7
100
AcDbCircle
 10
90.1343070523
 20
-236.6154073598
 30
0.0
 40
330.1
100
AcDbArc
 50
88.5154781307
 51
101.4663992952
  0
ARC
  5
A5
100
AcDbEntity
  8
TA900_ISI_B_DN20
  6
CONTINUOUS
 62
         7
100
AcDbCircle
 10
98.4011974333
 20
82.3774899332
 30
0.0
 40
11.0
100
AcDbArc
 50
0.0
 51
88.5154781307
  0
LINE
  5
A6
100
AcDbEntity
  8
TA900_ISI_B_DN20
  6
CONTINUOUS
 62
         7
100
AcDbLine
 10
19.9011974333
 20
71.8845926402
 30
0.0
 11
16.9011974333
 21
71.8845926402
 31
0.0
  0
ARC
  5
A7
100
AcDbEntity
  8
TA900_ISI_B_DN20
  6
CONTINUOUS
 62
         7
100
AcDbCircle
 10
26.4011974333
 20
77.5858828003
 30
0.0
 40
9.5
100
AcDbArc
 50
101.4663992952
 51
180.0
  0
LINE
  5
A8
100
AcDbEntity
  8
TA900_ISI_B_DN20
  6
CONTINUOUS
 62
         7
100
AcDbLine
 10
35.8345403013
 20
71.8845926402
 30
0.0
 11
19.9011974333
 21
71.8845926402
 31
0.0
  0
LINE
  5
A9
100
AcDbEntity
  8
TA900_ISI_B_DN20
  6
CONTINUOUS
 62
         7
100
AcDbLine
 10
89.318310057
 20
11.4093840261
 30
0.0
 11
90.4011974333
 21
14.3845926402
 31
0.0
  0
LINE
  5
AA
100
AcDbEntity
  8
TA900_ISI_B_DN20
  6
CONTINUOUS
 62
         7
100
AcDbLine
 10
77.1011974333
 20
57.8845926402
 30
0.0
 11
77.1011974333
 21
60.3845926402
 31
0.0
  0
LINE
  5
AB
100
AcDbEntity
  8
TA900_ISI_B_DN20
  6
CONTINUOUS
 62
         7
100
AcDbLine
 10
23.4011974333
 20
52.7845926402
 30
0.0
 11
24.3011974333
 21
51.8845926402
 31
0.0
  0
LINE
  5
AC
100
AcDbEntity
  8
TA900_ISI_B_DN20
  6
CONTINUOUS
 62
         7
100
AcDbLine
 10
23.4011974333
 20
57.8845926402
 30
0.0
 11
23.4011974333
 21
52.7845926402
 31
0.0
  0
LINE
  5
AD
100
AcDbEntity
  8
TA900_ISI_B_DN20
  6
CONTINUOUS
 62
         7
100
AcDbLine
 10
34.4262169951
 20
9.2845926402
 30
0.0
 11
66.3761778715
 21
9.2845926402
 31
0.0
  0
ARC
  5
AE
100
AcDbEntity
  8
TA900_ISI_B_DN20
  6
CONTINUOUS
 62
         7
100
AcDbCircle
 10
77.7870100258
 20
16.0281861796
 30
0.0
 40
12.4219247198
100
AcDbArc
 50
338.1716867869
 51
21.8283132131
  0
LINE
  5
AF
100
AcDbEntity
  8
TA900_ISI_B_DN20
  6
CONTINUOUS
 62
         7
100
AcDbLine
 10
72.0681444882
 20
16.120759547
 30
0.0
 11
77.8011974333
 21
14.5845926402
 31
0.0
  0
LINE
  5
B0
100
AcDbEntity
  8
TA900_ISI_B_DN20
  6
CONTINUOUS
 62
         7
100
AcDbLine
 10
66.9011974333
 20
69.8845926402
 30
0.0
 11
66.9011974333
 21
71.8845926402
 31
0.0
  0
LINE
  5
B1
100
AcDbEntity
  8
TA900_ISI_B_DN20
  6
CONTINUOUS
 62
         7
100
AcDbLine
 10
62.9011974333
 20
68.8845926402
 30
0.0
 11
62.9011974333
 21
69.8845926402
 31
0.0
  0
LINE
  5
B2
100
AcDbEntity
  8
TA900_ISI_B_DN20
  6
CONTINUOUS
 62
         7
100
AcDbLine
 10
10.4011974333
 20
14.3845926402
 30
0.0
 11
11.4840848095
 21
11.4093840261
 31
0.0
  0
LINE
  5
B3
100
AcDbEntity
  8
TA900_ISI_B_DN20
  6
CONTINUOUS
 62
         7
100
AcDbLine
 10
90.4011974333
 20
45.3845926402
 30
0.0
 11
89.318310057
 21
48.3598012542
 31
0.0
  0
LINE
  5
B4
100
AcDbEntity
  8
TA900_ISI_B_DN20
  6
CONTINUOUS
 62
         7
100
AcDbLine
 10
89.318310057
 20
11.4093840261
 30
0.0
 11
81.8568788564
 21
11.4093840261
 31
0.0
  0
LINE
  5
B5
100
AcDbEntity
  8
TA900_ISI_B_DN20
  6
CONTINUOUS
 62
         7
100
AcDbLine
 10
23.7011974333
 20
60.3845926402
 30
0.0
 11
23.7011974333
 21
57.8845926402
 31
0.0
  0
LINE
  5
B6
100
AcDbEntity
  8
TA900_ISI_B_DN20
  6
CONTINUOUS
 62
         7
100
AcDbLine
 10
76.5011974333
 20
51.8845926402
 30
0.0
 11
77.4011974333
 21
52.7845926402
 31
0.0
  0
LINE
  5
B7
100
AcDbEntity
  8
TA900_ISI_B_DN20
  6
CONTINUOUS
 62
         7
100
AcDbLine
 10
77.4011974333
 20
52.7845926402
 30
0.0
 11
77.4011974333
 21
57.8845926402
 31
0.0
  0
LINE
  5
B8
100
AcDbEntity
  8
TA900_ISI_B_DN20
  6
CONTINUOUS
 62
         7
100
AcDbLine
 10
24.3011974333
 20
51.8845926402
 30
0.0
 11
24.3011974333
 21
44.8304867894
 31
0.0
  0
LINE
  5
B9
100
AcDbEntity
  8
TA900_ISI_B_DN20
  6
CONTINUOUS
 62
         7
100
AcDbLine
 10
23.0011974333
 20
14.5845926402
 30
0.0
 11
28.7342503784
 21
16.120759547
 31
0.0
  0
ARC
  5
BA
100
AcDbEntity
  8
TA900_ISI_B_DN20
  6
CONTINUOUS
 62
         7
100
AcDbCircle
 10
50.4011974333
 20
28.3845926402
 30
0.0
 40
24.9
100
AcDbArc
 50
209.4891747747
 51
230.0913473475
  0
LINE
  5
BB
100
AcDbEntity
  8
TA900_ISI_B_DN20
  6
CONTINUOUS
 62
         7
100
AcDbLine
 10
23.0011974333
 20
45.1845926402
 30
0.0
 11
20.1011974333
 21
45.1845926402
 31
0.0
  0
LINE
  5
BC
100
AcDbEntity
  8
TA900_ISI_B_DN20
  6
CONTINUOUS
 62
         7
100
AcDbLine
 10
80.7011974333
 20
45.1845926402
 30
0.0
 11
77.8011974333
 21
45.1845926402
 31
0.0
  0
LINE
  5
BD
100
AcDbEntity
  8
TA900_ISI_B_DN20
  6
CONTINUOUS
 62
         7
100
AcDbLine
 10
81.8568788564
 20
48.3598012542
 30
0.0
 11
80.7011974333
 21
45.1845926402
 31
0.0
  0
LINE
  5
BE
100
AcDbEntity
  8
TA900_ISI_B_DN20
  6
CONTINUOUS
 62
         7
100
AcDbLine
 10
18.9455160102
 20
11.4093840261
 30
0.0
 11
20.1011974333
 21
14.5845926402
 31
0.0
  0
LINE
  5
BF
100
AcDbEntity
  8
TA900_ISI_B_DN20
  6
CONTINUOUS
 62
         7
100
AcDbLine
 10
33.9011974333
 20
71.8845926402
 30
0.0
 11
33.9011974333
 21
69.8845926402
 31
0.0
  0
LINE
  5
C0
100
AcDbEntity
  8
TA900_ISI_B_DN20
  6
CONTINUOUS
 62
         7
100
AcDbLine
 10
37.9011974333
 20
69.8845926402
 30
0.0
 11
37.9011974333
 21
68.8845926402
 31
0.0
  0
LINE
  5
C1
100
AcDbEntity
  8
TA900_ISI_B_DN20
  6
CONTINUOUS
 62
         7
100
AcDbLine
 10
76.5011974333
 20
44.8304867894
 30
0.0
 11
76.5011974333
 21
51.8845926402
 31
0.0
  0
LINE
  5
C2
100
AcDbEntity
  8
TA900_ISI_B_DN20
  6
CONTINUOUS
 62
         7
100
AcDbLine
 10
24.3055614458
 20
44.8350893564
 30
0.0
 11
23.0011974333
 21
45.1845926402
 31
0.0
  0
LINE
  5
C3
100
AcDbEntity
  8
TA900_ISI_B_DN20
  6
CONTINUOUS
 62
         7
100
AcDbLine
 10
20.1011974333
 20
14.5845926402
 30
0.0
 11
23.0011974333
 21
14.5845926402
 31
0.0
  0
LINE
  5
C4
100
AcDbEntity
  8
TA900_ISI_B_DN20
  6
CONTINUOUS
 62
         7
100
AcDbLine
 10
77.8011974333
 20
14.5845926402
 30
0.0
 11
80.7011974333
 21
14.5845926402
 31
0.0
  0
LINE
  5
C5
100
AcDbEntity
  8
TA900_ISI_B_DN20
  6
CONTINUOUS
 62
         7
100
AcDbLine
 10
80.7011974333
 20
14.5845926402
 30
0.0
 11
81.8568788564
 21
11.4093840261
 31
0.0
  0
LINE
  5
C6
100
AcDbEntity
  8
TA900_ISI_B_DN20
  6
CONTINUOUS
 62
         7
100
AcDbLine
 10
20.1011974333
 20
45.1845926402
 30
0.0
 11
18.9455160102
 21
48.3598012542
 31
0.0
  0
ENDBLK
  5
C7
100
AcDbEntity
  8
TA900_ISI_B_DN20
  6
CONTINUOUS
 62
         7
100
AcDbBlockEnd
  0
BLOCK
  5
11A
100
AcDbEntity
  8
0
 62
         1
 48
0.0
100
AcDbBlockBegin
  2
SE2
 70
         0
 10
0.0
 20
0.0
 30
0.0
  3
SE2
  1

  0
ENDBLK
  5
11B
100
AcDbEntity
  8
0
 62
         1
 48
0.0
100
AcDbBlockEnd
  0
BLOCK
  5
CA
100
AcDbEntity
  8
0
 62
         1
 48
0.0
100
AcDbBlockBegin
  2
SE3
 70
         0
 10
0.0
 20
0.0
 30
0.0
  3
SE3
  1

  0
LINE
  5
CB
100
AcDbEntity
  8
TA900_ISI_B_DN20
  6
CONTINUOUS
 62
         7
100
AcDbLine
 10
47.6934155381
 20
178.3178309969
 30
0.0
 11
46.5949507419
 21
178.3178309969
 31
0.0
  0
LINE
  5
CC
100
AcDbEntity
  8
TA900_ISI_B_DN20
  6
CONTINUOUS
 62
         7
100
AcDbLine
 10
49.3344954746
 20
178.3178309969
 30
0.0
 11
49.1836219965
 21
178.3178309969
 31
0.0
  0
LINE
  5
CD
100
AcDbEntity
  8
TA900_ISI_B_DN20
  6
CONTINUOUS
 62
         7
100
AcDbLine
 10
47.6934155381
 20
178.3178309969
 30
0.0
 11
47.6934155381
 21
178.0178309969
 31
0.0
  0
LINE
  5
CE
100
AcDbEntity
  8
TA900_ISI_B_DN20
  6
CONTINUOUS
 62
         7
100
AcDbLine
 10
49.1836219965
 20
178.3178309969
 30
0.0
 11
47.6934155381
 21
178.3178309969
 31
0.0
  0
LINE
  5
CF
100
AcDbEntity
  8
TA900_ISI_B_DN20
  6
CONTINUOUS
 62
         7
100
AcDbLine
 10
46.5949507419
 20
178.3178309969
 30
0.0
 11
46.5949507419
 21
178.0178309969
 31
0.0
  0
LINE
  5
D0
100
AcDbEntity
  8
TA900_ISI_B_DN20
  6
CONTINUOUS
 62
         7
100
AcDbLine
 10
49.1836219965
 20
178.3178309969
 30
0.0
 11
49.1836219965
 21
178.0178309969
 31
0.0
  0
LINE
  5
D1
100
AcDbEntity
  8
TA900_ISI_B_DN20
  6
CONTINUOUS
 62
         7
100
AcDbLine
 10
52.2037384603
 20
178.3178309969
 30
0.0
 11
52.71194386
 21
178.3178309969
 31
0.0
  0
LINE
  5
D2
100
AcDbEntity
  8
TA900_ISI_B_DN20
  6
CONTINUOUS
 62
         7
100
AcDbLine
 10
52.71194386
 20
178.3178309969
 30
0.0
 11
54.2921450246
 21
178.3178309969
 31
0.0
  0
LINE
  5
D3
100
AcDbEntity
  8
TA900_ISI_B_DN20
  6
CONTINUOUS
 62
         7
100
AcDbLine
 10
49.3344954746
 20
178.3178309969
 30
0.0
 11
51.8146437012
 21
178.3178309969
 31
0.0
  0
LINE
  5
D4
100
AcDbEntity
  8
TA900_ISI_B_DN20
  6
CONTINUOUS
 62
         7
100
AcDbLine
 10
51.8146437012
 20
178.3178309969
 30
0.0
 11
52.2037384603
 21
178.3178309969
 31
0.0
  0
LINE
  5
D5
100
AcDbEntity
  8
TA900_ISI_B_DN20
  6
CONTINUOUS
 62
         7
100
AcDbLine
 10
54.2921450246
 20
178.3178309969
 30
0.0
 11
54.2921450246
 21
178.0178309969
 31
0.0
  0
LINE
  5
D6
100
AcDbEntity
  8
TA900_ISI_B_DN20
  6
CONTINUOUS
 62
         7
100
AcDbLine
 10
52.71194386
 20
178.3178309969
 30
0.0
 11
52.71194386
 21
178.0178309969
 31
0.0
  0
LINE
  5
D7
100
AcDbEntity
  8
TA900_ISI_B_DN20
  6
CONTINUOUS
 62
         7
100
AcDbLine
 10
52.2037384603
 20
178.3178309969
 30
0.0
 11
52.2037384603
 21
178.0178309969
 31
0.0
  0
LINE
  5
D8
100
AcDbEntity
  8
TA900_ISI_B_DN20
  6
CONTINUOUS
 62
         7
100
AcDbLine
 10
49.3344954746
 20
178.3178309969
 30
0.0
 11
49.3344954746
 21
178.0178309969
 31
0.0
  0
LINE
  5
D9
100
AcDbEntity
  8
TA900_ISI_B_DN20
  6
CONTINUOUS
 62
         7
100
AcDbLine
 10
51.8146437012
 20
178.3178309969
 30
0.0
 11
51.8146437012
 21
178.0178309969
 31
0.0
  0
ARC
  5
DA
100
AcDbEntity
  8
TA900_ISI_B_DN20
  6
CONTINUOUS
 62
         7
100
AcDbCircle
 10
50.4011974333
 20
158.9178309969
 30
0.0
 40
27.0
100
AcDbArc
 50
31.5411899445
 51
148.4588100555
  0
ARC
  5
DB
100
AcDbEntity
  8
TA900_ISI_B_DN20
  6
CONTINUOUS
 62
         7
100
AcDbCircle
 10
50.4011974333
 20
158.9178309969
 30
0.0
 40
27.0
100
AcDbArc
 50
211.5411899445
 51
328.4588100555
  0
ARC
  5
DC
100
AcDbEntity
  8
TA900_ISI_B_DN20
  6
CONTINUOUS
 62
         7
100
AcDbCircle
 10
50.4011974333
 20
158.9178309969
 30
0.0
 40
26.1
100
AcDbArc
 50
32.1288745678
 51
147.8711254322
  0
LINE
  5
DD
100
AcDbEntity
  8
TA900_ISI_B_DN20
  6
CONTINUOUS
 62
         7
100
AcDbLine
 10
11.4840848095
 20
174.9178309969
 30
0.0
 11
10.5831843159
 21
174.9178309969
 31
0.0
  0
ARC
  5
DE
100
AcDbEntity
  8
TA900_ISI_B_DN20
  6
CONTINUOUS
 62
         7
100
AcDbCircle
 10
-48.9208091397
 20
158.9178309969
 30
0.0
 40
121.0086423838
100
AcDbArc
 50
353.6022392992
 51
6.3977607008
  0
LINE
  5
DF
100
AcDbEntity
  8
TA900_ISI_B_DN20
  6
CONTINUOUS
 62
         7
100
AcDbLine
 10
19.8464164907
 20
174.9178309969
 30
0.0
 11
18.9455160102
 21
174.9178309969
 31
0.0
  0
LINE
  5
E0
100
AcDbEntity
  8
TA900_ISI_B_DN20
  6
CONTINUOUS
 62
         7
100
AcDbLine
 10
81.8568788564
 20
142.9178309969
 30
0.0
 11
80.9559783759
 21
142.9178309969
 31
0.0
  0
ARC
  5
E1
100
AcDbEntity
  8
TA900_ISI_B_DN20
  6
CONTINUOUS
 62
         7
100
AcDbCircle
 10
-16.4510797263
 20
166.9178309969
 30
0.0
 40
36.2893784699
100
AcDbArc
 50
347.2645244266
 51
12.7354755734
  0
LINE
  5
E2
100
AcDbEntity
  8
TA900_ISI_B_DN20
  6
CONTINUOUS
 62
         7
100
AcDbLine
 10
19.8464164907
 20
142.9178309969
 30
0.0
 11
18.9455160102
 21
142.9178309969
 31
0.0
  0
ARC
  5
E3
100
AcDbEntity
  8
TA900_ISI_B_DN20
  6
CONTINUOUS
 62
         7
100
AcDbCircle
 10
117.2534745929
 20
150.9178309969
 30
0.0
 40
36.2893784699
100
AcDbArc
 50
167.2645244266
 51
192.7354755734
  0
LINE
  5
E4
100
AcDbEntity
  8
TA900_ISI_B_DN20
  6
CONTINUOUS
 62
         7
100
AcDbLine
 10
18.9455160102
 20
174.9178309969
 30
0.0
 11
11.4840848095
 21
174.9178309969
 31
0.0
  0
LINE
  5
E5
100
AcDbEntity
  8
TA900_ISI_B_DN20
  6
CONTINUOUS
 62
         7
100
AcDbLine
 10
66.3761778715
 20
178.0178309969
 30
0.0
 11
34.4262169951
 21
178.0178309969
 31
0.0
  0
ARC
  5
E6
100
AcDbEntity
  8
TA900_ISI_B_DN20
  6
CONTINUOUS
 62
         7
100
AcDbCircle
 10
50.4011974333
 20
158.9178309969
 30
0.0
 40
24.9
100
AcDbArc
 50
212.7875994826
 51
230.0913473475
  0
LINE
  5
E7
100
AcDbEntity
  8
TA900_ISI_B_DN20
  6
CONTINUOUS
 62
         7
100
AcDbLine
 10
34.4262169951
 20
178.0178309969
 30
0.0
 11
34.4262169951
 21
139.8178309969
 31
0.0
  0
ARC
  5
E8
100
AcDbEntity
  8
TA900_ISI_B_DN20
  6
CONTINUOUS
 62
         7
100
AcDbCircle
 10
50.4011974333
 20
158.9178309969
 30
0.0
 40
24.9
100
AcDbArc
 50
129.9086526525
 51
147.2124005174
  0
ARC
  5
E9
100
AcDbEntity
  8
TA900_ISI_B_DN20
  6
CONTINUOUS
 62
         7
100
AcDbCircle
 10
50.4011974333
 20
158.9178309969
 30
0.0
 40
24.9
100
AcDbArc
 50
32.7875994826
 51
50.0913473475
  0
LINE
  5
EA
100
AcDbEntity
  8
TA900_ISI_B_DN20
  6
CONTINUOUS
 62
         7
100
AcDbLine
 10
66.3761778715
 20
178.0178309969
 30
0.0
 11
66.3761778715
 21
139.8178309969
 31
0.0
  0
LINE
  5
EB
100
AcDbEntity
  8
TA900_ISI_B_DN20
  6
CONTINUOUS
 62
         7
100
AcDbLine
 10
77.8011974333
 20
143.6178309969
 30
0.0
 11
77.8011974333
 21
174.2178309969
 31
0.0
  0
LINE
  5
EC
100
AcDbEntity
  8
TA900_ISI_B_DN20
  6
CONTINUOUS
 62
         7
100
AcDbLine
 10
23.0011974333
 20
143.6178309969
 30
0.0
 11
23.0011974333
 21
174.2178309969
 31
0.0
  0
LINE
  5
ED
100
AcDbEntity
  8
TA900_ISI_B_DN20
  6
CONTINUOUS
 62
         7
100
AcDbLine
 10
90.4011974333
 20
143.4178309969
 30
0.0
 11
90.4011974333
 21
174.4178309969
 31
0.0
  0
LINE
  5
EE
100
AcDbEntity
  8
TA900_ISI_B_DN20
  6
CONTINUOUS
 62
         7
100
AcDbLine
 10
20.1011974333
 20
143.6178309969
 30
0.0
 11
20.1011974333
 21
174.2178309969
 31
0.0
  0
LINE
  5
EF
100
AcDbEntity
  8
TA900_ISI_B_DN20
  6
CONTINUOUS
 62
         7
100
AcDbLine
 10
10.5831843159
 20
142.9178309969
 30
0.0
 11
11.4840848095
 21
142.9178309969
 31
0.0
  0
LINE
  5
F0
100
AcDbEntity
  8
TA900_ISI_B_DN20
  6
CONTINUOUS
 62
         7
100
AcDbLine
 10
10.4011974333
 20
143.4178309969
 30
0.0
 11
10.4011974333
 21
174.4178309969
 31
0.0
  0
ARC
  5
F1
100
AcDbEntity
  8
TA900_ISI_B_DN20
  6
CONTINUOUS
 62
         7
100
AcDbCircle
 10
46.880680546
 20
150.9178309969
 30
0.0
 40
36.2893784699
100
AcDbArc
 50
167.2645244266
 51
192.7354755734
  0
LINE
  5
F2
100
AcDbEntity
  8
TA900_ISI_B_DN20
  6
CONTINUOUS
 62
         7
100
AcDbLine
 10
80.7011974333
 20
143.6178309969
 30
0.0
 11
80.7011974333
 21
174.2178309969
 31
0.0
  0
LINE
  5
F3
100
AcDbEntity
  8
TA900_ISI_B_DN20
  6
CONTINUOUS
 62
         7
100
AcDbLine
 10
18.9455160102
 20
142.9178309969
 30
0.0
 11
11.4840848095
 21
142.9178309969
 31
0.0
  0
ARC
  5
F4
100
AcDbEntity
  8
TA900_ISI_B_DN20
  6
CONTINUOUS
 62
         7
100
AcDbCircle
 10
117.2534745929
 20
166.9178309969
 30
0.0
 40
36.2893784699
100
AcDbArc
 50
167.2645244266
 51
192.7354755734
  0
LINE
  5
F5
100
AcDbEntity
  8
TA900_ISI_B_DN20
  6
CONTINUOUS
 62
         7
100
AcDbLine
 10
81.8568788564
 20
174.9178309969
 30
0.0
 11
80.9559783759
 21
174.9178309969
 31
0.0
  0
LINE
  5
F6
100
AcDbEntity
  8
TA900_ISI_B_DN20
  6
CONTINUOUS
 62
         7
100
AcDbLine
 10
18.9455160102
 20
158.9178309969
 30
0.0
 11
11.4840848095
 21
158.9178309969
 31
0.0
  0
LINE
  5
F7
100
AcDbEntity
  8
TA900_ISI_B_DN20
  6
CONTINUOUS
 62
         7
100
AcDbLine
 10
89.318310057
 20
142.9178309969
 30
0.0
 11
81.8568788564
 21
142.9178309969
 31
0.0
  0
ARC
  5
F8
100
AcDbEntity
  8
TA900_ISI_B_DN20
  6
CONTINUOUS
 62
         7
100
AcDbCircle
 10
-16.4510797263
 20
150.9178309969
 30
0.0
 40
36.2893784699
100
AcDbArc
 50
347.2645244266
 51
12.7354755734
  0
LINE
  5
F9
100
AcDbEntity
  8
TA900_ISI_B_DN20
  6
CONTINUOUS
 62
         7
100
AcDbLine
 10
89.318310057
 20
174.9178309969
 30
0.0
 11
81.8568788564
 21
174.9178309969
 31
0.0
  0
LINE
  5
FA
100
AcDbEntity
  8
TA900_ISI_B_DN20
  6
CONTINUOUS
 62
         7
100
AcDbLine
 10
90.2192105507
 20
142.9178309969
 30
0.0
 11
89.318310057
 21
142.9178309969
 31
0.0
  0
ARC
  5
FB
100
AcDbEntity
  8
TA900_ISI_B_DN20
  6
CONTINUOUS
 62
         7
100
AcDbCircle
 10
53.9217143205
 20
150.9178309969
 30
0.0
 40
36.2893784699
100
AcDbArc
 50
347.2645244266
 51
12.7354755734
  0
ARC
  5
FC
100
AcDbEntity
  8
TA900_ISI_B_DN20
  6
CONTINUOUS
 62
         7
100
AcDbCircle
 10
46.880680546
 20
166.9178309969
 30
0.0
 40
36.2893784699
100
AcDbArc
 50
167.2645244266
 51
192.7354755734
  0
LINE
  5
FD
100
AcDbEntity
  8
TA900_ISI_B_DN20
  6
CONTINUOUS
 62
         7
100
AcDbLine
 10
89.318310057
 20
174.9178309969
 30
0.0
 11
90.2192105507
 21
174.9178309969
 31
0.0
  0
LINE
  5
FE
100
AcDbEntity
  8
TA900_ISI_B_DN20
  6
CONTINUOUS
 62
         7
100
AcDbLine
 10
66.3761778715
 20
139.8178309969
 30
0.0
 11
34.4262169951
 21
139.8178309969
 31
0.0
  0
ARC
  5
FF
100
AcDbEntity
  8
TA900_ISI_B_DN20
  6
CONTINUOUS
 62
         7
100
AcDbCircle
 10
50.4011974333
 20
158.9178309969
 30
0.0
 40
24.9
100
AcDbArc
 50
309.9086526525
 51
327.2124005174
  0
ARC
  5
100
100
AcDbEntity
  8
TA900_ISI_B_DN20
  6
CONTINUOUS
 62
         7
100
AcDbCircle
 10
149.7232040062
 20
158.9178309969
 30
0.0
 40
121.0086423838
100
AcDbArc
 50
173.6022392992
 51
186.3977607008
  0
LINE
  5
101
100
AcDbEntity
  8
TA900_ISI_B_DN20
  6
CONTINUOUS
 62
         7
100
AcDbLine
 10
77.8011974333
 20
174.2178309969
 30
0.0
 11
71.2924514692
 21
172.473817772
 31
0.0
  0
LINE
  5
102
100
AcDbEntity
  8
TA900_ISI_B_DN20
  6
CONTINUOUS
 62
         7
100
AcDbLine
 10
10.5831825504
 20
174.9178309969
 30
0.0
 11
10.4011974333
 21
174.4178309969
 31
0.0
  0
LINE
  5
103
100
AcDbEntity
  8
TA900_ISI_B_DN20
  6
CONTINUOUS
 62
         7
100
AcDbLine
 10
106.4011974333
 20
166.6678309969
 30
0.0
 11
90.4011974333
 21
166.6678309969
 31
0.0
  0
LINE
  5
104
100
AcDbEntity
  8
TA900_ISI_B_DN20
  6
CONTINUOUS
 62
         7
100
AcDbLine
 10
106.4011974333
 20
151.1678309969
 30
0.0
 11
90.4011974333
 21
151.1678309969
 31
0.0
  0
LINE
  5
105
100
AcDbEntity
  8
TA900_ISI_B_DN20
  6
CONTINUOUS
 62
         7
100
AcDbLine
 10
109.4011974333
 20
163.6678309969
 30
0.0
 11
109.4011974333
 21
154.1678309969
 31
0.0
  0
ARC
  5
106
100
AcDbEntity
  8
TA900_ISI_B_DN20
  6
CONTINUOUS
 62
         7
100
AcDbCircle
 10
106.4011974333
 20
163.6678309969
 30
0.0
 40
3.0
100
AcDbArc
 50
0.0
 51
90.0
  0
ARC
  5
107
100
AcDbEntity
  8
TA900_ISI_B_DN20
  6
CONTINUOUS
 62
         7
100
AcDbCircle
 10
106.4011974333
 20
154.1678309969
 30
0.0
 40
3.0
100
AcDbArc
 50
270.0
 51
360.0
  0
LINE
  5
108
100
AcDbEntity
  8
TA900_ISI_B_DN20
  6
CONTINUOUS
 62
         7
100
AcDbLine
 10
90.2192123162
 20
142.9178309969
 30
0.0
 11
90.4011974333
 21
143.4178309969
 31
0.0
  0
ARC
  5
109
100
AcDbEntity
  8
TA900_ISI_B_DN20
  6
CONTINUOUS
 62
         7
100
AcDbCircle
 10
53.9217143205
 20
166.9178309969
 30
0.0
 40
36.2893784699
100
AcDbArc
 50
347.2645244266
 51
12.7354755734
  0
LINE
  5
10A
100
AcDbEntity
  8
TA900_ISI_B_DN20
  6
CONTINUOUS
 62
         7
100
AcDbLine
 10
71.2913549012
 20
145.3621380462
 30
0.0
 11
77.8011974333
 21
143.6178309969
 31
0.0
  0
LINE
  5
10B
100
AcDbEntity
  8
TA900_ISI_B_DN20
  6
CONTINUOUS
 62
         7
100
AcDbLine
 10
10.4011974333
 20
143.4178309969
 30
0.0
 11
10.5831825504
 21
142.9178309969
 31
0.0
  0
ARC
  5
10C
100
AcDbEntity
  8
TA900_ISI_B_DN20
  6
CONTINUOUS
 62
         7
100
AcDbCircle
 10
50.4011974333
 20
158.9178309969
 30
0.0
 40
26.1
100
AcDbArc
 50
212.1288745678
 51
327.8711254322
  0
LINE
  5
10D
100
AcDbEntity
  8
TA900_ISI_B_DN20
  6
CONTINUOUS
 62
         7
100
AcDbLine
 10
90.4011974333
 20
174.4178309969
 30
0.0
 11
90.2192123162
 21
174.9178309969
 31
0.0
  0
LINE
  5
10E
100
AcDbEntity
  8
TA900_ISI_B_DN20
  6
CONTINUOUS
 62
         7
100
AcDbLine
 10
89.318310057
 20
158.9178309969
 30
0.0
 11
81.8568788564
 21
158.9178309969
 31
0.0
  0
LINE
  5
10F
100
AcDbEntity
  8
TA900_ISI_B_DN20
  6
CONTINUOUS
 62
         7
100
AcDbLine
 10
23.0011974333
 20
143.6178309969
 30
0.0
 11
29.5099433974
 21
145.3618442217
 31
0.0
  0
LINE
  5
110
100
AcDbEntity
  8
TA900_ISI_B_DN20
  6
CONTINUOUS
 62
         7
100
AcDbLine
 10
80.7011974333
 20
174.2178309969
 30
0.0
 11
77.8011974333
 21
174.2178309969
 31
0.0
  0
LINE
  5
111
100
AcDbEntity
  8
TA900_ISI_B_DN20
  6
CONTINUOUS
 62
         7
100
AcDbLine
 10
23.0011974333
 20
174.2178309969
 30
0.0
 11
20.1011974333
 21
174.2178309969
 31
0.0
  0
LINE
  5
112
100
AcDbEntity
  8
TA900_ISI_B_DN20
  6
CONTINUOUS
 62
         7
100
AcDbLine
 10
19.8464182693
 20
142.9178309969
 30
0.0
 11
20.1011974333
 21
143.6178309969
 31
0.0
  0
LINE
  5
113
100
AcDbEntity
  8
TA900_ISI_B_DN20
  6
CONTINUOUS
 62
         7
100
AcDbLine
 10
80.9559765973
 20
174.9178309969
 30
0.0
 11
80.7011974333
 21
174.2178309969
 31
0.0
  0
LINE
  5
114
100
AcDbEntity
  8
TA900_ISI_B_DN20
  6
CONTINUOUS
 62
         7
100
AcDbLine
 10
29.5110399653
 20
172.4735239475
 30
0.0
 11
23.0011974333
 21
174.2178309969
 31
0.0
  0
LINE
  5
115
100
AcDbEntity
  8
TA900_ISI_B_DN20
  6
CONTINUOUS
 62
         7
100
AcDbLine
 10
77.8011974333
 20
143.6178309969
 30
0.0
 11
80.7011974333
 21
143.6178309969
 31
0.0
  0
LINE
  5
116
100
AcDbEntity
  8
TA900_ISI_B_DN20
  6
CONTINUOUS
 62
         7
100
AcDbLine
 10
20.1011974333
 20
143.6178309969
 30
0.0
 11
23.0011974333
 21
143.6178309969
 31
0.0
  0
LINE
  5
117
100
AcDbEntity
  8
TA900_ISI_B_DN20
  6
CONTINUOUS
 62
         7
100
AcDbLine
 10
20.1011974333
 20
174.2178309969
 30
0.0
 11
19.8464182693
 21
174.9178309969
 31
0.0
  0
LINE
  5
118
100
AcDbEntity
  8
TA900_ISI_B_DN20
  6
CONTINUOUS
 62
         7
100
AcDbLine
 10
80.7011974333
 20
143.6178309969
 30
0.0
 11
80.9559765973
 21
142.9178309969
 31
0.0
  0
ENDBLK
  5
119
100
AcDbEntity
  8
TA900_ISI_B_DN20
  6
CONTINUOUS
 62
         7
100
AcDbBlockEnd
  0
BLOCK
  5
157
100
AcDbEntity
  8
0
 62
         1
 48
0.0
100
AcDbBlockBegin
  2
SE4
 70
         0
 10
0.0
 20
0.0
 30
0.0
  3
SE4
  1

  0
ENDBLK
  5
158
100
AcDbEntity
  8
0
 62
         1
 48
0.0
100
AcDbBlockEnd
  0
BLOCK
  5
11C
100
AcDbEntity
  8
0
 62
         1
 48
0.0
100
AcDbBlockBegin
  2
SE5
 70
         0
 10
0.0
 20
0.0
 30
0.0
  3
SE5
  1

  0
LINE
  5
11D
100
AcDbEntity
  8
TA900_ISI_B_DN20
  6
CONTINUOUS
 62
         7
100
AcDbLine
 10
190.0993855732
 20
178.3178309969
 30
0.0
 11
186.4784221005
 21
178.3178309969
 31
0.0
  0
LINE
  5
11E
100
AcDbEntity
  8
TA900_ISI_B_DN20
  6
CONTINUOUS
 62
         7
100
AcDbLine
 10
190.0993855732
 20
178.3178309969
 30
0.0
 11
190.0993855732
 21
178.0178309969
 31
0.0
  0
LINE
  5
11F
100
AcDbEntity
  8
TA900_ISI_B_DN20
  6
CONTINUOUS
 62
         7
100
AcDbLine
 10
186.4784221005
 20
178.3178309969
 30
0.0
 11
185.0993855732
 21
178.3178309969
 31
0.0
  0
LINE
  5
120
100
AcDbEntity
  8
TA900_ISI_B_DN20
  6
CONTINUOUS
 62
         7
100
AcDbLine
 10
186.4784221005
 20
178.3178309969
 30
0.0
 11
186.4784221005
 21
178.0178309969
 31
0.0
  0
LINE
  5
121
100
AcDbEntity
  8
TA900_ISI_B_DN20
  6
CONTINUOUS
 62
         7
100
AcDbLine
 10
185.0993855732
 20
178.3178309969
 30
0.0
 11
185.0993855732
 21
178.0178309969
 31
0.0
  0
LINE
  5
122
100
AcDbEntity
  8
TA900_ISI_B_DN20
  6
CONTINUOUS
 62
         7
100
AcDbLine
 10
154.5993855732
 20
175.9178309969
 30
0.0
 11
154.5993855732
 21
158.9178309969
 31
0.0
  0
LINE
  5
123
100
AcDbEntity
  8
TA900_ISI_B_DN20
  6
CONTINUOUS
 62
         7
100
AcDbLine
 10
154.5993855732
 20
158.9178309969
 30
0.0
 11
154.5993855732
 21
141.9178309969
 31
0.0
  0
LINE
  5
124
100
AcDbEntity
  8
TA900_ISI_B_DN20
  6
CONTINUOUS
 62
         7
100
AcDbLine
 10
154.5993855732
 20
175.9178309969
 30
0.0
 11
163.0993855732
 21
175.9178309969
 31
0.0
  0
LINE
  5
125
100
AcDbEntity
  8
TA900_ISI_B_DN20
  6
CONTINUOUS
 62
         7
100
AcDbLine
 10
154.5993855732
 20
158.9178309969
 30
0.0
 11
163.0993855732
 21
158.9178309969
 31
0.0
  0
LINE
  5
126
100
AcDbEntity
  8
TA900_ISI_B_DN20
  6
CONTINUOUS
 62
         7
100
AcDbLine
 10
154.5993855732
 20
141.9178309969
 30
0.0
 11
163.0993855732
 21
141.9178309969
 31
0.0
  0
LINE
  5
127
100
AcDbEntity
  8
TA900_ISI_B_DN20
  6
CONTINUOUS
 62
         7
100
AcDbLine
 10
163.0993855732
 20
132.2178309969
 30
0.0
 11
163.0993855732
 21
185.6178309969
 31
0.0
  0
LINE
  5
128
100
AcDbEntity
  8
TA900_ISI_B_DN20
  6
CONTINUOUS
 62
         7
100
AcDbLine
 10
170.6993855732
 20
185.9178309969
 30
0.0
 11
170.6993855732
 21
131.9178309969
 31
0.0
  0
LINE
  5
129
100
AcDbEntity
  8
TA900_ISI_B_DN20
  6
CONTINUOUS
 62
         7
100
AcDbLine
 10
165.5993855732
 20
185.9178309969
 30
0.0
 11
165.5993855732
 21
131.9178309969
 31
0.0
  0
LINE
  5
12A
100
AcDbEntity
  8
TA900_ISI_B_DN20
  6
CONTINUOUS
 62
         7
100
AcDbLine
 10
180.7209246041
 20
178.0178309969
 30
0.0
 11
180.7209246041
 21
168.6190599382
 31
0.0
  0
LINE
  5
12B
100
AcDbEntity
  8
TA900_ISI_B_DN20
  6
CONTINUOUS
 62
         7
100
AcDbLine
 10
180.3993855732
 20
185.0178309969
 30
0.0
 11
180.3993855732
 21
168.0611636303
 31
0.0
  0
LINE
  5
12C
100
AcDbEntity
  8
TA900_ISI_B_DN20
  6
CONTINUOUS
 62
         7
100
AcDbLine
 10
171.5993855732
 20
185.0178309969
 30
0.0
 11
171.5993855732
 21
132.8178309969
 31
0.0
  0
LINE
  5
12D
100
AcDbEntity
  8
TA900_ISI_B_DN20
  6
CONTINUOUS
 62
         7
100
AcDbLine
 10
202.8369898803
 20
174.9178309969
 30
0.0
 11
184.3617812662
 21
174.9178309969
 31
0.0
  0
ARC
  5
12E
100
AcDbEntity
  8
TA900_ISI_B_DN20
  6
CONTINUOUS
 62
         7
100
AcDbCircle
 10
195.0993855732
 20
158.9178309969
 30
0.0
 40
19.1
100
AcDbArc
 50
270.0
 51
90.0
  0
LINE
  5
12F
100
AcDbEntity
  8
TA900_ISI_B_DN20
  6
CONTINUOUS
 62
         7
100
AcDbLine
 10
184.3617812662
 20
142.9178309969
 30
0.0
 11
202.8369898803
 21
142.9178309969
 31
0.0
  0
LINE
  5
130
100
AcDbEntity
  8
TA900_ISI_B_DN20
  6
CONTINUOUS
 62
         7
100
AcDbLine
 10
202.8369898803
 20
142.9178309969
 30
0.0
 11
212.0745941873
 21
158.9178309969
 31
0.0
  0
CIRCLE
  5
131
100
AcDbEntity
  8
TA900_ISI_B_DN20
  6
CONTINUOUS
 62
         7
100
AcDbCircle
 10
193.5993855732
 20
158.9178309969
 30
0.0
 40
15.5
  0
LINE
  5
132
100
AcDbEntity
  8
TA900_ISI_B_DN20
  6
CONTINUOUS
 62
         7
100
AcDbLine
 10
184.3617812662
 20
174.9178309969
 30
0.0
 11
175.1241769592
 21
158.9178309969
 31
0.0
  0
LINE
  5
133
100
AcDbEntity
  8
TA900_ISI_B_DN20
  6
CONTINUOUS
 62
         7
100
AcDbLine
 10
175.1241769592
 20
158.9178309969
 30
0.0
 11
184.3617812662
 21
142.9178309969
 31
0.0
  0
LINE
  5
134
100
AcDbEntity
  8
TA900_ISI_B_DN20
  6
CONTINUOUS
 62
         7
100
AcDbLine
 10
212.0745941873
 20
158.9178309969
 30
0.0
 11
202.8369898803
 21
174.9178309969
 31
0.0
  0
LINE
  5
135
100
AcDbEntity
  8
TA900_ISI_B_DN20
  6
CONTINUOUS
 62
         7
100
AcDbLine
 10
180.7209246041
 20
139.8178309969
 30
0.0
 11
195.0993855732
 21
139.8178309969
 31
0.0
  0
LINE
  5
136
100
AcDbEntity
  8
TA900_ISI_B_DN20
  6
CONTINUOUS
 62
         7
100
AcDbLine
 10
180.7209246041
 20
178.0178309969
 30
0.0
 11
195.0993855732
 21
178.0178309969
 31
0.0
  0
LINE
  5
137
100
AcDbEntity
  8
TA900_ISI_B_DN20
  6
CONTINUOUS
 62
         7
100
AcDbLine
 10
180.7209246041
 20
149.2165799372
 30
0.0
 11
180.7209246041
 21
139.8178309969
 31
0.0
  0
LINE
  5
138
100
AcDbEntity
  8
TA900_ISI_B_DN20
  6
CONTINUOUS
 62
         7
100
AcDbLine
 10
180.3993855732
 20
132.8178309969
 30
0.0
 11
182.2750299202
 21
139.8178309969
 31
0.0
  0
LINE
  5
139
100
AcDbEntity
  8
TA900_ISI_B_DN20
  6
CONTINUOUS
 62
         7
100
AcDbLine
 10
153.5993855732
 20
142.4178309969
 30
0.0
 11
153.5993855732
 21
175.4178309969
 31
0.0
  0
LINE
  5
13A
100
AcDbEntity
  8
TA900_ISI_B_DN20
  6
CONTINUOUS
 62
         7
100
AcDbLine
 10
132.9993855732
 20
166.6678309969
 30
0.0
 11
139.527825962
 21
166.6678309969
 31
0.0
  0
LINE
  5
13B
100
AcDbEntity
  8
TA900_ISI_B_DN20
  6
CONTINUOUS
 62
         7
100
AcDbLine
 10
151.5993855732
 20
163.6678309969
 30
0.0
 11
151.5993855732
 21
154.1678309969
 31
0.0
  0
LINE
  5
13C
100
AcDbEntity
  8
TA900_ISI_B_DN20
  6
CONTINUOUS
 62
         7
100
AcDbLine
 10
139.527825962
 20
166.6678309969
 30
0.0
 11
145.8980954131
 21
166.6678309969
 31
0.0
  0
LINE
  5
13D
100
AcDbEntity
  8
TA900_ISI_B_DN20
  6
CONTINUOUS
 62
         7
100
AcDbLine
 10
151.5993855732
 20
166.6678309969
 30
0.0
 11
151.5993855732
 21
163.6678309969
 31
0.0
  0
LINE
  5
13E
100
AcDbEntity
  8
TA900_ISI_B_DN20
  6
CONTINUOUS
 62
         7
100
AcDbLine
 10
145.8980954131
 20
166.6678309969
 30
0.0
 11
151.5993855732
 21
166.6678309969
 31
0.0
  0
LINE
  5
13F
100
AcDbEntity
  8
TA900_ISI_B_DN20
  6
CONTINUOUS
 62
         7
100
AcDbLine
 10
139.527825962
 20
151.1678309969
 30
0.0
 11
132.9993855732
 21
151.1678309969
 31
0.0
  0
LINE
  5
140
100
AcDbEntity
  8
TA900_ISI_B_DN20
  6
CONTINUOUS
 62
         7
100
AcDbLine
 10
145.8980954131
 20
151.1678309969
 30
0.0
 11
139.527825962
 21
151.1678309969
 31
0.0
  0
LINE
  5
141
100
AcDbEntity
  8
TA900_ISI_B_DN20
  6
CONTINUOUS
 62
         7
100
AcDbLine
 10
151.5993855732
 20
154.1678309969
 30
0.0
 11
151.5993855732
 21
151.1678309969
 31
0.0
  0
LINE
  5
142
100
AcDbEntity
  8
TA900_ISI_B_DN20
  6
CONTINUOUS
 62
         7
100
AcDbLine
 10
151.5993855732
 20
151.1678309969
 30
0.0
 11
145.8980954131
 21
151.1678309969
 31
0.0
  0
LINE
  5
143
100
AcDbEntity
  8
TA900_ISI_B_DN20
  6
CONTINUOUS
 62
         7
100
AcDbLine
 10
182.2750299202
 20
178.0178309969
 30
0.0
 11
180.3993855732
 21
185.0178309969
 31
0.0
  0
LINE
  5
144
100
AcDbEntity
  8
TA900_ISI_B_DN20
  6
CONTINUOUS
 62
         7
100
AcDbLine
 10
165.5993855732
 20
185.6178309969
 30
0.0
 11
163.0993855732
 21
185.6178309969
 31
0.0
  0
LINE
  5
145
100
AcDbEntity
  8
TA900_ISI_B_DN20
  6
CONTINUOUS
 62
         7
100
AcDbLine
 10
170.6993855732
 20
131.9178309969
 30
0.0
 11
171.5993855732
 21
132.8178309969
 31
0.0
  0
LINE
  5
146
100
AcDbEntity
  8
TA900_ISI_B_DN20
  6
CONTINUOUS
 62
         7
100
AcDbLine
 10
165.5993855732
 20
131.9178309969
 30
0.0
 11
170.6993855732
 21
131.9178309969
 31
0.0
  0
LINE
  5
147
100
AcDbEntity
  8
TA900_ISI_B_DN20
  6
CONTINUOUS
 62
         7
100
AcDbLine
 10
129.9993855732
 20
163.6678309969
 30
0.0
 11
129.9993855732
 21
154.1678309969
 31
0.0
  0
ARC
  5
148
100
AcDbEntity
  8
TA900_ISI_B_DN20
  6
CONTINUOUS
 62
         7
100
AcDbCircle
 10
132.9993855732
 20
163.6678309969
 30
0.0
 40
3.0
100
AcDbArc
 50
90.0
 51
180.0
  0
ARC
  5
149
100
AcDbEntity
  8
TA900_ISI_B_DN20
  6
CONTINUOUS
 62
         7
100
AcDbCircle
 10
150.5993855732
 20
158.9178309969
 30
0.0
 40
16.5
100
AcDbArc
 50
208.014627982
 51
270.0
  0
LINE
  5
14A
100
AcDbEntity
  8
TA900_ISI_B_DN20
  6
CONTINUOUS
 62
         7
100
AcDbLine
 10
153.5993855732
 20
175.4178309969
 30
0.0
 11
150.5993855732
 21
175.4178309969
 31
0.0
  0
ARC
  5
14B
100
AcDbEntity
  8
TA900_ISI_B_DN20
  6
CONTINUOUS
 62
         7
100
AcDbCircle
 10
132.9993855732
 20
154.1678309969
 30
0.0
 40
3.0
100
AcDbArc
 50
180.0
 51
270.0
  0
LINE
  5
14C
100
AcDbEntity
  8
TA900_ISI_B_DN20
  6
CONTINUOUS
 62
         7
100
AcDbLine
 10
154.5993855732
 20
171.4178309969
 30
0.0
 11
153.5993855732
 21
171.4178309969
 31
0.0
  0
LINE
  5
14D
100
AcDbEntity
  8
TA900_ISI_B_DN20
  6
CONTINUOUS
 62
         7
100
AcDbLine
 10
180.3993855732
 20
149.7783181473
 30
0.0
 11
180.3993855732
 21
132.8178309969
 31
0.0
  0
ARC
  5
14E
100
AcDbEntity
  8
TA900_ISI_B_DN20
  6
CONTINUOUS
 62
         7
100
AcDbCircle
 10
150.5993855732
 20
158.9178309969
 30
0.0
 40
16.5
100
AcDbArc
 50
90.0
 51
151.985372018
  0
LINE
  5
14F
100
AcDbEntity
  8
TA900_ISI_B_DN20
  6
CONTINUOUS
 62
         7
100
AcDbLine
 10
163.0993855732
 20
132.2178309969
 30
0.0
 11
165.5993855732
 21
132.2178309969
 31
0.0
  0
LINE
  5
150
100
AcDbEntity
  8
TA900_ISI_B_DN20
  6
CONTINUOUS
 62
         7
100
AcDbLine
 10
171.5993855732
 20
185.0178309969
 30
0.0
 11
170.6993855732
 21
185.9178309969
 31
0.0
  0
LINE
  5
151
100
AcDbEntity
  8
TA900_ISI_B_DN20
  6
CONTINUOUS
 62
         7
100
AcDbLine
 10
170.6993855732
 20
185.9178309969
 30
0.0
 11
165.5993855732
 21
185.9178309969
 31
0.0
  0
LINE
  5
152
100
AcDbEntity
  8
TA900_ISI_B_DN20
  6
CONTINUOUS
 62
         7
100
AcDbLine
 10
171.5993855732
 20
132.8178309969
 30
0.0
 11
180.3993855732
 21
132.8178309969
 31
0.0
  0
LINE
  5
153
100
AcDbEntity
  8
TA900_ISI_B_DN20
  6
CONTINUOUS
 62
         7
100
AcDbLine
 10
150.5993855732
 20
142.4178309969
 30
0.0
 11
153.5993855732
 21
142.4178309969
 31
0.0
  0
LINE
  5
154
100
AcDbEntity
  8
TA900_ISI_B_DN20
  6
CONTINUOUS
 62
         7
100
AcDbLine
 10
153.5993855732
 20
146.4178309969
 30
0.0
 11
154.5993855732
 21
146.4178309969
 31
0.0
  0
LINE
  5
155
100
AcDbEntity
  8
TA900_ISI_B_DN20
  6
CONTINUOUS
 62
         7
100
AcDbLine
 10
180.3993855732
 20
185.0178309969
 30
0.0
 11
171.5993855732
 21
185.0178309969
 31
0.0
  0
ENDBLK
  5
156
100
AcDbEntity
  8
TA900_ISI_B_DN20
  6
CONTINUOUS
 62
         7
100
AcDbBlockEnd
  0
BLOCK
  5
1BC
100
AcDbEntity
  8
0
 62
         1
 48
0.0
100
AcDbBlockBegin
  2
SE6
 70
         0
 10
0.0
 20
0.0
 30
0.0
  3
SE6
  1

  0
ENDBLK
  5
1BD
100
AcDbEntity
  8
0
 62
         1
 48
0.0
100
AcDbBlockEnd
  0
BLOCK
  5
159
100
AcDbEntity
  8
0
 62
         1
 48
0.0
100
AcDbBlockBegin
  2
SE7
 70
         0
 10
0.0
 20
0.0
 30
0.0
  3
SE7
  1

  0
ARC
  5
15A
100
AcDbEntity
  8
TA900_ISI_B_DN20
  6
CONTINUOUS
 62
         7
100
AcDbCircle
 10
183.5008717105
 20
72.8845926402
 30
0.0
 40
14.566657132
100
AcDbArc
 50
0.0
 51
180.0
  0
LINE
  5
15B
100
AcDbEntity
  8
TA900_ISI_B_DN20
  6
CONTINUOUS
 62
         7
100
AcDbLine
 10
198.0675288424
 20
72.8845926402
 30
0.0
 11
198.0675288424
 21
71.8845926402
 31
0.0
  0
LINE
  5
15C
100
AcDbEntity
  8
TA900_ISI_B_DN20
  6
CONTINUOUS
 62
         7
100
AcDbLine
 10
168.9342145785
 20
71.8845926402
 30
0.0
 11
168.9342145785
 21
72.8845926402
 31
0.0
  0
LINE
  5
15D
100
AcDbEntity
  8
TA900_ISI_B_DN20
  6
CONTINUOUS
 62
         7
100
AcDbLine
 10
193.3158262867
 20
68.8845926402
 30
0.0
 11
173.6859171342
 21
68.8845926402
 31
0.0
  0
LINE
  5
15E
100
AcDbEntity
  8
TA900_ISI_B_DN20
  6
CONTINUOUS
 62
         7
100
AcDbLine
 10
203.1307808629
 20
68.8845926402
 30
0.0
 11
193.3158262867
 21
68.8845926402
 31
0.0
  0
LINE
  5
15F
100
AcDbEntity
  8
TA900_ISI_B_DN20
  6
CONTINUOUS
 62
         7
100
AcDbLine
 10
173.6859171342
 20
68.8845926402
 30
0.0
 11
173.6859171342
 21
60.3845926402
 31
0.0
  0
LINE
  5
160
100
AcDbEntity
  8
TA900_ISI_B_DN20
  6
CONTINUOUS
 62
         7
100
AcDbLine
 10
173.6859171342
 20
68.8845926402
 30
0.0
 11
163.870962558
 21
68.8845926402
 31
0.0
  0
LINE
  5
161
100
AcDbEntity
  8
TA900_ISI_B_DN20
  6
CONTINUOUS
 62
         7
100
AcDbLine
 10
163.870962558
 20
68.8845926402
 30
0.0
 11
163.870962558
 21
60.3845926402
 31
0.0
  0
LINE
  5
162
100
AcDbEntity
  8
TA900_ISI_B_DN20
  6
CONTINUOUS
 62
         7
100
AcDbLine
 10
203.1307808629
 20
68.8845926402
 30
0.0
 11
203.1307808629
 21
60.3845926402
 31
0.0
  0
LINE
  5
163
100
AcDbEntity
  8
TA900_ISI_B_DN20
  6
CONTINUOUS
 62
         7
100
AcDbLine
 10
193.3158262867
 20
68.8845926402
 30
0.0
 11
193.3158262867
 21
60.3845926402
 31
0.0
  0
LINE
  5
164
100
AcDbEntity
  8
TA900_ISI_B_DN20
  6
CONTINUOUS
 62
         7
100
AcDbLine
 10
156.8008717105
 20
60.3845926402
 30
0.0
 11
210.2008717105
 21
60.3845926402
 31
0.0
  0
LINE
  5
165
100
AcDbEntity
  8
TA900_ISI_B_DN20
  6
CONTINUOUS
 62
         7
100
AcDbLine
 10
156.5008717105
 20
57.8845926402
 30
0.0
 11
210.5008717105
 21
57.8845926402
 31
0.0
  0
LINE
  5
166
100
AcDbEntity
  8
TA900_ISI_B_DN20
  6
CONTINUOUS
 62
         7
100
AcDbLine
 10
156.5008717105
 20
52.7845926402
 30
0.0
 11
210.5008717105
 21
52.7845926402
 31
0.0
  0
LINE
  5
167
100
AcDbEntity
  8
TA900_ISI_B_DN20
  6
CONTINUOUS
 62
         7
100
AcDbLine
 10
157.4008717105
 20
51.8845926402
 30
0.0
 11
209.6008717105
 21
51.8845926402
 31
0.0
  0
ARC
  5
168
100
AcDbEntity
  8
TA900_ISI_B_DN20
  6
CONTINUOUS
 62
         7
100
AcDbCircle
 10
233.8852239965
 20
29.526078976
 30
0.0
 40
29.4734378201
100
AcDbArc
 50
153.3130573113
 51
182.2195819511
  0
ARC
  5
169
100
AcDbEntity
  8
TA900_ISI_B_DN20
  6
CONTINUOUS
 62
         7
100
AcDbCircle
 10
183.5008717105
 20
125.2076817257
 30
0.0
 40
83.9780727646
100
AcDbArc
 50
259.0339099561
 51
280.9660900439
  0
SPLINE
  5
16A
100
AcDbEntity
  8
TA900_ISI_B_DN20
  6
CONTINUOUS
 62
         7
100
AcDbSpline
210
0.0
220
0.0
230
1.0
 70
         8
 71
         3
 72
        14
 73
        10
 74
         0
 42
0.0
 43
0.0
 40
0.5001228578106419
 40
0.5001228578106419
 40
0.5001228578106419
 40
0.5001228578106419
 40
0.625
 40
0.625
 40
0.75
 40
0.75
 40
0.875
 40
0.875
 40
1.0
 40
1.0
 40
1.0
 40
1.0
 10
161.83088307718299
 20
16.119944581748292
 30
0.0
 10
161.83088407198531
 20
16.119962039755958
 30
0.0
 10
161.84937432236237
 20
16.432873648271105
 30
0.0
 10
161.9202250812836
 20
17.627910847185028
 30
0.0
 10
161.97348522530845
 20
18.525019063563207
 30
0.0
 10
162.10658658053813
 20
20.755269422318165
 30
0.0
 10
162.18792372421308
 20
22.113200564184037
 30
0.0
 10
162.36677941465337
 20
25.079783496281319
 30
0.0
 10
162.46573939568901
 20
26.71222466688144
 30
0.0
 10
162.56784445205071
 20
28.384592640164676
 30
0.0
  0
ARC
  5
16B
100
AcDbEntity
  8
TA900_ISI_B_DN20
  6
CONTINUOUS
 62
         7
100
AcDbCircle
 10
104.7158121645
 20
29.8845926402
 30
0.0
 40
48.2224363428
100
AcDbArc
 50
348.9560234812
 51
11.0439765188
  0
ARC
  5
16C
100
AcDbEntity
  8
TA900_ISI_B_DN20
  6
CONTINUOUS
 62
         7
100
AcDbCircle
 10
262.2859312564
 20
29.8845926402
 30
0.0
 40
48.2224363428
100
AcDbArc
 50
168.9560234812
 51
191.0439765188
  0
ARC
  5
16D
100
AcDbEntity
  8
TA900_ISI_B_DN20
  6
CONTINUOUS
 62
         7
100
AcDbCircle
 10
226.4878531648
 20
43.7409991007
 30
0.0
 40
12.4219247198
100
AcDbArc
 50
158.1716867869
 51
201.8283132131
  0
ARC
  5
16E
100
AcDbEntity
  8
TA900_ISI_B_DN20
  6
CONTINUOUS
 62
         7
100
AcDbCircle
 10
140.5138902561
 20
16.0281861796
 30
0.0
 40
12.4219247198
100
AcDbArc
 50
338.1716867869
 51
21.8283132131
  0
LINE
  5
16F
100
AcDbEntity
  8
TA900_ISI_B_DN20
  6
CONTINUOUS
 62
         7
100
AcDbLine
 10
144.5837590867
 20
48.3598012542
 30
0.0
 11
152.0451902873
 21
48.3598012542
 31
0.0
  0
ARC
  5
170
100
AcDbEntity
  8
TA900_ISI_B_DN20
  6
CONTINUOUS
 62
         7
100
AcDbCircle
 10
257.6257937924
 20
20.9724765267
 30
0.0
 40
53.6271688604
100
AcDbArc
 50
153.5770343292
 51
155.6486839684
  0
LINE
  5
171
100
AcDbEntity
  8
TA900_ISI_B_DN20
  6
CONTINUOUS
 62
         7
100
AcDbLine
 10
199.4758521486
 20
9.2845926402
 30
0.0
 11
199.4758521486
 21
28.3845926402
 31
0.0
  0
LINE
  5
172
100
AcDbEntity
  8
TA900_ISI_B_DN20
  6
CONTINUOUS
 62
         7
100
AcDbLine
 10
167.5258912723
 20
9.2845926402
 30
0.0
 11
167.5258912723
 21
28.3845926402
 31
0.0
  0
LINE
  5
173
100
AcDbEntity
  8
TA900_ISI_B_DN20
  6
CONTINUOUS
 62
         7
100
AcDbLine
 10
156.1008717105
 20
45.1845926402
 30
0.0
 11
156.1008717105
 21
14.5845926402
 31
0.0
  0
LINE
  5
174
100
AcDbEntity
  8
TA900_ISI_B_DN20
  6
CONTINUOUS
 62
         7
100
AcDbLine
 10
210.9008717105
 20
45.1845926402
 30
0.0
 11
210.9008717105
 21
14.5845926402
 31
0.0
  0
LINE
  5
175
100
AcDbEntity
  8
TA900_ISI_B_DN20
  6
CONTINUOUS
 62
         7
100
AcDbLine
 10
143.5008717105
 20
45.3845926402
 30
0.0
 11
143.5008717105
 21
14.3845926402
 31
0.0
  0
LINE
  5
176
100
AcDbEntity
  8
TA900_ISI_B_DN20
  6
CONTINUOUS
 62
         7
100
AcDbLine
 10
153.2008717105
 20
45.1845926402
 30
0.0
 11
153.2008717105
 21
14.5845926402
 31
0.0
  0
LINE
  5
177
100
AcDbEntity
  8
TA900_ISI_B_DN20
  6
CONTINUOUS
 62
         7
100
AcDbLine
 10
213.8008717105
 20
45.1845926402
 30
0.0
 11
213.8008717105
 21
14.5845926402
 31
0.0
  0
ARC
  5
178
100
AcDbEntity
  8
TA900_ISI_B_DN20
  6
CONTINUOUS
 62
         7
100
AcDbCircle
 10
175.0886068323
 20
29.8845926402
 30
0.0
 40
48.2224357333
100
AcDbArc
 50
348.9560233399
 51
11.0439766601
  0
ARC
  5
179
100
AcDbEntity
  8
TA900_ISI_B_DN20
  6
CONTINUOUS
 62
         7
100
AcDbCircle
 10
210.886684303
 20
16.0281861796
 30
0.0
 40
12.4219247198
100
AcDbArc
 50
338.1716867869
 51
21.8283132131
  0
LINE
  5
17A
100
AcDbEntity
  8
TA900_ISI_B_DN20
  6
CONTINUOUS
 62
         7
100
AcDbLine
 10
223.5008717105
 20
45.3845926402
 30
0.0
 11
223.5008717105
 21
14.3845926402
 31
0.0
  0
LINE
  5
17B
100
AcDbEntity
  8
TA900_ISI_B_DN20
  6
CONTINUOUS
 62
         7
100
AcDbLine
 10
214.9565531336
 20
48.3598012542
 30
0.0
 11
222.4179843342
 21
48.3598012542
 31
0.0
  0
LINE
  5
17C
100
AcDbEntity
  8
TA900_ISI_B_DN20
  6
CONTINUOUS
 62
         7
100
AcDbLine
 10
214.9565531336
 20
39.1221969472
 30
0.0
 11
222.4179843342
 21
39.1221969472
 31
0.0
  0
ARC
  5
17D
100
AcDbEntity
  8
TA900_ISI_B_DN20
  6
CONTINUOUS
 62
         7
100
AcDbCircle
 10
210.886684303
 20
43.7409991007
 30
0.0
 40
12.4219247198
100
AcDbArc
 50
338.1716867869
 51
21.8283132131
  0
LINE
  5
17E
100
AcDbEntity
  8
TA900_ISI_B_DN20
  6
CONTINUOUS
 62
         7
100
AcDbLine
 10
144.5837590867
 20
39.1221969472
 30
0.0
 11
152.0451902873
 21
39.1221969472
 31
0.0
  0
LINE
  5
17F
100
AcDbEntity
  8
TA900_ISI_B_DN20
  6
CONTINUOUS
 62
         7
100
AcDbLine
 10
214.9565531336
 20
11.4093840261
 30
0.0
 11
222.4179843342
 21
11.4093840261
 31
0.0
  0
LINE
  5
180
100
AcDbEntity
  8
TA900_ISI_B_DN20
  6
CONTINUOUS
 62
         7
100
AcDbLine
 10
214.9565531336
 20
20.6469883331
 30
0.0
 11
222.4179843342
 21
20.6469883331
 31
0.0
  0
ARC
  5
181
100
AcDbEntity
  8
TA900_ISI_B_DN20
  6
CONTINUOUS
 62
         7
100
AcDbCircle
 10
140.5138902561
 20
43.7409991007
 30
0.0
 40
12.4219247198
100
AcDbArc
 50
338.1716867869
 51
21.8283132131
  0
LINE
  5
182
100
AcDbEntity
  8
TA900_ISI_B_DN20
  6
CONTINUOUS
 62
         7
100
AcDbLine
 10
144.5837590867
 20
20.6469883331
 30
0.0
 11
152.0451902873
 21
20.6469883331
 31
0.0
  0
ARC
  5
183
100
AcDbEntity
  8
TA900_ISI_B_DN20
  6
CONTINUOUS
 62
         7
100
AcDbCircle
 10
226.4878531648
 20
16.0281861796
 30
0.0
 40
12.4219247198
100
AcDbArc
 50
158.1716867869
 51
201.8283132131
  0
ARC
  5
184
100
AcDbEntity
  8
TA900_ISI_B_DN20
  6
CONTINUOUS
 62
         7
100
AcDbCircle
 10
156.1150591179
 20
16.0281861796
 30
0.0
 40
12.4219247198
100
AcDbArc
 50
158.1716867869
 51
201.8283132131
  0
ARC
  5
185
100
AcDbEntity
  8
TA900_ISI_B_DN20
  6
CONTINUOUS
 62
         7
100
AcDbCircle
 10
191.9131365886
 20
29.8845926402
 30
0.0
 40
48.2224357333
100
AcDbArc
 50
168.9560233399
 51
191.0439766601
  0
ARC
  5
186
100
AcDbEntity
  8
TA900_ISI_B_DN20
  6
CONTINUOUS
 62
         7
100
AcDbCircle
 10
156.1150591179
 20
43.7409991007
 30
0.0
 40
12.4219247198
100
AcDbArc
 50
158.1716867869
 51
201.8283132131
  0
LINE
  5
187
100
AcDbEntity
  8
TA900_ISI_B_DN20
  6
CONTINUOUS
 62
         7
100
AcDbLine
 10
199.4758521486
 20
42.7630536092
 30
0.0
 11
199.4758521486
 21
28.3845926402
 31
0.0
  0
LINE
  5
188
100
AcDbEntity
  8
TA900_ISI_B_DN20
  6
CONTINUOUS
 62
         7
100
AcDbLine
 10
167.5258912723
 20
42.7630536092
 30
0.0
 11
167.5258912723
 21
28.3845926402
 31
0.0
  0
LINE
  5
189
100
AcDbEntity
  8
TA900_ISI_B_DN20
  6
CONTINUOUS
 62
         7
100
AcDbLine
 10
159.4502627872
 20
42.7630536092
 30
0.0
 11
158.2321422859
 21
43.0845926402
 31
0.0
  0
LINE
  5
18A
100
AcDbEntity
  8
TA900_ISI_B_DN20
  6
CONTINUOUS
 62
         7
100
AcDbLine
 10
167.5258912723
 20
42.7630536092
 30
0.0
 11
159.4502627872
 21
42.7630536092
 31
0.0
  0
LINE
  5
18B
100
AcDbEntity
  8
TA900_ISI_B_DN20
  6
CONTINUOUS
 62
         7
100
AcDbLine
 10
207.5514806337
 20
42.7630536092
 30
0.0
 11
199.4758521486
 21
42.7630536092
 31
0.0
  0
LINE
  5
18C
100
AcDbEntity
  8
TA900_ISI_B_DN20
  6
CONTINUOUS
 62
         7
100
AcDbLine
 10
208.769601135
 20
43.0845926402
 30
0.0
 11
207.5514806337
 21
42.7630536092
 31
0.0
  0
ARC
  5
18D
100
AcDbEntity
  8
TA900_ISI_B_DN20
  6
CONTINUOUS
 62
         7
100
AcDbCircle
 10
109.3759496286
 20
20.9724765267
 30
0.0
 40
53.6271688604
100
AcDbArc
 50
24.3513160316
 51
26.4229656708
  0
SPLINE
  5
18E
100
AcDbEntity
  8
TA900_ISI_B_DN20
  6
CONTINUOUS
 62
         7
100
AcDbSpline
210
0.0
220
0.0
230
1.0
 70
         8
 71
         3
 72
        16
 73
        12
 74
         0
 42
0.0
 43
0.0
 40
0.0
 40
0.0
 40
0.0
 40
0.0
 40
0.125
 40
0.125
 40
0.25
 40
0.25
 40
0.375
 40
0.375
 40
0.5
 40
0.5
 40
0.5001369858645305
 40
0.5001369858645305
 40
0.5001369858645305
 40
0.5001369858645305
 10
204.43389896885495
 20
28.384592640164676
 30
0.0
 10
204.536003669824
 20
26.71223048782074
 30
0.0
 10
204.63341148550663
 20
25.105483942787657
 30
0.0
 10
204.81381565703643
 20
22.113317513253367
 30
0.0
 10
204.89425523288008
 20
20.770353988148649
 30
0.0
 10
205.02821047950542
 20
18.525841231530414
 30
0.0
 10
205.08113136178079
 20
17.63443237645189
 30
0.0
 10
205.15235114698243
 20
16.433182014099614
 30
0.0
 10
205.17082487088666
 20
16.120544266002117
 30
0.0
 10
205.17086033178757
 20
16.119944782571423
 30
0.0
 10
205.17086034835557
 20
16.119944502874045
 30
0.0
 10
205.1708603426751
 20
16.119944599688449
 30
0.0
  0
LINE
  5
18F
100
AcDbEntity
  8
TA900_ISI_B_DN20
  6
CONTINUOUS
 62
         7
100
AcDbLine
 10
156.1008717105
 20
14.5845926402
 30
0.0
 11
161.8339246556
 21
16.120759547
 31
0.0
  0
LINE
  5
190
100
AcDbEntity
  8
TA900_ISI_B_DN20
  6
CONTINUOUS
 62
         7
100
AcDbLine
 10
222.4179843342
 20
11.4093840261
 30
0.0
 11
223.5008717105
 21
14.3845926402
 31
0.0
  0
LINE
  5
191
100
AcDbEntity
  8
TA900_ISI_B_DN20
  6
CONTINUOUS
 62
         7
100
AcDbLine
 10
167.0008717105
 20
69.8845926402
 30
0.0
 11
200.0008717105
 21
69.8845926402
 31
0.0
  0
ARC
  5
192
100
AcDbEntity
  8
TA900_ISI_B_DN20
  6
CONTINUOUS
 62
         7
100
AcDbCircle
 10
183.5008717105
 20
28.3845926402
 30
0.0
 40
24.9
100
AcDbArc
 50
209.489763335
 51
230.0913473475
  0
LINE
  5
193
100
AcDbEntity
  8
TA900_ISI_B_DN20
  6
CONTINUOUS
 62
         7
100
AcDbLine
 10
127.5008717105
 20
71.8845926402
 30
0.0
 11
168.9342145785
 21
71.8845926402
 31
0.0
  0
LINE
  5
194
100
AcDbEntity
  8
TA900_ISI_B_DN20
  6
CONTINUOUS
 62
         7
100
AcDbLine
 10
127.5008717105
 20
71.8845926402
 30
0.0
 11
124.5008717105
 21
71.8845926402
 31
0.0
  0
LINE
  5
195
100
AcDbEntity
  8
TA900_ISI_B_DN20
  6
CONTINUOUS
 62
         7
100
AcDbLine
 10
124.5008717105
 20
71.8845926402
 30
0.0
 11
124.5008717105
 21
82.3774899332
 31
0.0
  0
LINE
  5
196
100
AcDbEntity
  8
TA900_ISI_B_DN20
  6
CONTINUOUS
 62
         7
100
AcDbLine
 10
217.0008717105
 20
71.8845926402
 30
0.0
 11
214.0008717105
 21
71.8845926402
 31
0.0
  0
LINE
  5
197
100
AcDbEntity
  8
TA900_ISI_B_DN20
  6
CONTINUOUS
 62
         7
100
AcDbLine
 10
217.0008717105
 20
77.5858828003
 30
0.0
 11
217.0008717105
 21
71.8845926402
 31
0.0
  0
ARC
  5
198
100
AcDbEntity
  8
TA900_ISI_B_DN20
  6
CONTINUOUS
 62
         7
100
AcDbCircle
 10
207.5008717105
 20
77.5858828003
 30
0.0
 40
9.5
100
AcDbArc
 50
0.0
 51
78.5336007048
  0
ARC
  5
199
100
AcDbEntity
  8
TA900_ISI_B_DN20
  6
CONTINUOUS
 62
         7
100
AcDbCircle
 10
143.7677620914
 20
-236.6154073598
 30
0.0
 40
330.1
100
AcDbArc
 50
78.5336007048
 51
91.4845218693
  0
ARC
  5
19A
100
AcDbEntity
  8
TA900_ISI_B_DN20
  6
CONTINUOUS
 62
         7
100
AcDbCircle
 10
135.5008717105
 20
82.3774899332
 30
0.0
 40
11.0
100
AcDbArc
 50
91.4845218693
 51
180.0
  0
LINE
  5
19B
100
AcDbEntity
  8
TA900_ISI_B_DN20
  6
CONTINUOUS
 62
         7
100
AcDbLine
 10
198.0675288424
 20
71.8845926402
 30
0.0
 11
214.0008717105
 21
71.8845926402
 31
0.0
  0
LINE
  5
19C
100
AcDbEntity
  8
TA900_ISI_B_DN20
  6
CONTINUOUS
 62
         7
100
AcDbLine
 10
144.5837590867
 20
48.3598012542
 30
0.0
 11
143.5008717105
 21
45.3845926402
 31
0.0
  0
LINE
  5
19D
100
AcDbEntity
  8
TA900_ISI_B_DN20
  6
CONTINUOUS
 62
         7
100
AcDbLine
 10
210.2008717105
 20
57.8845926402
 30
0.0
 11
210.2008717105
 21
60.3845926402
 31
0.0
  0
LINE
  5
19E
100
AcDbEntity
  8
TA900_ISI_B_DN20
  6
CONTINUOUS
 62
         7
100
AcDbLine
 10
156.5008717105
 20
52.7845926402
 30
0.0
 11
157.4008717105
 21
51.8845926402
 31
0.0
  0
LINE
  5
19F
100
AcDbEntity
  8
TA900_ISI_B_DN20
  6
CONTINUOUS
 62
         7
100
AcDbLine
 10
156.5008717105
 20
57.8845926402
 30
0.0
 11
156.5008717105
 21
52.7845926402
 31
0.0
  0
LINE
  5
1A0
100
AcDbEntity
  8
TA900_ISI_B_DN20
  6
CONTINUOUS
 62
         7
100
AcDbLine
 10
167.5258912723
 20
9.2845926402
 30
0.0
 11
199.4758521486
 21
9.2845926402
 31
0.0
  0
LINE
  5
1A1
100
AcDbEntity
  8
TA900_ISI_B_DN20
  6
CONTINUOUS
 62
         7
100
AcDbLine
 10
157.405235723
 20
44.8350893564
 30
0.0
 11
156.1008717105
 21
45.1845926402
 31
0.0
  0
LINE
  5
1A2
100
AcDbEntity
  8
TA900_ISI_B_DN20
  6
CONTINUOUS
 62
         7
100
AcDbLine
 10
200.0008717105
 20
69.8845926402
 30
0.0
 11
200.0008717105
 21
71.8845926402
 31
0.0
  0
LINE
  5
1A3
100
AcDbEntity
  8
TA900_ISI_B_DN20
  6
CONTINUOUS
 62
         7
100
AcDbLine
 10
196.0008717105
 20
68.8845926402
 30
0.0
 11
196.0008717105
 21
69.8845926402
 31
0.0
  0
LINE
  5
1A4
100
AcDbEntity
  8
TA900_ISI_B_DN20
  6
CONTINUOUS
 62
         7
100
AcDbLine
 10
223.5008717105
 20
45.3845926402
 30
0.0
 11
222.4179843342
 21
48.3598012542
 31
0.0
  0
ARC
  5
1A5
100
AcDbEntity
  8
TA900_ISI_B_DN20
  6
CONTINUOUS
 62
         7
100
AcDbCircle
 10
133.2876489222
 20
29.5631837945
 30
0.0
 40
29.3039063501
100
AcDbArc
 50
357.6949654022
 51
26.7723953354
  0
LINE
  5
1A6
100
AcDbEntity
  8
TA900_ISI_B_DN20
  6
CONTINUOUS
 62
         7
100
AcDbLine
 10
158.2321422859
 20
43.0845926402
 30
0.0
 11
208.769601135
 21
43.0845926402
 31
0.0
  0
LINE
  5
1A7
100
AcDbEntity
  8
TA900_ISI_B_DN20
  6
CONTINUOUS
 62
         7
100
AcDbLine
 10
144.5837590867
 20
11.4093840261
 30
0.0
 11
152.0451902873
 21
11.4093840261
 31
0.0
  0
LINE
  5
1A8
100
AcDbEntity
  8
TA900_ISI_B_DN20
  6
CONTINUOUS
 62
         7
100
AcDbLine
 10
143.5008717105
 20
14.3845926402
 30
0.0
 11
144.5837590867
 21
11.4093840261
 31
0.0
  0
LINE
  5
1A9
100
AcDbEntity
  8
TA900_ISI_B_DN20
  6
CONTINUOUS
 62
         7
100
AcDbLine
 10
156.8008717105
 20
60.3845926402
 30
0.0
 11
156.8008717105
 21
57.8845926402
 31
0.0
  0
LINE
  5
1AA
100
AcDbEntity
  8
TA900_ISI_B_DN20
  6
CONTINUOUS
 62
         7
100
AcDbLine
 10
209.6008717105
 20
51.8845926402
 30
0.0
 11
210.5008717105
 21
52.7845926402
 31
0.0
  0
LINE
  5
1AB
100
AcDbEntity
  8
TA900_ISI_B_DN20
  6
CONTINUOUS
 62
         7
100
AcDbLine
 10
210.5008717105
 20
52.7845926402
 30
0.0
 11
210.5008717105
 21
57.8845926402
 31
0.0
  0
LINE
  5
1AC
100
AcDbEntity
  8
TA900_ISI_B_DN20
  6
CONTINUOUS
 62
         7
100
AcDbLine
 10
157.4008717105
 20
51.8845926402
 30
0.0
 11
157.4008717105
 21
44.8304867894
 31
0.0
  0
LINE
  5
1AD
100
AcDbEntity
  8
TA900_ISI_B_DN20
  6
CONTINUOUS
 62
         7
100
AcDbLine
 10
210.9008717105
 20
45.1845926402
 30
0.0
 11
209.5965076979
 21
44.8350893564
 31
0.0
  0
ARC
  5
1AE
100
AcDbEntity
  8
TA900_ISI_B_DN20
  6
CONTINUOUS
 62
         7
100
AcDbCircle
 10
183.5008717105
 20
28.3845926402
 30
0.0
 40
24.9
100
AcDbArc
 50
309.9086526525
 51
330.5104878202
  0
LINE
  5
1AF
100
AcDbEntity
  8
TA900_ISI_B_DN20
  6
CONTINUOUS
 62
         7
100
AcDbLine
 10
153.2008717105
 20
14.5845926402
 30
0.0
 11
156.1008717105
 21
14.5845926402
 31
0.0
  0
LINE
  5
1B0
100
AcDbEntity
  8
TA900_ISI_B_DN20
  6
CONTINUOUS
 62
         7
100
AcDbLine
 10
210.9008717105
 20
14.5845926402
 30
0.0
 11
213.8008717105
 21
14.5845926402
 31
0.0
  0
LINE
  5
1B1
100
AcDbEntity
  8
TA900_ISI_B_DN20
  6
CONTINUOUS
 62
         7
100
AcDbLine
 10
152.0451902873
 20
11.4093840261
 30
0.0
 11
153.2008717105
 21
14.5845926402
 31
0.0
  0
LINE
  5
1B2
100
AcDbEntity
  8
TA900_ISI_B_DN20
  6
CONTINUOUS
 62
         7
100
AcDbLine
 10
214.9565531336
 20
48.3598012542
 30
0.0
 11
213.8008717105
 21
45.1845926402
 31
0.0
  0
LINE
  5
1B3
100
AcDbEntity
  8
TA900_ISI_B_DN20
  6
CONTINUOUS
 62
         7
100
AcDbLine
 10
167.0008717105
 20
71.8845926402
 30
0.0
 11
167.0008717105
 21
69.8845926402
 31
0.0
  0
LINE
  5
1B4
100
AcDbEntity
  8
TA900_ISI_B_DN20
  6
CONTINUOUS
 62
         7
100
AcDbLine
 10
171.0008717105
 20
69.8845926402
 30
0.0
 11
171.0008717105
 21
68.8845926402
 31
0.0
  0
LINE
  5
1B5
100
AcDbEntity
  8
TA900_ISI_B_DN20
  6
CONTINUOUS
 62
         7
100
AcDbLine
 10
209.6008717105
 20
44.8304867894
 30
0.0
 11
209.6008717105
 21
51.8845926402
 31
0.0
  0
LINE
  5
1B6
100
AcDbEntity
  8
TA900_ISI_B_DN20
  6
CONTINUOUS
 62
         7
100
AcDbLine
 10
205.1678187653
 20
16.120759547
 30
0.0
 11
210.9008717105
 21
14.5845926402
 31
0.0
  0
LINE
  5
1B7
100
AcDbEntity
  8
TA900_ISI_B_DN20
  6
CONTINUOUS
 62
         7
100
AcDbLine
 10
156.1008717105
 20
45.1845926402
 30
0.0
 11
153.2008717105
 21
45.1845926402
 31
0.0
  0
LINE
  5
1B8
100
AcDbEntity
  8
TA900_ISI_B_DN20
  6
CONTINUOUS
 62
         7
100
AcDbLine
 10
213.8008717105
 20
45.1845926402
 30
0.0
 11
210.9008717105
 21
45.1845926402
 31
0.0
  0
LINE
  5
1B9
100
AcDbEntity
  8
TA900_ISI_B_DN20
  6
CONTINUOUS
 62
         7
100
AcDbLine
 10
153.2008717105
 20
45.1845926402
 30
0.0
 11
152.0451902873
 21
48.3598012542
 31
0.0
  0
LINE
  5
1BA
100
AcDbEntity
  8
TA900_ISI_B_DN20
  6
CONTINUOUS
 62
         7
100
AcDbLine
 10
213.8008717105
 20
14.5845926402
 30
0.0
 11
214.9565531336
 21
11.4093840261
 31
0.0
  0
ENDBLK
  5
1BB
100
AcDbEntity
  8
TA900_ISI_B_DN20
  6
CONTINUOUS
 62
         7
100
AcDbBlockEnd
  0
ENDSEC
  0
SECTION
  2
ENTITIES
  0
INSERT
  5
3A
102
{ACAD_XDICTIONARY
360
3B
102
}
100
AcDbEntity
  8
0
 62
         0
 48
0.0
100
AcDbBlockReference
  2
SE1
 10
0.0
 20
0.0
 30
0.0
  0
INSERT
  5
3E
100
AcDbEntity
  8
0
 62
         0
 48
0.0
100
AcDbBlockReference
  2
SE0
 10
0.0
 20
0.0
 30
0.0
  0
INSERT
  5
41
102
{ACAD_XDICTIONARY
360
42
102
}
100
AcDbEntity
  8
0
 62
         0
 48
0.0
100
AcDbBlockReference
  2
SE3
 10
0.0
 20
0.0
 30
0.0
  0
INSERT
  5
45
100
AcDbEntity
  8
0
 62
         0
 48
0.0
100
AcDbBlockReference
  2
SE2
 10
0.0
 20
0.0
 30
0.0
  0
INSERT
  5
48
102
{ACAD_XDICTIONARY
360
49
102
}
100
AcDbEntity
  8
0
 62
         0
 48
0.0
100
AcDbBlockReference
  2
SE5
 10
0.0
 20
0.0
 30
0.0
  0
INSERT
  5
4C
100
AcDbEntity
  8
0
 62
         0
 48
0.0
100
AcDbBlockReference
  2
SE4
 10
0.0
 20
0.0
 30
0.0
  0
INSERT
  5
4F
102
{ACAD_XDICTIONARY
360
50
102
}
100
AcDbEntity
  8
0
 62
         0
 48
0.0
100
AcDbBlockReference
  2
SE7
 10
0.0
 20
0.0
 30
0.0
  0
INSERT
  5
53
100
AcDbEntity
  8
0
 62
         0
 48
0.0
100
AcDbBlockReference
  2
SE6
 10
0.0
 20
0.0
 30
0.0
  0
ENDSEC
  0
SECTION
  2
OBJECTS
  0
DICTIONARY
  5
19
100
AcDbDictionary
  3
ACAD_GROUP
350
1A
  3
ACAD_MLINESTYLE
350
1B
  3
ACDBVARIABLEDICTIONARY
350
1BE
  0
DICTIONARY
  5
1A
102
{ACAD_REACTORS
330
19
102
}
100
AcDbDictionary
  0
DICTIONARY
  5
1B
102
{ACAD_REACTORS
330
19
102
}
100
AcDbDictionary
  3
STANDARD
350
1C
  0
MLINESTYLE
  5
1C
102
{ACAD_REACTORS
330
1B
102
}
100
AcDbMlineStyle
  2
Standard
 70
         0
  3

 62
         0
 51
90.0
 52
90.0
 71
         2
 49
0.5
 62
       256
  6
ByLayer
 49
-0.5
 62
       256
  6
ByLayer
  0
DICTIONARY
  5
22
102
{ACAD_REACTORS
330
19
102
}
100
AcDbDictionary
  0
DICTIONARY
  5
3B
100
AcDbDictionary
  3
ACAD_FILTER
350
3C
  0
DICTIONARY
  5
3C
100
AcDbDictionary
  3
SPATIAL
350
3D
  0
SPATIAL_FILTER
  5
3D
100
AcDbFilter
100
AcDbSpatialFilter
 70
         2
 10
4.0511974333
 20
2.9345926402
 10
115.7511974333
 20
99.8345926402
210
0.0
220
0.0
230
1.0
 11
0.0
 21
0.0
 31
0.0
 71
         1
 72
         0
 73
         0
 40
1.0
 40
0.0
 40
0.0
 40
0.0
 40
0.0
 40
1.0
 40
0.0
 40
0.0
 40
0.0
 40
0.0
 40
1.0
 40
0.0
 40
1.0
 40
0.0
 40
0.0
 40
0.0
 40
0.0
 40
1.0
 40
0.0
 40
0.0
 40
0.0
 40
0.0
 40
1.0
 40
0.0
  0
DICTIONARY
  5
42
100
AcDbDictionary
  3
ACAD_FILTER
350
43
  0
DICTIONARY
  5
43
100
AcDbDictionary
  3
SPATIAL
350
44
  0
SPATIAL_FILTER
  5
44
100
AcDbFilter
100
AcDbSpatialFilter
 70
         2
 10
4.0511974333
 20
125.5678309969
 10
115.7511974333
 20
192.2678309969
210
0.0
220
0.0
230
1.0
 11
0.0
 21
0.0
 31
0.0
 71
         1
 72
         0
 73
         0
 40
1.0
 40
0.0
 40
0.0
 40
0.0
 40
0.0
 40
1.0
 40
0.0
 40
0.0
 40
0.0
 40
0.0
 40
1.0
 40
0.0
 40
1.0
 40
0.0
 40
0.0
 40
0.0
 40
0.0
 40
1.0
 40
0.0
 40
0.0
 40
0.0
 40
0.0
 40
1.0
 40
0.0
  0
DICTIONARY
  5
49
100
AcDbDictionary
  3
ACAD_FILTER
350
4A
  0
DICTIONARY
  5
4A
100
AcDbDictionary
  3
SPATIAL
350
4B
  0
SPATIAL_FILTER
  5
4B
100
AcDbFilter
100
AcDbSpatialFilter
 70
         2
 10
123.6493855732
 20
125.5678309969
 10
220.5493855732
 20
192.2678309969
210
0.0
220
0.0
230
1.0
 11
0.0
 21
0.0
 31
0.0
 71
         1
 72
         0
 73
         0
 40
1.0
 40
0.0
 40
0.0
 40
0.0
 40
0.0
 40
1.0
 40
0.0
 40
0.0
 40
0.0
 40
0.0
 40
1.0
 40
0.0
 40
1.0
 40
0.0
 40
0.0
 40
0.0
 40
0.0
 40
1.0
 40
0.0
 40
0.0
 40
0.0
 40
0.0
 40
1.0
 40
0.0
  0
DICTIONARY
  5
50
100
AcDbDictionary
  3
ACAD_FILTER
350
51
  0
DICTIONARY
  5
51
100
AcDbDictionary
  3
SPATIAL
350
52
  0
SPATIAL_FILTER
  5
52
100
AcDbFilter
100
AcDbSpatialFilter
 70
         2
 10
118.1508717105
 20
2.9345926402
 10
229.8508717105
 20
99.8345926402
210
0.0
220
0.0
230
1.0
 11
0.0
 21
0.0
 31
0.0
 71
         1
 72
         0
 73
         0
 40
1.0
 40
0.0
 40
0.0
 40
0.0
 40
0.0
 40
1.0
 40
0.0
 40
0.0
 40
0.0
 40
0.0
 40
1.0
 40
0.0
 40
1.0
 40
0.0
 40
0.0
 40
0.0
 40
0.0
 40
1.0
 40
0.0
 40
0.0
 40
0.0
 40
0.0
 40
1.0
 40
0.0
  0
DICTIONARY
  5
1BE
100
AcDbDictionary
  3
DIMASSOC
350
1BF
  0
DICTIONARYVAR
  5
1BF
100
DictionaryVariables
280
         0
  1
2
  0
ENDSEC
  0
EOF
