  0
SECTION
  2
HEADER
  9
$ACADVER
  1
AC1014
  9
$ACADMAINTVER
 70
         0
  9
$DWGCODEPAGE
  3
ANSI_1252
  9
$INSBASE
 10
0.0
 20
0.0
 30
0.0
  9
$EXTMIN
 10
0.0
 20
0.0
 30
0.0
  9
$EXTMAX
 10
420.0
 20
297.0
 30
0.0
  9
$LIMMIN
 10
0.0
 20
0.0
  9
$LIMMAX
 10
420.0
 20
297.0
  9
$ORTHOMODE
 70
         0
  9
$REGENMODE
 70
         1
  9
$FILLMODE
 70
         1
  9
$QTEXTMODE
 70
         0
  9
$MIRRTEXT
 70
         1
  9
$DRAGMODE
 70
         2
  9
$LTSCALE
 40
25.4
  9
$OSMODE
 70
         0
  9
$ATTMODE
 70
         1
  9
$TEXTSIZE
 40
0.2
  9
$TRACEWID
 40
0.05
  9
$TEXTSTYLE
  7
Standard
  9
$CLAYER
  8
0
  9
$CELTYPE
  6
CONTINUOUS
  9
$CECOLOR
 62
       256
  9
$CELTSCALE
 40
1.0
  9
$DELOBJ
 70
         1
  9
$DISPSILH
 70
         0
  9
$DIMSCALE
 40
1.0
  9
$DIMASZ
 40
0.18
  9
$DIMEXO
 40
0.0625
  9
$DIMDLI
 40
0.38
  9
$DIMRND
 40
0.0
  9
$DIMDLE
 40
0.0
  9
$DIMEXE
 40
0.18
  9
$DIMTP
 40
0.0
  9
$DIMTM
 40
0.0
  9
$DIMTXT
 40
0.18
  9
$DIMCEN
 40
0.09
  9
$DIMTSZ
 40
0.0
  9
$DIMTOL
 70
         0
  9
$DIMLIM
 70
         0
  9
$DIMTIH
 70
         1
  9
$DIMTOH
 70
         1
  9
$DIMSE1
 70
         0
  9
$DIMSE2
 70
         0
  9
$DIMTAD
 70
         0
  9
$DIMZIN
 70
         0
  9
$DIMBLK
  1

  9
$DIMASO
 70
         1
  9
$DIMSHO
 70
         1
  9
$DIMPOST
  1

  9
$DIMAPOST
  1

  9
$DIMALT
 70
         0
  9
$DIMALTD
 70
         2
  9
$DIMALTF
 40
25.4
  9
$DIMLFAC
 40
1.0
  9
$DIMTOFL
 70
         0
  9
$DIMTVP
 40
0.0
  9
$DIMTIX
 70
         0
  9
$DIMSOXD
 70
         0
  9
$DIMSAH
 70
         0
  9
$DIMBLK1
  1

  9
$DIMBLK2
  1

  9
$DIMSTYLE
  2
Standard
  9
$DIMCLRD
 70
         0
  9
$DIMCLRE
 70
         0
  9
$DIMCLRT
 70
         0
  9
$DIMTFAC
 40
1.0
  9
$DIMGAP
 40
0.09
  9
$DIMJUST
 70
         0
  9
$DIMSD1
 70
         0
  9
$DIMSD2
 70
         0
  9
$DIMTOLJ
 70
         1
  9
$DIMTZIN
 70
         0
  9
$DIMALTZ
 70
         0
  9
$DIMALTTZ
 70
         0
  9
$DIMFIT
 70
         3
  9
$DIMUPT
 70
         0
  9
$DIMUNIT
 70
         2
  9
$DIMDEC
 70
         4
  9
$DIMTDEC
 70
         4
  9
$DIMALTU
 70
         2
  9
$DIMALTTD
 70
         2
  9
$DIMTXSTY
  7
Standard
  9
$DIMAUNIT
 70
         0
  9
$LUNITS
 70
         2
  9
$LUPREC
 70
         4
  9
$SKETCHINC
 40
0.1
  9
$FILLETRAD
 40
0.0
  9
$AUNITS
 70
         0
  9
$AUPREC
 70
         0
  9
$MENU
  1
acad
  9
$ELEVATION
 40
0.0
  9
$PELEVATION
 40
0.0
  9
$THICKNESS
 40
0.0
  9
$LIMCHECK
 70
         0
  9
$BLIPMODE
 70
         1
  9
$CHAMFERA
 40
0.0
  9
$CHAMFERB
 40
0.0
  9
$CHAMFERC
 40
0.0
  9
$CHAMFERD
 40
0.0
  9
$SKPOLY
 70
         0
  9
$TDCREATE
 40
0.000000000
  9
$TDUPDATE
 40
0.000000000
  9
$TDINDWG
 40
0.0000000000
  9
$TDUSRTIMER
 40
0.0000000000
  9
$USRTIMER
 70
         1
  9
$ANGBASE
 50
0.0
  9
$ANGDIR
 70
         0
  9
$PDMODE
 70
         0
  9
$PDSIZE
 40
0.0
  9
$PLINEWID
 40
0.0
  9
$COORDS
 70
         0
  9
$SPLFRAME
 70
         0
  9
$SPLINETYPE
 70
         6
  9
$SPLINESEGS
 70
         8
  9
$ATTDIA
 70
         0
  9
$ATTREQ
 70
         1
  9
$HANDLING
 70
         1
  9
$HANDSEED
  5
1C0
  9
$SURFTAB1
 70
         6
  9
$SURFTAB2
 70
         6
  9
$SURFTYPE
 70
         6
  9
$SURFU
 70
         6
  9
$SURFV
 70
         6
  9
$UCSNAME
  2

  9
$UCSORG
 10
0.0
 20
0.0
 30
0.0
  9
$UCSXDIR
 10
1.0
 20
0.0
 30
0.0
  9
$UCSYDIR
 10
0.0
 20
1.0
 30
0.0
  9
$PUCSNAME
  2

  9
$PUCSORG
 10
0.0
 20
0.0
 30
0.0
  9
$PUCSXDIR
 10
1.0
 20
0.0
 30
0.0
  9
$PUCSYDIR
 10
0.0
 20
1.0
 30
0.0
  9
$USERI1
 70
         0
  9
$USERI2
 70
         0
  9
$USERI3
 70
         0
  9
$USERI4
 70
         0
  9
$USERI5
 70
         0
  9
$USERR1
 40
0.0
  9
$USERR2
 40
0.0
  9
$USERR3
 40
0.0
  9
$USERR4
 40
0.0
  9
$USERR5
 40
0.0
  9
$WORLDVIEW
 70
         1
  9
$SHADEDGE
 70
         3
  9
$SHADEDIF
 70
        70
  9
$TILEMODE
 70
         1
  9
$MAXACTVP
 70
        16
  9
$PINSBASE
 10
0.0
 20
0.0
 30
0.0
  9
$PLIMCHECK
 70
         0
  9
$PEXTMIN
 10
1.0000000000E+20
 20
1.0000000000E+20
 30
1.0000000000E+20
  9
$PEXTMAX
 10
-1.0000000000E+20
 20
-1.0000000000E+20
 30
-1.0000000000E+20
  9
$PLIMMIN
 10
0.0
 20
0.0
  9
$PLIMMAX
 10
12.0
 20
9.0
  9
$UNITMODE
 70
         0
  9
$VISRETAIN
 70
         0
  9
$PLINEGEN
 70
         1
  9
$PSLTSCALE
 70
         0
  9
$TREEDEPTH
 70
      3020
  9
$PICKSTYLE
 70
         1
  9
$CMLSTYLE
  2
Standard
  9
$CMLJUST
 70
         0
  9
$CMLSCALE
 40
1.0
  9
$PROXYGRAPHICS
 70
         0
  9
$MEASUREMENT
 70
         0
  0
ENDSEC
  0
SECTION
  2
CLASSES
  0
CLASS
  1
LWPOLYLINE
  2
AcDbPolyline
  3
"AutoCAD"
 90
        0
280
         0
281
         1
  0
CLASS
  1
IMAGE
  2
AcDbRasterImage
  3
ISM
 90
      127
280
         0
281
         1
  0
CLASS
  1
OLE2FRAME
  2
AcDbOle2Frame
  3
""
 90
        0
280
         0
281
         1
  0
CLASS
  1
HATCH
  2
AcDbHatch
  3
"ACAD_SEDONA"
 90
        0
280
         0
281
         1
  0
CLASS
  1
DICTIONARYVAR
  2
AcDbDictionaryVar
  3
"AutoCAD"
 90
        0
280
         0
281
         0
  0
CLASS
  1
RASTERVARIABLES
  2
AcDbRasterVariables
  3
ISM
 90
        0
280
         0
281
         0
  0
CLASS
  1
IMAGEDEF
  2
AcDbRasterImageDef
  3
ISM
 90
        0
280
         0
281
         0
  0
CLASS
  1
IMAGEDEF_REACTOR
  2
AcDbRasterImageDefReactor
  3
ISM
 90
        1
280
         0
281
         0
  0
CLASS
  1
IDBUFFER
  2
AcDbIdBuffer
  3
"Acad"
 90
        0
280
         0
281
         0
  0
CLASS
  1
SPATIAL_FILTER
  2
AcDbSpatialFilter
  3
"Acad"
 90
        0
280
         0
281
         0
  0
CLASS
  1
XRECORD
  2
AcDbXrecord
  3
"<Built In>"
 90
        0
280
         0
281
         0
  0
CLASS
  1
SORTENTSTABLE
  2
AcDbSortentsTable
  3
"AutoCAD"
 90
        0
280
         0
281
         0
  0
CLASS
  1
LAYER_INDEX
  2
AcDbLayerIndex
  3
"Acad"
 90
        0
280
         0
281
         0
  0
CLASS
  1
SPATIAL_INDEX
  2
AcDbSpatialIndex
  3
"Acad"
 90
        0
280
         0
281
         0
  0
CLASS
  1
OBJECT_PTR
  2
CAseDLPNTableRecord
  3
"ASE-LPNTableRecord"
 90
        1
280
         0
281
         0
  0
CLASS
  1
LAYOUT
  2
AcDbLayout
  3
"AutoCAD 2000"
 90
        1
280
         0
281
         0
  0
CLASS
  1
PLOTSETTINGS
  2
AcDbPlotSettings
  3
"AutoCAD 2000"
 90
        1
280
         0
281
         0
  0
CLASS
  1
ACDBDICTIONARYWDFLT
  2
AcDbDictionaryWithDefault
  3
"AutoCAD 2000"
 90
        1
280
         0
281
         0
  0
CLASS
  1
ACDBPLACEHOLDER
  2
AcDbPlaceHolder
  3
"AutoCAD 2000"
 90
        1
280
         0
281
         0
  0
CLASS
  1
VBA_PROJECT
  2
AcDbVbaProject
  3
"acadvba"
 90
        1
280
         0
281
         0
  0
CLASS
  1
WIPEOUT
  2
AcDbWipeout
  3
WipeOut|AutoCAD Express Tool|expresstools@autodesk.com
 90
      127
280
         0
281
         1
  0
CLASS
  1
WIPEOUTVARIABLES
  2
AcDbWipeoutVariables
  3
WipeOut|AutoCAD Express Tool|expresstools@autodesk.com
 90
        0
280
         0
281
         0
  0
CLASS
  1
RTEXT
  2
RText
  3
RText|AutoCAD Express Tool|expresstools@autodesk.com
 90
        0
280
         0
281
         1
  0
CLASS
  1
ARCALIGNEDTEXT
  2
AcDbArcAlignedText
  3
ATEXT|AutoCAD Express Tool|expresstools@autodesk.com
 90
        0
280
         0
281
         1
  0
ENDSEC
  0
SECTION
  2
TABLES
  0
TABLE
  2
VPORT
  5
7
100
AcDbSymbolTable
 70
         1
  0
VPORT
  5
15
100
AcDbSymbolTableRecord
100
AcDbViewportTableRecord
  2
*ACTIVE
 70
         0
 10
0.0
 20
0.0
 11
1.0
 21
1.0
 12
210.0
 22
148.5
 13
0.0
 23
0.0
 14
1.0
 24
1.0
 15
0.0
 25
0.0
 16
0.0
 26
0.0
 36
1.0
 17
0.0
 27
0.0
 37
0.0
 40
297.0
 41
1.604229
 42
50.0
 43
0.0
 44
0.0
 50
0.0
 51
0.0
 71
         0
 72
       100
 73
         1
 74
         1
 75
         0
 76
         0
 77
         0
 78
         0
  0
ENDTAB
  0
TABLE
  2
LTYPE
  5
4
100
AcDbSymbolTable
 70
         7
  0
LTYPE
  5
11
100
AcDbSymbolTableRecord
100
AcDbLinetypeTableRecord
  2
ByBlock
 70
        64
  3

 72
        65
 73
         0
 40
0.0
  0
LTYPE
  5
12
100
AcDbSymbolTableRecord
100
AcDbLinetypeTableRecord
  2
ByLayer
 70
        64
  3

 72
        65
 73
         0
 40
0.0
  0
LTYPE
  5
13
100
AcDbSymbolTableRecord
100
AcDbLinetypeTableRecord
  2
CONTINUOUS
 70
         0
  3
Solid line
 72
        65
 73
         0
 40
0.0
  0
LTYPE
  5
28
100
AcDbSymbolTableRecord
100
AcDbLinetypeTableRecord
  2
HIDDEN2
 70
        64
  3
_ _ _ _ _ _ _ _ _ _ _ _ _ _ _ _ _ _ _ _ _ _ _ _
 72
        65
 73
         2
 40
0.1875
 49
0.125
 74
         0
 49
-0.0625
 74
         0
  0
LTYPE
  5
29
100
AcDbSymbolTableRecord
100
AcDbLinetypeTableRecord
  2
CENTER2
 70
        64
  3
___ _ ___ _ ___ _ ___ _ ___ _ ___ _ ___ _ ___ _
 72
        65
 73
         4
 40
1.125
 49
0.75
 74
         0
 49
-0.125
 74
         0
 49
0.125
 74
         0
 49
-0.125
 74
         0
  0
LTYPE
  5
2A
100
AcDbSymbolTableRecord
100
AcDbLinetypeTableRecord
  2
PHANTOM2
 70
        64
  3
___ _ _ ___ _ _ ___ _ _ ___ _ _ ___ _ _ ___ _ _
 72
        65
 73
         6
 40
1.25
 49
0.625
 74
         0
 49
-0.125
 74
         0
 49
0.125
 74
         0
 49
-0.125
 74
         0
 49
0.125
 74
         0
 49
-0.125
 74
         0
  0
LTYPE
  5
2B
100
AcDbSymbolTableRecord
100
AcDbLinetypeTableRecord
  2
DOT2
 70
        64
  3
...............................................
 72
        65
 73
         2
 40
0.125
 49
0.0
 74
         0
 49
-0.125
 74
         0
  0
ENDTAB
  0
TABLE
  2
LAYER
  5
2
100
AcDbSymbolTable
 70
         3
  0
LAYER
  5
14
100
AcDbSymbolTableRecord
100
AcDbLayerTableRecord
  2
0
 70
         0
 62
         7
  6
CONTINUOUS
  0
LAYER
  5
2D
100
AcDbSymbolTableRecord
100
AcDbLayerTableRecord
  2
DEFAULT
 70
         0
 62
         7
  6
CONTINUOUS
  0
LAYER
  5
37
100
AcDbSymbolTableRecord
100
AcDbLayerTableRecord
  2
TA900_ISI_B_DN15
 70
         0
 62
         7
  6
CONTINUOUS
  0
ENDTAB
  0
TABLE
  2
STYLE
  5
3
100
AcDbSymbolTable
 70
         1
  0
STYLE
  5
17
100
AcDbSymbolTableRecord
100
AcDbTextStyleTableRecord
  2
Standard
 70
         0
 40
0.0
 41
1.0
 50
0.0
 71
         0
 42
0.2
  3
txt
  4

  0
ENDTAB
  0
TABLE
  2
VIEW
  5
5
100
AcDbSymbolTable
 70
         0
  0
ENDTAB
  0
TABLE
  2
UCS
  5
6
100
AcDbSymbolTable
 70
         0
  0
ENDTAB
  0
TABLE
  2
APPID
  5
8
100
AcDbSymbolTable
 70
         1
  0
APPID
  5
16
100
AcDbSymbolTableRecord
100
AcDbRegAppTableRecord
  2
ACAD
 70
         0
  0
ENDTAB
  0
TABLE
  2
DIMSTYLE
  5
9
100
AcDbSymbolTable
 70
         1
  0
DIMSTYLE
105
18
100
AcDbSymbolTableRecord
100
AcDbDimStyleTableRecord
  2
Standard
 70
         0
  3

  4

  5

  6

  7

 40
1.0
 41
0.18
 42
0.0625
 43
0.38
 44
0.18
 45
0.0
 46
0.0
 47
0.0
 48
0.0
 71
         0
 72
         0
 73
         1
 74
         1
 75
         0
 76
         0
 77
         0
 78
         0
140
0.18
141
0.09
142
0.0
143
25.4
144
1.0
145
0.0
146
1.0
147
0.09
170
         0
171
         2
172
         0
173
         0
174
         0
175
         0
176
         0
177
         0
178
         0
270
         2
271
         4
272
         4
273
         2
274
         2
275
         0
280
         0
281
         0
282
         0
283
         1
284
         0
285
         0
286
         0
287
         0
288
         0
340
17
  0
ENDTAB
  0
TABLE
  2
BLOCK_RECORD
  5
1
100
AcDbSymbolTable
 70
         8
  0
BLOCK_RECORD
  5
A
100
AcDbSymbolTableRecord
100
AcDbBlockTableRecord
  2
*MODEL_SPACE
  0
BLOCK_RECORD
  5
B
100
AcDbSymbolTableRecord
100
AcDbBlockTableRecord
  2
*PAPER_SPACE
  0
BLOCK_RECORD
  5
38
100
AcDbSymbolTableRecord
100
AcDbBlockTableRecord
  2
SE0
  0
BLOCK_RECORD
  5
39
100
AcDbSymbolTableRecord
100
AcDbBlockTableRecord
  2
SE1
  0
BLOCK_RECORD
  5
3F
100
AcDbSymbolTableRecord
100
AcDbBlockTableRecord
  2
SE2
  0
BLOCK_RECORD
  5
40
100
AcDbSymbolTableRecord
100
AcDbBlockTableRecord
  2
SE3
  0
BLOCK_RECORD
  5
46
100
AcDbSymbolTableRecord
100
AcDbBlockTableRecord
  2
SE4
  0
BLOCK_RECORD
  5
47
100
AcDbSymbolTableRecord
100
AcDbBlockTableRecord
  2
SE5
  0
BLOCK_RECORD
  5
4D
100
AcDbSymbolTableRecord
100
AcDbBlockTableRecord
  2
SE6
  0
BLOCK_RECORD
  5
4E
100
AcDbSymbolTableRecord
100
AcDbBlockTableRecord
  2
SE7
  0
ENDTAB
  0
ENDSEC
  0
SECTION
  2
BLOCKS
  0
BLOCK
  5
D
100
AcDbEntity
  8
0
100
AcDbBlockBegin
  2
*MODEL_SPACE
 70
         0
 10
0.0
 20
0.0
 30
0.0
  3
*MODEL_SPACE
  1

  0
ENDBLK
  5
E
100
AcDbEntity
  8
0
100
AcDbBlockEnd
  0
BLOCK
  5
F
100
AcDbEntity
 67
         1
  8
0
100
AcDbBlockBegin
  2
*PAPER_SPACE
 70
         0
 10
0.0
 20
0.0
 30
0.0
  3
*PAPER_SPACE
  1

  0
ENDBLK
  5
10
100
AcDbEntity
 67
         1
  8
0
100
AcDbBlockEnd
  0
BLOCK
  5
C8
100
AcDbEntity
  8
0
 62
         1
 48
0.0
100
AcDbBlockBegin
  2
SE0
 70
         0
 10
0.0
 20
0.0
 30
0.0
  3
SE0
  1

  0
ENDBLK
  5
C9
100
AcDbEntity
  8
0
 62
         1
 48
0.0
100
AcDbBlockEnd
  0
BLOCK
  5
54
100
AcDbEntity
  8
0
 62
         1
 48
0.0
100
AcDbBlockBegin
  2
SE1
 70
         0
 10
0.0
 20
0.0
 30
0.0
  3
SE1
  1

  0
LINE
  5
55
100
AcDbEntity
  8
TA900_ISI_B_DN15
  6
CONTINUOUS
 62
         7
100
AcDbLine
 10
54.7499027904
 20
62.5468647266
 30
0.0
 11
54.7499027904
 21
62.7468647266
 31
0.0
  0
ARC
  5
56
100
AcDbEntity
  8
TA900_ISI_B_DN15
  6
CONTINUOUS
 62
         7
100
AcDbCircle
 10
72.4872544322
 20
17.0555217755
 30
0.0
 40
10.4809989823
100
AcDbArc
 50
338.1716867869
 51
21.8283132131
  0
LINE
  5
57
100
AcDbEntity
  8
TA900_ISI_B_DN15
  6
CONTINUOUS
 62
         7
100
AcDbLine
 10
82.2167888336
 20
13.1584074585
 30
0.0
 11
75.1240093058
 21
13.1584074585
 31
0.0
  0
LINE
  5
58
100
AcDbEntity
  8
TA900_ISI_B_DN15
  6
CONTINUOUS
 62
         7
100
AcDbLine
 10
83.2499027904
 20
41.4968647266
 30
0.0
 11
82.2167888336
 21
44.3353219947
 31
0.0
  0
LINE
  5
59
100
AcDbEntity
  8
TA900_ISI_B_DN15
  6
CONTINUOUS
 62
         7
100
AcDbLine
 10
24.5999027904
 20
55.2468647266
 30
0.0
 11
24.5999027904
 21
53.2468647266
 31
0.0
  0
LINE
  5
5A
100
AcDbEntity
  8
TA900_ISI_B_DN15
  6
CONTINUOUS
 62
         7
100
AcDbLine
 10
67.2499027904
 20
47.9968647266
 30
0.0
 11
68.1999027904
 21
48.9468647266
 31
0.0
  0
LINE
  5
5B
100
AcDbEntity
  8
TA900_ISI_B_DN15
  6
CONTINUOUS
 62
         7
100
AcDbLine
 10
68.1999027904
 20
48.9468647266
 30
0.0
 11
68.1999027904
 21
53.2468647266
 31
0.0
  0
LINE
  5
5C
100
AcDbEntity
  8
TA900_ISI_B_DN15
  6
CONTINUOUS
 62
         7
100
AcDbLine
 10
67.2499027904
 20
39.4744259734
 30
0.0
 11
67.2499027904
 21
47.9968647266
 31
0.0
  0
LINE
  5
5D
100
AcDbEntity
  8
TA900_ISI_B_DN15
  6
CONTINUOUS
 62
         7
100
AcDbLine
 10
20.3999027904
 20
16.2468647266
 30
0.0
 11
28.50640642
 21
19.1973907518
 31
0.0
  0
LINE
  5
5E
100
AcDbEntity
  8
TA900_ISI_B_DN15
  6
CONTINUOUS
 62
         7
100
AcDbLine
 10
20.3999027904
 20
41.2468647266
 30
0.0
 11
18.4999027904
 21
41.2468647266
 31
0.0
  0
LINE
  5
5F
100
AcDbEntity
  8
TA900_ISI_B_DN15
  6
CONTINUOUS
 62
         7
100
AcDbLine
 10
73.9999027904
 20
41.2468647266
 30
0.0
 11
72.0999027904
 21
41.2468647266
 31
0.0
  0
ARC
  5
60
100
AcDbEntity
  8
TA900_ISI_B_DN15
  6
CONTINUOUS
 62
         7
100
AcDbCircle
 10
46.2499027904
 20
27.7468647266
 30
0.0
 40
19.7
100
AcDbArc
 50
205.6968531783
 51
231.4188688537
  0
LINE
  5
61
100
AcDbEntity
  8
TA900_ISI_B_DN15
  6
CONTINUOUS
 62
         7
100
AcDbLine
 10
75.1240093058
 20
44.3353219947
 30
0.0
 11
73.9999027904
 21
41.2468647266
 31
0.0
  0
LINE
  5
62
100
AcDbEntity
  8
TA900_ISI_B_DN15
  6
CONTINUOUS
 62
         7
100
AcDbLine
 10
17.375796275
 20
13.1584074585
 30
0.0
 11
18.4999027904
 21
16.2468647266
 31
0.0
  0
LINE
  5
63
100
AcDbEntity
  8
TA900_ISI_B_DN15
  6
CONTINUOUS
 62
         7
100
AcDbLine
 10
35.4999027904
 20
64.2468647266
 30
0.0
 11
35.4999027904
 21
62.7468647266
 31
0.0
  0
LINE
  5
64
100
AcDbEntity
  8
TA900_ISI_B_DN15
  6
CONTINUOUS
 62
         7
100
AcDbLine
 10
37.7499027904
 20
62.7468647266
 30
0.0
 11
37.7499027904
 21
62.5468647266
 31
0.0
  0
LINE
  5
65
100
AcDbEntity
  8
TA900_ISI_B_DN15
  6
CONTINUOUS
 62
         7
100
AcDbLine
 10
25.2549500434
 20
39.4797720406
 30
0.0
 11
20.3999027904
 21
41.2468647266
 31
0.0
  0
LINE
  5
66
100
AcDbEntity
  8
TA900_ISI_B_DN15
  6
CONTINUOUS
 62
         7
100
AcDbLine
 10
18.4999027904
 20
16.2468647266
 30
0.0
 11
20.3999027904
 21
16.2468647266
 31
0.0
  0
LINE
  5
67
100
AcDbEntity
  8
TA900_ISI_B_DN15
  6
CONTINUOUS
 62
         7
100
AcDbLine
 10
72.0999027904
 20
16.2468647266
 30
0.0
 11
73.9999027904
 21
16.2468647266
 31
0.0
  0
LINE
  5
68
100
AcDbEntity
  8
TA900_ISI_B_DN15
  6
CONTINUOUS
 62
         7
100
AcDbLine
 10
73.9999027904
 20
16.2468647266
 30
0.0
 11
75.1240093058
 21
13.1584074585
 31
0.0
  0
LINE
  5
69
100
AcDbEntity
  8
TA900_ISI_B_DN15
  6
CONTINUOUS
 62
         7
100
AcDbLine
 10
18.4999027904
 20
41.2468647266
 30
0.0
 11
17.375796275
 21
44.3353219947
 31
0.0
  0
ARC
  5
6A
100
AcDbEntity
  8
TA900_ISI_B_DN15
  6
CONTINUOUS
 62
         7
100
AcDbCircle
 10
-11.667837482
 20
23.5698845356
 30
0.0
 40
40.2007776682
100
AcDbArc
 50
22.7977617448
 51
23.3162717389
  0
LINE
  5
6B
100
AcDbEntity
  8
TA900_ISI_B_DN15
  6
CONTINUOUS
 62
         7
100
AcDbLine
 10
46.2499027904
 20
34.7468647266
 30
0.0
 11
45.9216868031
 21
33.6436355048
 31
0.0
  0
LINE
  5
6C
100
AcDbEntity
  8
TA900_ISI_B_DN15
  6
CONTINUOUS
 62
         7
100
AcDbLine
 10
45.9216868031
 20
33.6436355048
 30
0.0
 11
45.275842441
 21
33.6436355048
 31
0.0
  0
LINE
  5
6D
100
AcDbEntity
  8
TA900_ISI_B_DN15
  6
CONTINUOUS
 62
         7
100
AcDbLine
 10
43.5288863796
 20
34.7468647266
 30
0.0
 11
46.2499027904
 21
34.7468647266
 31
0.0
  0
LINE
  5
6E
100
AcDbEntity
  8
TA900_ISI_B_DN15
  6
CONTINUOUS
 62
         7
100
AcDbLine
 10
43.2049054373
 20
33.6436355048
 30
0.0
 11
43.5288863796
 21
34.7468647266
 31
0.0
  0
LINE
  5
6F
100
AcDbEntity
  8
TA900_ISI_B_DN15
  6
CONTINUOUS
 62
         7
100
AcDbLine
 10
44.0836772743
 20
33.6436355048
 30
0.0
 11
43.2049054373
 21
33.6436355048
 31
0.0
  0
LINE
  5
70
100
AcDbEntity
  8
TA900_ISI_B_DN15
  6
CONTINUOUS
 62
         7
100
AcDbLine
 10
44.0836772743
 20
30.7468647266
 30
0.0
 11
44.0836772743
 21
33.6436355048
 31
0.0
  0
LINE
  5
71
100
AcDbEntity
  8
TA900_ISI_B_DN15
  6
CONTINUOUS
 62
         7
100
AcDbLine
 10
45.275842441
 20
33.6436355048
 30
0.0
 11
45.275842441
 21
30.7468647266
 31
0.0
  0
LINE
  5
72
100
AcDbEntity
  8
TA900_ISI_B_DN15
  6
CONTINUOUS
 62
         7
100
AcDbLine
 10
45.275842441
 20
30.7468647266
 30
0.0
 11
44.0836772743
 21
30.7468647266
 31
0.0
  0
LINE
  5
73
100
AcDbEntity
  8
TA900_ISI_B_DN15
  6
CONTINUOUS
 62
         7
100
AcDbLine
 10
45.3965412234
 20
30.7468647266
 30
0.0
 11
47.3806598047
 21
30.7468647266
 31
0.0
  0
LINE
  5
74
100
AcDbEntity
  8
TA900_ISI_B_DN15
  6
CONTINUOUS
 62
         7
100
AcDbLine
 10
47.3806598047
 20
30.7468647266
 30
0.0
 11
47.691935612
 21
31.7780981835
 31
0.0
  0
LINE
  5
75
100
AcDbEntity
  8
TA900_ISI_B_DN15
  6
CONTINUOUS
 62
         7
100
AcDbLine
 10
47.691935612
 20
31.7780981835
 30
0.0
 11
46.9126873325
 21
31.7780981835
 31
0.0
  0
LINE
  5
76
100
AcDbEntity
  8
TA900_ISI_B_DN15
  6
CONTINUOUS
 62
         7
100
AcDbLine
 10
46.9126873325
 20
31.7780981835
 30
0.0
 11
47.3806598047
 21
33.7558641972
 31
0.0
  0
LINE
  5
77
100
AcDbEntity
  8
TA900_ISI_B_DN15
  6
CONTINUOUS
 62
         7
100
AcDbLine
 10
47.3806598047
 20
33.7558641972
 30
0.0
 11
48.0984999317
 21
30.7468647266
 31
0.0
  0
LINE
  5
78
100
AcDbEntity
  8
TA900_ISI_B_DN15
  6
CONTINUOUS
 62
         7
100
AcDbLine
 10
49.3626608635
 20
30.7468647266
 30
0.0
 11
48.1747307417
 21
34.7468647266
 31
0.0
  0
LINE
  5
79
100
AcDbEntity
  8
TA900_ISI_B_DN15
  6
CONTINUOUS
 62
         7
100
AcDbLine
 10
48.1747307417
 20
34.7468647266
 30
0.0
 11
46.5844713452
 21
34.7468647266
 31
0.0
  0
LINE
  5
7A
100
AcDbEntity
  8
TA900_ISI_B_DN15
  6
CONTINUOUS
 62
         7
100
AcDbLine
 10
46.5844713452
 20
34.7468647266
 30
0.0
 11
45.3965412234
 21
30.7468647266
 31
0.0
  0
LINE
  5
7B
100
AcDbEntity
  8
TA900_ISI_B_DN15
  6
CONTINUOUS
 62
         7
100
AcDbLine
 10
48.0984999317
 20
30.7468647266
 30
0.0
 11
49.3626608635
 21
30.7468647266
 31
0.0
  0
LINE
  5
7C
100
AcDbEntity
  8
TA900_ISI_B_DN15
  6
CONTINUOUS
 62
         7
100
AcDbLine
 10
53.1781060207
 20
62.5468647266
 30
0.0
 11
39.3216995601
 21
62.5468647266
 31
0.0
  0
LINE
  5
7D
100
AcDbEntity
  8
TA900_ISI_B_DN15
  6
CONTINUOUS
 62
         7
100
AcDbLine
 10
39.3216995601
 20
62.5468647266
 30
0.0
 11
32.3934963299
 21
62.5468647266
 31
0.0
  0
LINE
  5
7E
100
AcDbEntity
  8
TA900_ISI_B_DN15
  6
CONTINUOUS
 62
         7
100
AcDbLine
 10
60.106309251
 20
62.5468647266
 30
0.0
 11
53.1781060207
 21
62.5468647266
 31
0.0
  0
LINE
  5
7F
100
AcDbEntity
  8
TA900_ISI_B_DN15
  6
CONTINUOUS
 62
         7
100
AcDbLine
 10
60.106309251
 20
62.5468647266
 30
0.0
 11
60.106309251
 21
55.2468647266
 31
0.0
  0
LINE
  5
80
100
AcDbEntity
  8
TA900_ISI_B_DN15
  6
CONTINUOUS
 62
         7
100
AcDbLine
 10
53.1781060207
 20
62.5468647266
 30
0.0
 11
53.1781060207
 21
55.2468647266
 31
0.0
  0
LINE
  5
81
100
AcDbEntity
  8
TA900_ISI_B_DN15
  6
CONTINUOUS
 62
         7
100
AcDbLine
 10
39.3216995601
 20
62.5468647266
 30
0.0
 11
39.3216995601
 21
55.2468647266
 31
0.0
  0
LINE
  5
82
100
AcDbEntity
  8
TA900_ISI_B_DN15
  6
CONTINUOUS
 62
         7
100
AcDbLine
 10
32.3934963299
 20
62.5468647266
 30
0.0
 11
32.3934963299
 21
55.2468647266
 31
0.0
  0
LINE
  5
83
100
AcDbEntity
  8
TA900_ISI_B_DN15
  6
CONTINUOUS
 62
         7
100
AcDbLine
 10
33.9645456527
 20
38.7985307765
 30
0.0
 11
26.6410811045
 21
38.7985307765
 31
0.0
  0
LINE
  5
84
100
AcDbEntity
  8
TA900_ISI_B_DN15
  6
CONTINUOUS
 62
         7
100
AcDbLine
 10
65.8587244763
 20
38.7985307765
 30
0.0
 11
58.5352599281
 21
38.7985307765
 31
0.0
  0
LINE
  5
85
100
AcDbEntity
  8
TA900_ISI_B_DN15
  6
CONTINUOUS
 62
         7
100
AcDbLine
 10
25.3923866573
 20
39.1468647266
 30
0.0
 11
67.1074189235
 21
39.1468647266
 31
0.0
  0
LINE
  5
86
100
AcDbEntity
  8
TA900_ISI_B_DN15
  6
CONTINUOUS
 62
         7
100
AcDbLine
 10
67.8999027904
 20
55.2468647266
 30
0.0
 11
24.5999027904
 21
55.2468647266
 31
0.0
  0
LINE
  5
87
100
AcDbEntity
  8
TA900_ISI_B_DN15
  6
CONTINUOUS
 62
         7
100
AcDbLine
 10
67.2499027904
 20
47.9968647266
 30
0.0
 11
25.2499027904
 21
47.9968647266
 31
0.0
  0
LINE
  5
88
100
AcDbEntity
  8
TA900_ISI_B_DN15
  6
CONTINUOUS
 62
         7
100
AcDbLine
 10
68.1999027904
 20
53.2468647266
 30
0.0
 11
24.2999027904
 21
53.2468647266
 31
0.0
  0
LINE
  5
89
100
AcDbEntity
  8
TA900_ISI_B_DN15
  6
CONTINUOUS
 62
         7
100
AcDbLine
 10
68.1999027904
 20
48.9468647266
 30
0.0
 11
24.2999027904
 21
48.9468647266
 31
0.0
  0
LINE
  5
8A
100
AcDbEntity
  8
TA900_ISI_B_DN15
  6
CONTINUOUS
 62
         7
100
AcDbLine
 10
26.6410811045
 20
38.7985307765
 30
0.0
 11
25.3923866573
 21
39.1468647266
 31
0.0
  0
SPLINE
  5
8B
100
AcDbEntity
  8
TA900_ISI_B_DN15
  6
CONTINUOUS
 62
         7
100
AcDbSpline
210
0.0
220
0.0
230
1.0
 70
         8
 71
         3
 72
        16
 73
        12
 74
         0
 42
0.0
 43
0.0
 40
0.0
 40
0.0
 40
0.0
 40
0.0
 40
0.125
 40
0.125
 40
0.25
 40
0.25
 40
0.375
 40
0.375
 40
0.5
 40
0.5
 40
0.5002732427265956
 40
0.5002732427265956
 40
0.5002732427265956
 40
0.5002732427265956
 10
63.590029534536868
 20
27.746864726611349
 30
0.0
 10
63.646123523844231
 20
26.582218047085302
 30
0.0
 10
63.699104442753715
 20
25.476883160609631
 30
0.0
 10
63.799035702551258
 20
23.384070331025693
 30
0.0
 10
63.843351809013292
 20
22.45173660169209
 30
0.0
 10
63.91808955639744
 20
20.875396795492023
 30
0.0
 10
63.947274582710797
 20
20.257553496297309
 30
0.0
 10
63.98706676980165
 20
19.41437624900006
 30
0.0
 10
63.997304533651722
 20
19.196928801969193
 30
0.0
 10
63.997350474984799
 20
19.1959537571143
 30
0.0
 10
63.99735052601735
 20
19.195952674783296
 30
0.0
 10
63.997350527885175
 20
19.19595263666735
 30
0.0
  0
ARC
  5
8C
100
AcDbEntity
  8
TA900_ISI_B_DN15
  6
CONTINUOUS
 62
         7
100
AcDbCircle
 10
88.0775384074
 20
28.4787418983
 30
0.0
 40
24.4984435218
100
AcDbArc
 50
155.0869349484
 51
181.7119337809
  0
ARC
  5
8D
100
AcDbEntity
  8
TA900_ISI_B_DN15
  6
CONTINUOUS
 62
         7
100
AcDbCircle
 10
50.2171794341
 20
28.7468647266
 30
0.0
 40
40.6876805618
100
AcDbArc
 50
168.956023453
 51
191.043976547
  0
ARC
  5
8E
100
AcDbEntity
  8
TA900_ISI_B_DN15
  6
CONTINUOUS
 62
         7
100
AcDbCircle
 10
-22.5583671911
 20
28.7468647266
 30
0.0
 40
40.6876813266
100
AcDbArc
 50
348.9560236633
 51
11.0439763367
  0
ARC
  5
8F
100
AcDbEntity
  8
TA900_ISI_B_DN15
  6
CONTINUOUS
 62
         7
100
AcDbCircle
 10
7.6462618737
 20
17.0555217755
 30
0.0
 40
10.4809989823
100
AcDbArc
 50
338.1716867869
 51
21.8283132131
  0
ARC
  5
90
100
AcDbEntity
  8
TA900_ISI_B_DN15
  6
CONTINUOUS
 62
         7
100
AcDbCircle
 10
7.6462618737
 20
40.4382076777
 30
0.0
 40
10.4809989823
100
AcDbArc
 50
338.1716867869
 51
21.8283132131
  0
LINE
  5
91
100
AcDbEntity
  8
TA900_ISI_B_DN15
  6
CONTINUOUS
 62
         7
100
AcDbLine
 10
82.2167888336
 20
44.3353219947
 30
0.0
 11
75.1240093058
 21
44.3353219947
 31
0.0
  0
LINE
  5
92
100
AcDbEntity
  8
TA900_ISI_B_DN15
  6
CONTINUOUS
 62
         7
100
AcDbLine
 10
82.2167888336
 20
36.5410933607
 30
0.0
 11
75.1240093058
 21
36.5410933607
 31
0.0
  0
LINE
  5
93
100
AcDbEntity
  8
TA900_ISI_B_DN15
  6
CONTINUOUS
 62
         7
100
AcDbLine
 10
17.375796275
 20
36.5410933607
 30
0.0
 11
10.2830167472
 21
36.5410933607
 31
0.0
  0
LINE
  5
94
100
AcDbEntity
  8
TA900_ISI_B_DN15
  6
CONTINUOUS
 62
         7
100
AcDbLine
 10
17.375796275
 20
20.9526360926
 30
0.0
 11
10.2830167472
 21
20.9526360926
 31
0.0
  0
ARC
  5
95
100
AcDbEntity
  8
TA900_ISI_B_DN15
  6
CONTINUOUS
 62
         7
100
AcDbCircle
 10
46.2499027904
 20
104.6670558214
 30
0.0
 40
67.0044221795
100
AcDbArc
 50
259.4349672218
 51
280.5650327782
  0
LINE
  5
96
100
AcDbEntity
  8
TA900_ISI_B_DN15
  6
CONTINUOUS
 62
         7
100
AcDbLine
 10
58.5352599281
 20
38.7985307765
 30
0.0
 11
58.5352599281
 21
27.7468647266
 31
0.0
  0
LINE
  5
97
100
AcDbEntity
  8
TA900_ISI_B_DN15
  6
CONTINUOUS
 62
         7
100
AcDbLine
 10
33.9645456527
 20
38.7985307765
 30
0.0
 11
33.9645456527
 21
27.7468647266
 31
0.0
  0
SPLINE
  5
98
100
AcDbEntity
  8
TA900_ISI_B_DN15
  6
CONTINUOUS
 62
         7
100
AcDbSpline
210
0.0
220
0.0
230
1.0
 70
         8
 71
         3
 72
        10
 73
         6
 74
         0
 42
0.0
 43
0.0
 40
0.5013924408539289
 40
0.5013924408539289
 40
0.5013924408539289
 40
0.5013924408539289
 40
0.75
 40
0.75
 40
1.0
 40
1.0
 40
1.0
 40
1.0
 10
67.249902770826267
 20
39.48160905299455
 30
0.0
 10
67.249900448837622
 20
39.481604611781485
 30
0.0
 10
67.237613405247473
 20
39.453179770875494
 30
0.0
 10
67.189737405461017
 20
39.341402498177843
 30
0.0
 10
67.154061571669558
 20
39.257846279976683
 30
0.0
 10
67.107418923505122
 20
39.146864726611369
 30
0.0
  0
LINE
  5
99
100
AcDbEntity
  8
TA900_ISI_B_DN15
  6
CONTINUOUS
 62
         7
100
AcDbLine
 10
67.1074189235
 20
39.1468647266
 30
0.0
 11
65.8587244763
 21
38.7985307765
 31
0.0
  0
LINE
  5
9A
100
AcDbEntity
  8
TA900_ISI_B_DN15
  6
CONTINUOUS
 62
         7
100
AcDbLine
 10
9.2499027904
 20
41.4968647266
 30
0.0
 11
9.2499027904
 21
15.9968647266
 31
0.0
  0
LINE
  5
9B
100
AcDbEntity
  8
TA900_ISI_B_DN15
  6
CONTINUOUS
 62
         7
100
AcDbLine
 10
18.4999027904
 20
41.2468647266
 30
0.0
 11
18.4999027904
 21
16.2468647266
 31
0.0
  0
LINE
  5
9C
100
AcDbEntity
  8
TA900_ISI_B_DN15
  6
CONTINUOUS
 62
         7
100
AcDbLine
 10
58.5352599281
 20
12.3468647266
 30
0.0
 11
58.5352599281
 21
27.7468647266
 31
0.0
  0
LINE
  5
9D
100
AcDbEntity
  8
TA900_ISI_B_DN15
  6
CONTINUOUS
 62
         7
100
AcDbLine
 10
33.9645456527
 20
12.3468647266
 30
0.0
 11
33.9645456527
 21
27.7468647266
 31
0.0
  0
LINE
  5
9E
100
AcDbEntity
  8
TA900_ISI_B_DN15
  6
CONTINUOUS
 62
         7
100
AcDbLine
 10
20.3999027904
 20
41.2468647266
 30
0.0
 11
20.3999027904
 21
16.2468647266
 31
0.0
  0
LINE
  5
9F
100
AcDbEntity
  8
TA900_ISI_B_DN15
  6
CONTINUOUS
 62
         7
100
AcDbLine
 10
72.0999027904
 20
41.2468647266
 30
0.0
 11
72.0999027904
 21
16.2468647266
 31
0.0
  0
LINE
  5
A0
100
AcDbEntity
  8
TA900_ISI_B_DN15
  6
CONTINUOUS
 62
         7
100
AcDbLine
 10
83.2499027904
 20
41.4968647266
 30
0.0
 11
83.2499027904
 21
15.9968647266
 31
0.0
  0
LINE
  5
A1
100
AcDbEntity
  8
TA900_ISI_B_DN15
  6
CONTINUOUS
 62
         7
100
AcDbLine
 10
73.9999027904
 20
41.2468647266
 30
0.0
 11
73.9999027904
 21
16.2468647266
 31
0.0
  0
ARC
  5
A2
100
AcDbEntity
  8
TA900_ISI_B_DN15
  6
CONTINUOUS
 62
         7
100
AcDbCircle
 10
20.0125511486
 20
40.4382076777
 30
0.0
 40
10.4809989823
100
AcDbArc
 50
158.1716867869
 51
201.8283132131
  0
LINE
  5
A3
100
AcDbEntity
  8
TA900_ISI_B_DN15
  6
CONTINUOUS
 62
         7
100
AcDbLine
 10
17.375796275
 20
13.1584074585
 30
0.0
 11
10.2830167472
 21
13.1584074585
 31
0.0
  0
LINE
  5
A4
100
AcDbEntity
  8
TA900_ISI_B_DN15
  6
CONTINUOUS
 62
         7
100
AcDbLine
 10
17.375796275
 20
44.3353219947
 30
0.0
 11
10.2830167472
 21
44.3353219947
 31
0.0
  0
ARC
  5
A5
100
AcDbEntity
  8
TA900_ISI_B_DN15
  6
CONTINUOUS
 62
         7
100
AcDbCircle
 10
84.8535437071
 20
40.4382076777
 30
0.0
 40
10.4809989823
100
AcDbArc
 50
158.1716867869
 51
201.8283132131
  0
ARC
  5
A6
100
AcDbEntity
  8
TA900_ISI_B_DN15
  6
CONTINUOUS
 62
         7
100
AcDbCircle
 10
84.8535437071
 20
17.0555217755
 30
0.0
 40
10.4809989823
100
AcDbArc
 50
158.1716867869
 51
201.8283132131
  0
ARC
  5
A7
100
AcDbEntity
  8
TA900_ISI_B_DN15
  6
CONTINUOUS
 62
         7
100
AcDbCircle
 10
115.0581727719
 20
28.7468647266
 30
0.0
 40
40.6876813266
100
AcDbArc
 50
168.9560236633
 51
191.0439763367
  0
LINE
  5
A8
100
AcDbEntity
  8
TA900_ISI_B_DN15
  6
CONTINUOUS
 62
         7
100
AcDbLine
 10
82.2167888336
 20
20.9526360926
 30
0.0
 11
75.1240093058
 21
20.9526360926
 31
0.0
  0
ARC
  5
A9
100
AcDbEntity
  8
TA900_ISI_B_DN15
  6
CONTINUOUS
 62
         7
100
AcDbCircle
 10
20.0125511486
 20
17.0555217755
 30
0.0
 40
10.4809989823
100
AcDbArc
 50
158.1716867869
 51
201.8283132131
  0
ARC
  5
AA
100
AcDbEntity
  8
TA900_ISI_B_DN15
  6
CONTINUOUS
 62
         7
100
AcDbCircle
 10
72.4872544322
 20
40.4382076777
 30
0.0
 40
10.4809989823
100
AcDbArc
 50
338.1716867869
 51
21.8283132131
  0
ARC
  5
AB
100
AcDbEntity
  8
TA900_ISI_B_DN15
  6
CONTINUOUS
 62
         7
100
AcDbCircle
 10
42.2826261467
 20
28.7468647266
 30
0.0
 40
40.6876805618
100
AcDbArc
 50
348.956023453
 51
11.043976547
  0
ARC
  5
AC
100
AcDbEntity
  8
TA900_ISI_B_DN15
  6
CONTINUOUS
 62
         7
100
AcDbCircle
 10
4.4229652506
 20
28.4788852002
 30
0.0
 40
24.4977500378
100
AcDbArc
 50
358.2876824364
 51
24.9134488342
  0
SPLINE
  5
AD
100
AcDbEntity
  8
TA900_ISI_B_DN15
  6
CONTINUOUS
 62
         7
100
AcDbSpline
210
0.0
220
0.0
230
1.0
 70
         8
 71
         3
 72
        14
 73
        10
 74
         0
 42
0.0
 43
0.0
 40
0.5002840540562534
 40
0.5002840540562534
 40
0.5002840540562534
 40
0.5002840540562534
 40
0.6250000000000002
 40
0.6250000000000002
 40
0.7500000000000001
 40
0.7500000000000001
 40
0.8750000000000001
 40
0.8750000000000001
 40
1.0
 40
1.0
 40
1.0
 40
1.0
 10
28.502455052929268
 20
19.19595263704721
 30
0.0
 10
28.502455976166239
 20
19.195972955520567
 30
0.0
 10
28.512699194613486
 20
19.413530441499294
 30
0.0
 10
28.552048345044355
 20
20.247332589663394
 30
0.0
 10
28.581597029754029
 20
20.87286134590574
 30
0.0
 10
28.655354017806175
 20
22.428566253459014
 30
0.0
 10
28.700435147259359
 20
23.377005065575482
 30
0.0
 10
28.799080426937682
 20
25.442995449747912
 30
0.0
 10
28.853681748174132
 20
26.582211635923954
 30
0.0
 10
28.909776046268391
 20
27.746864726611349
 30
0.0
  0
LINE
  5
AE
100
AcDbEntity
  8
TA900_ISI_B_DN15
  6
CONTINUOUS
 62
         7
100
AcDbLine
 10
72.0999027904
 20
41.2468647266
 30
0.0
 11
67.2448555374
 21
39.4797720406
 31
0.0
  0
LINE
  5
AF
100
AcDbEntity
  8
TA900_ISI_B_DN15
  6
CONTINUOUS
 62
         7
100
AcDbLine
 10
10.2830167472
 20
44.3353219947
 30
0.0
 11
9.2499027904
 21
41.4968647266
 31
0.0
  0
ARC
  5
B0
100
AcDbEntity
  8
TA900_ISI_B_DN15
  6
CONTINUOUS
 62
         7
100
AcDbCircle
 10
46.2499027904
 20
27.7468647266
 30
0.0
 40
19.7
100
AcDbArc
 50
308.5811311463
 51
334.3028011236
  0
LINE
  5
B1
100
AcDbEntity
  8
TA900_ISI_B_DN15
  6
CONTINUOUS
 62
         7
100
AcDbLine
 10
56.9999027904
 20
62.7468647266
 30
0.0
 11
35.4999027904
 21
62.7468647266
 31
0.0
  0
LINE
  5
B2
100
AcDbEntity
  8
TA900_ISI_B_DN15
  6
CONTINUOUS
 62
         7
100
AcDbLine
 10
55.1696841779
 20
64.2468647266
 30
0.0
 11
55.1696841779
 21
65.2468647266
 31
0.0
  0
LINE
  5
B3
100
AcDbEntity
  8
TA900_ISI_B_DN15
  6
CONTINUOUS
 62
         7
100
AcDbLine
 10
37.3301214029
 20
65.2468647266
 30
0.0
 11
37.3301214029
 21
64.2468647266
 31
0.0
  0
ARC
  5
B4
100
AcDbEntity
  8
TA900_ISI_B_DN15
  6
CONTINUOUS
 62
         7
100
AcDbCircle
 10
46.2499027904
 20
65.2468647266
 30
0.0
 40
8.9197813875
100
AcDbArc
 50
0.0
 51
180.0
  0
LINE
  5
B5
100
AcDbEntity
  8
TA900_ISI_B_DN15
  6
CONTINUOUS
 62
         7
100
AcDbLine
 10
88.7499027904
 20
64.2468647266
 30
0.0
 11
55.1696841779
 21
64.2468647266
 31
0.0
  0
LINE
  5
B6
100
AcDbEntity
  8
TA900_ISI_B_DN15
  6
CONTINUOUS
 62
         7
100
AcDbLine
 10
91.7499027904
 20
64.2468647266
 30
0.0
 11
88.7499027904
 21
64.2468647266
 31
0.0
  0
LINE
  5
B7
100
AcDbEntity
  8
TA900_ISI_B_DN15
  6
CONTINUOUS
 62
         7
100
AcDbLine
 10
24.7499027904
 20
64.2468647266
 30
0.0
 11
21.7499027904
 21
64.2468647266
 31
0.0
  0
LINE
  5
B8
100
AcDbEntity
  8
TA900_ISI_B_DN15
  6
CONTINUOUS
 62
         7
100
AcDbLine
 10
21.7499027904
 20
64.2468647266
 30
0.0
 11
21.7499027904
 21
69.6620940292
 31
0.0
  0
ARC
  5
B9
100
AcDbEntity
  8
TA900_ISI_B_DN15
  6
CONTINUOUS
 62
         7
100
AcDbCircle
 10
28.7499027904
 20
69.6620940292
 30
0.0
 40
7.0
100
AcDbArc
 50
100.2489802712
 51
180.0
  0
LINE
  5
BA
100
AcDbEntity
  8
TA900_ISI_B_DN15
  6
CONTINUOUS
 62
         7
100
AcDbLine
 10
91.7499027904
 20
71.6062385605
 30
0.0
 11
91.7499027904
 21
64.2468647266
 31
0.0
  0
ARC
  5
BB
100
AcDbEntity
  8
TA900_ISI_B_DN15
  6
CONTINUOUS
 62
         7
100
AcDbCircle
 10
74.2989669459
 20
-182.2531352734
 30
0.0
 40
263.0
100
AcDbArc
 50
88.0933372611
 51
100.2489802712
  0
ARC
  5
BC
100
AcDbEntity
  8
TA900_ISI_B_DN15
  6
CONTINUOUS
 62
         7
100
AcDbCircle
 10
82.7499027904
 20
71.6062385605
 30
0.0
 40
9.0
100
AcDbArc
 50
0.0
 51
88.0933372611
  0
LINE
  5
BD
100
AcDbEntity
  8
TA900_ISI_B_DN15
  6
CONTINUOUS
 62
         7
100
AcDbLine
 10
82.2167888336
 20
13.1584074585
 30
0.0
 11
83.2499027904
 21
15.9968647266
 31
0.0
  0
LINE
  5
BE
100
AcDbEntity
  8
TA900_ISI_B_DN15
  6
CONTINUOUS
 62
         7
100
AcDbLine
 10
37.3301214029
 20
64.2468647266
 30
0.0
 11
24.7499027904
 21
64.2468647266
 31
0.0
  0
LINE
  5
BF
100
AcDbEntity
  8
TA900_ISI_B_DN15
  6
CONTINUOUS
 62
         7
100
AcDbLine
 10
67.8999027904
 20
53.2468647266
 30
0.0
 11
67.8999027904
 21
55.2468647266
 31
0.0
  0
LINE
  5
C0
100
AcDbEntity
  8
TA900_ISI_B_DN15
  6
CONTINUOUS
 62
         7
100
AcDbLine
 10
24.2999027904
 20
48.9468647266
 30
0.0
 11
25.2499027904
 21
47.9968647266
 31
0.0
  0
LINE
  5
C1
100
AcDbEntity
  8
TA900_ISI_B_DN15
  6
CONTINUOUS
 62
         7
100
AcDbLine
 10
24.2999027904
 20
53.2468647266
 30
0.0
 11
24.2999027904
 21
48.9468647266
 31
0.0
  0
LINE
  5
C2
100
AcDbEntity
  8
TA900_ISI_B_DN15
  6
CONTINUOUS
 62
         7
100
AcDbLine
 10
33.9645456527
 20
12.3468647266
 30
0.0
 11
58.5352599281
 21
12.3468647266
 31
0.0
  0
LINE
  5
C3
100
AcDbEntity
  8
TA900_ISI_B_DN15
  6
CONTINUOUS
 62
         7
100
AcDbLine
 10
25.2499027904
 20
47.9968647266
 30
0.0
 11
25.2499027904
 21
39.4744259734
 31
0.0
  0
LINE
  5
C4
100
AcDbEntity
  8
TA900_ISI_B_DN15
  6
CONTINUOUS
 62
         7
100
AcDbLine
 10
63.9933991608
 20
19.1973907518
 30
0.0
 11
72.0999027904
 21
16.2468647266
 31
0.0
  0
LINE
  5
C5
100
AcDbEntity
  8
TA900_ISI_B_DN15
  6
CONTINUOUS
 62
         7
100
AcDbLine
 10
9.2499027904
 20
15.9968647266
 30
0.0
 11
10.2830167472
 21
13.1584074585
 31
0.0
  0
LINE
  5
C6
100
AcDbEntity
  8
TA900_ISI_B_DN15
  6
CONTINUOUS
 62
         7
100
AcDbLine
 10
56.9999027904
 20
62.7468647266
 30
0.0
 11
56.9999027904
 21
64.2468647266
 31
0.0
  0
ENDBLK
  5
C7
100
AcDbEntity
  8
TA900_ISI_B_DN15
  6
CONTINUOUS
 62
         7
100
AcDbBlockEnd
  0
BLOCK
  5
11A
100
AcDbEntity
  8
0
 62
         1
 48
0.0
100
AcDbBlockBegin
  2
SE2
 70
         0
 10
0.0
 20
0.0
 30
0.0
  3
SE2
  1

  0
ENDBLK
  5
11B
100
AcDbEntity
  8
0
 62
         1
 48
0.0
100
AcDbBlockEnd
  0
BLOCK
  5
CA
100
AcDbEntity
  8
0
 62
         1
 48
0.0
100
AcDbBlockBegin
  2
SE3
 70
         0
 10
0.0
 20
0.0
 30
0.0
  3
SE3
  1

  0
ARC
  5
CB
100
AcDbEntity
  8
TA900_ISI_B_DN15
  6
CONTINUOUS
 62
         7
100
AcDbCircle
 10
52.3509111809
 20
145.9786169461
 30
0.0
 40
30.619163084
100
AcDbArc
 50
347.2645244266
 51
12.7354755734
  0
LINE
  5
CC
100
AcDbEntity
  8
TA900_ISI_B_DN15
  6
CONTINUOUS
 62
         7
100
AcDbLine
 10
82.2167888336
 20
139.2286169461
 30
0.0
 11
75.1240093058
 21
139.2286169461
 31
0.0
  0
LINE
  5
CD
100
AcDbEntity
  8
TA900_ISI_B_DN15
  6
CONTINUOUS
 62
         7
100
AcDbLine
 10
83.2499027904
 20
151.9786169461
 30
0.0
 11
82.9769251147
 21
152.7286169461
 31
0.0
  0
LINE
  5
CE
100
AcDbEntity
  8
TA900_ISI_B_DN15
  6
CONTINUOUS
 62
         7
100
AcDbLine
 10
20.3999027904
 20
126.7286169461
 30
0.0
 11
28.932773314
 21
129.8343278295
 31
0.0
  0
LINE
  5
CF
100
AcDbEntity
  8
TA900_ISI_B_DN15
  6
CONTINUOUS
 62
         7
100
AcDbLine
 10
20.3999027904
 20
151.7286169461
 30
0.0
 11
18.4999027904
 21
151.7286169461
 31
0.0
  0
LINE
  5
D0
100
AcDbEntity
  8
TA900_ISI_B_DN15
  6
CONTINUOUS
 62
         7
100
AcDbLine
 10
73.9999027904
 20
151.7286169461
 30
0.0
 11
72.0999027904
 21
151.7286169461
 31
0.0
  0
LINE
  5
D1
100
AcDbEntity
  8
TA900_ISI_B_DN15
  6
CONTINUOUS
 62
         7
100
AcDbLine
 10
74.3638730247
 20
152.7286169461
 30
0.0
 11
73.9999027904
 21
151.7286169461
 31
0.0
  0
LINE
  5
D2
100
AcDbEntity
  8
TA900_ISI_B_DN15
  6
CONTINUOUS
 62
         7
100
AcDbLine
 10
18.1359325561
 20
125.7286169461
 30
0.0
 11
18.4999027904
 21
126.7286169461
 31
0.0
  0
LINE
  5
D3
100
AcDbEntity
  8
TA900_ISI_B_DN15
  6
CONTINUOUS
 62
         7
100
AcDbLine
 10
28.9323426135
 20
148.6230628248
 30
0.0
 11
20.3999027904
 21
151.7286169461
 31
0.0
  0
LINE
  5
D4
100
AcDbEntity
  8
TA900_ISI_B_DN15
  6
CONTINUOUS
 62
         7
100
AcDbLine
 10
18.4999027904
 20
126.7286169461
 30
0.0
 11
20.3999027904
 21
126.7286169461
 31
0.0
  0
LINE
  5
D5
100
AcDbEntity
  8
TA900_ISI_B_DN15
  6
CONTINUOUS
 62
         7
100
AcDbLine
 10
72.0999027904
 20
126.7286169461
 30
0.0
 11
73.9999027904
 21
126.7286169461
 31
0.0
  0
LINE
  5
D6
100
AcDbEntity
  8
TA900_ISI_B_DN15
  6
CONTINUOUS
 62
         7
100
AcDbLine
 10
73.9999027904
 20
126.7286169461
 30
0.0
 11
74.3638730247
 21
125.7286169461
 31
0.0
  0
LINE
  5
D7
100
AcDbEntity
  8
TA900_ISI_B_DN15
  6
CONTINUOUS
 62
         7
100
AcDbLine
 10
18.4999027904
 20
151.7286169461
 30
0.0
 11
18.1359325561
 21
152.7286169461
 31
0.0
  0
LINE
  5
D8
100
AcDbEntity
  8
TA900_ISI_B_DN15
  6
CONTINUOUS
 62
         7
100
AcDbLine
 10
44.0836772743
 20
154.9286169461
 30
0.0
 11
43.2049054373
 21
154.9286169461
 31
0.0
  0
LINE
  5
D9
100
AcDbEntity
  8
TA900_ISI_B_DN15
  6
CONTINUOUS
 62
         7
100
AcDbLine
 10
45.3965412234
 20
154.9286169461
 30
0.0
 11
45.275842441
 21
154.9286169461
 31
0.0
  0
LINE
  5
DA
100
AcDbEntity
  8
TA900_ISI_B_DN15
  6
CONTINUOUS
 62
         7
100
AcDbLine
 10
44.0836772743
 20
154.9286169461
 30
0.0
 11
44.0836772743
 21
154.6286169461
 31
0.0
  0
LINE
  5
DB
100
AcDbEntity
  8
TA900_ISI_B_DN15
  6
CONTINUOUS
 62
         7
100
AcDbLine
 10
45.275842441
 20
154.9286169461
 30
0.0
 11
45.275842441
 21
154.6286169461
 31
0.0
  0
LINE
  5
DC
100
AcDbEntity
  8
TA900_ISI_B_DN15
  6
CONTINUOUS
 62
         7
100
AcDbLine
 10
45.275842441
 20
154.9286169461
 30
0.0
 11
44.0836772743
 21
154.9286169461
 31
0.0
  0
LINE
  5
DD
100
AcDbEntity
  8
TA900_ISI_B_DN15
  6
CONTINUOUS
 62
         7
100
AcDbLine
 10
43.2049054373
 20
154.9286169461
 30
0.0
 11
43.2049054373
 21
154.6286169461
 31
0.0
  0
LINE
  5
DE
100
AcDbEntity
  8
TA900_ISI_B_DN15
  6
CONTINUOUS
 62
         7
100
AcDbLine
 10
45.3965412234
 20
154.9286169461
 30
0.0
 11
47.3806598047
 21
154.9286169461
 31
0.0
  0
LINE
  5
DF
100
AcDbEntity
  8
TA900_ISI_B_DN15
  6
CONTINUOUS
 62
         7
100
AcDbLine
 10
47.3806598047
 20
154.9286169461
 30
0.0
 11
47.691935612
 21
154.9286169461
 31
0.0
  0
LINE
  5
E0
100
AcDbEntity
  8
TA900_ISI_B_DN15
  6
CONTINUOUS
 62
         7
100
AcDbLine
 10
47.691935612
 20
154.9286169461
 30
0.0
 11
48.0984999317
 21
154.9286169461
 31
0.0
  0
LINE
  5
E1
100
AcDbEntity
  8
TA900_ISI_B_DN15
  6
CONTINUOUS
 62
         7
100
AcDbLine
 10
49.3626608635
 20
154.9286169461
 30
0.0
 11
49.3626608635
 21
154.6286169461
 31
0.0
  0
LINE
  5
E2
100
AcDbEntity
  8
TA900_ISI_B_DN15
  6
CONTINUOUS
 62
         7
100
AcDbLine
 10
48.0984999317
 20
154.9286169461
 30
0.0
 11
49.3626608635
 21
154.9286169461
 31
0.0
  0
LINE
  5
E3
100
AcDbEntity
  8
TA900_ISI_B_DN15
  6
CONTINUOUS
 62
         7
100
AcDbLine
 10
48.0984999317
 20
154.9286169461
 30
0.0
 11
48.0984999317
 21
154.6286169461
 31
0.0
  0
LINE
  5
E4
100
AcDbEntity
  8
TA900_ISI_B_DN15
  6
CONTINUOUS
 62
         7
100
AcDbLine
 10
45.3965412234
 20
154.9286169461
 30
0.0
 11
45.3965412234
 21
154.6286169461
 31
0.0
  0
LINE
  5
E5
100
AcDbEntity
  8
TA900_ISI_B_DN15
  6
CONTINUOUS
 62
         7
100
AcDbLine
 10
47.691935612
 20
154.9286169461
 30
0.0
 11
47.691935612
 21
154.6286169461
 31
0.0
  0
LINE
  5
E6
100
AcDbEntity
  8
TA900_ISI_B_DN15
  6
CONTINUOUS
 62
         7
100
AcDbLine
 10
47.3806598047
 20
154.9286169461
 30
0.0
 11
47.3806598047
 21
154.6286169461
 31
0.0
  0
ARC
  5
E7
100
AcDbEntity
  8
TA900_ISI_B_DN15
  6
CONTINUOUS
 62
         7
100
AcDbCircle
 10
46.2499027904
 20
139.2286169461
 30
0.0
 40
21.95
100
AcDbArc
 50
27.6050279871
 51
152.3949720129
  0
ARC
  5
E8
100
AcDbEntity
  8
TA900_ISI_B_DN15
  6
CONTINUOUS
 62
         7
100
AcDbCircle
 10
46.2499027904
 20
139.2286169461
 30
0.0
 40
21.95
100
AcDbArc
 50
207.6050279871
 51
332.3949720129
  0
ARC
  5
E9
100
AcDbEntity
  8
TA900_ISI_B_DN15
  6
CONTINUOUS
 62
         7
100
AcDbCircle
 10
46.2499027904
 20
139.2286169461
 30
0.0
 40
21.0
100
AcDbArc
 50
27.9512414886
 51
152.0487585114
  0
ARC
  5
EA
100
AcDbEntity
  8
TA900_ISI_B_DN15
  6
CONTINUOUS
 62
         7
100
AcDbCircle
 10
-41.1501933872
 20
139.2286169461
 30
0.0
 40
105.1566655148
100
AcDbArc
 50
354.8991773119
 51
5.1008226881
  0
LINE
  5
EB
100
AcDbEntity
  8
TA900_ISI_B_DN15
  6
CONTINUOUS
 62
         7
100
AcDbLine
 10
10.2830167472
 20
152.7286169461
 30
0.0
 11
9.5228819646
 21
152.7286169461
 31
0.0
  0
LINE
  5
EC
100
AcDbEntity
  8
TA900_ISI_B_DN15
  6
CONTINUOUS
 62
         7
100
AcDbLine
 10
18.1359310412
 20
152.7286169461
 30
0.0
 11
17.375796275
 21
152.7286169461
 31
0.0
  0
LINE
  5
ED
100
AcDbEntity
  8
TA900_ISI_B_DN15
  6
CONTINUOUS
 62
         7
100
AcDbLine
 10
74.3638745396
 20
125.7286169461
 30
0.0
 11
75.1240093058
 21
125.7286169461
 31
0.0
  0
ARC
  5
EE
100
AcDbEntity
  8
TA900_ISI_B_DN15
  6
CONTINUOUS
 62
         7
100
AcDbCircle
 10
-12.4900813777
 20
145.9786169461
 30
0.0
 40
30.619163084
100
AcDbArc
 50
347.2645244266
 51
12.7354755734
  0
LINE
  5
EF
100
AcDbEntity
  8
TA900_ISI_B_DN15
  6
CONTINUOUS
 62
         7
100
AcDbLine
 10
18.1359310412
 20
125.7286169461
 30
0.0
 11
17.375796275
 21
125.7286169461
 31
0.0
  0
LINE
  5
F0
100
AcDbEntity
  8
TA900_ISI_B_DN15
  6
CONTINUOUS
 62
         7
100
AcDbLine
 10
17.375796275
 20
152.7286169461
 30
0.0
 11
10.2830167472
 21
152.7286169461
 31
0.0
  0
ARC
  5
F1
100
AcDbEntity
  8
TA900_ISI_B_DN15
  6
CONTINUOUS
 62
         7
100
AcDbCircle
 10
104.9898869585
 20
132.4786169461
 30
0.0
 40
30.619163084
100
AcDbArc
 50
167.2645244266
 51
192.7354755734
  0
ARC
  5
F2
100
AcDbEntity
  8
TA900_ISI_B_DN15
  6
CONTINUOUS
 62
         7
100
AcDbCircle
 10
46.2499027904
 20
139.2286169461
 30
0.0
 40
19.7
100
AcDbArc
 50
28.3323568738
 51
51.4188688537
  0
LINE
  5
F3
100
AcDbEntity
  8
TA900_ISI_B_DN15
  6
CONTINUOUS
 62
         7
100
AcDbLine
 10
9.2499027904
 20
126.4786169461
 30
0.0
 11
9.2499027904
 21
151.9786169461
 31
0.0
  0
LINE
  5
F4
100
AcDbEntity
  8
TA900_ISI_B_DN15
  6
CONTINUOUS
 62
         7
100
AcDbLine
 10
18.4999027904
 20
126.7286169461
 30
0.0
 11
18.4999027904
 21
151.7286169461
 31
0.0
  0
ARC
  5
F5
100
AcDbEntity
  8
TA900_ISI_B_DN15
  6
CONTINUOUS
 62
         7
100
AcDbCircle
 10
46.2499027904
 20
139.2286169461
 30
0.0
 40
19.7
100
AcDbArc
 50
208.3323568738
 51
231.4188688537
  0
ARC
  5
F6
100
AcDbEntity
  8
TA900_ISI_B_DN15
  6
CONTINUOUS
 62
         7
100
AcDbCircle
 10
46.2499027904
 20
139.2286169461
 30
0.0
 40
19.7
100
AcDbArc
 50
128.5811311463
 51
151.6676431262
  0
LINE
  5
F7
100
AcDbEntity
  8
TA900_ISI_B_DN15
  6
CONTINUOUS
 62
         7
100
AcDbLine
 10
33.9645456527
 20
154.6286169461
 30
0.0
 11
33.9645456527
 21
123.8286169461
 31
0.0
  0
LINE
  5
F8
100
AcDbEntity
  8
TA900_ISI_B_DN15
  6
CONTINUOUS
 62
         7
100
AcDbLine
 10
58.5352599281
 20
154.6286169461
 30
0.0
 11
58.5352599281
 21
123.8286169461
 31
0.0
  0
LINE
  5
F9
100
AcDbEntity
  8
TA900_ISI_B_DN15
  6
CONTINUOUS
 62
         7
100
AcDbLine
 10
58.5352599281
 20
154.6286169461
 30
0.0
 11
33.9645456527
 21
154.6286169461
 31
0.0
  0
LINE
  5
FA
100
AcDbEntity
  8
TA900_ISI_B_DN15
  6
CONTINUOUS
 62
         7
100
AcDbLine
 10
20.3999027904
 20
126.7286169461
 30
0.0
 11
20.3999027904
 21
151.7286169461
 31
0.0
  0
LINE
  5
FB
100
AcDbEntity
  8
TA900_ISI_B_DN15
  6
CONTINUOUS
 62
         7
100
AcDbLine
 10
72.0999027904
 20
126.7286169461
 30
0.0
 11
72.0999027904
 21
151.7286169461
 31
0.0
  0
LINE
  5
FC
100
AcDbEntity
  8
TA900_ISI_B_DN15
  6
CONTINUOUS
 62
         7
100
AcDbLine
 10
83.2499027904
 20
126.4786169461
 30
0.0
 11
83.2499027904
 21
151.9786169461
 31
0.0
  0
LINE
  5
FD
100
AcDbEntity
  8
TA900_ISI_B_DN15
  6
CONTINUOUS
 62
         7
100
AcDbLine
 10
10.2830167472
 20
125.7286169461
 30
0.0
 11
9.5228819646
 21
125.7286169461
 31
0.0
  0
ARC
  5
FE
100
AcDbEntity
  8
TA900_ISI_B_DN15
  6
CONTINUOUS
 62
         7
100
AcDbCircle
 10
40.1488943999
 20
132.4786169461
 30
0.0
 40
30.619163084
100
AcDbArc
 50
167.2645244266
 51
192.7354755734
  0
LINE
  5
FF
100
AcDbEntity
  8
TA900_ISI_B_DN15
  6
CONTINUOUS
 62
         7
100
AcDbLine
 10
73.9999027904
 20
126.7286169461
 30
0.0
 11
73.9999027904
 21
151.7286169461
 31
0.0
  0
LINE
  5
100
100
AcDbEntity
  8
TA900_ISI_B_DN15
  6
CONTINUOUS
 62
         7
100
AcDbLine
 10
17.375796275
 20
139.2286169461
 30
0.0
 11
10.2830167472
 21
139.2286169461
 31
0.0
  0
LINE
  5
101
100
AcDbEntity
  8
TA900_ISI_B_DN15
  6
CONTINUOUS
 62
         7
100
AcDbLine
 10
17.375796275
 20
125.7286169461
 30
0.0
 11
10.2830167472
 21
125.7286169461
 31
0.0
  0
ARC
  5
102
100
AcDbEntity
  8
TA900_ISI_B_DN15
  6
CONTINUOUS
 62
         7
100
AcDbCircle
 10
104.9898869585
 20
145.9786169461
 30
0.0
 40
30.619163084
100
AcDbArc
 50
167.2645244266
 51
192.7354755734
  0
LINE
  5
103
100
AcDbEntity
  8
TA900_ISI_B_DN15
  6
CONTINUOUS
 62
         7
100
AcDbLine
 10
75.1240093058
 20
152.7286169461
 30
0.0
 11
74.3638745396
 21
152.7286169461
 31
0.0
  0
LINE
  5
104
100
AcDbEntity
  8
TA900_ISI_B_DN15
  6
CONTINUOUS
 62
         7
100
AcDbLine
 10
82.2167888336
 20
125.7286169461
 30
0.0
 11
75.1240093058
 21
125.7286169461
 31
0.0
  0
LINE
  5
105
100
AcDbEntity
  8
TA900_ISI_B_DN15
  6
CONTINUOUS
 62
         7
100
AcDbLine
 10
82.2167888336
 20
152.7286169461
 30
0.0
 11
75.1240093058
 21
152.7286169461
 31
0.0
  0
ARC
  5
106
100
AcDbEntity
  8
TA900_ISI_B_DN15
  6
CONTINUOUS
 62
         7
100
AcDbCircle
 10
-12.4900813777
 20
132.4786169461
 30
0.0
 40
30.619163084
100
AcDbArc
 50
347.2645244266
 51
12.7354755734
  0
LINE
  5
107
100
AcDbEntity
  8
TA900_ISI_B_DN15
  6
CONTINUOUS
 62
         7
100
AcDbLine
 10
82.9769236162
 20
125.7286169461
 30
0.0
 11
82.2167888336
 21
125.7286169461
 31
0.0
  0
LINE
  5
108
100
AcDbEntity
  8
TA900_ISI_B_DN15
  6
CONTINUOUS
 62
         7
100
AcDbLine
 10
82.9769236162
 20
152.7286169461
 30
0.0
 11
82.2167888336
 21
152.7286169461
 31
0.0
  0
ARC
  5
109
100
AcDbEntity
  8
TA900_ISI_B_DN15
  6
CONTINUOUS
 62
         7
100
AcDbCircle
 10
52.3509111809
 20
132.4786169461
 30
0.0
 40
30.619163084
100
AcDbArc
 50
347.2645244266
 51
12.7354755734
  0
ARC
  5
10A
100
AcDbEntity
  8
TA900_ISI_B_DN15
  6
CONTINUOUS
 62
         7
100
AcDbCircle
 10
40.1488943999
 20
145.9786169461
 30
0.0
 40
30.619163084
100
AcDbArc
 50
167.2645244266
 51
192.7354755734
  0
ARC
  5
10B
100
AcDbEntity
  8
TA900_ISI_B_DN15
  6
CONTINUOUS
 62
         7
100
AcDbCircle
 10
133.649998968
 20
139.2286169461
 30
0.0
 40
105.1566655148
100
AcDbArc
 50
174.8991773119
 51
185.1008226881
  0
ARC
  5
10C
100
AcDbEntity
  8
TA900_ISI_B_DN15
  6
CONTINUOUS
 62
         7
100
AcDbCircle
 10
46.2499027904
 20
139.2286169461
 30
0.0
 40
19.7
100
AcDbArc
 50
308.5811311463
 51
331.6676431262
  0
LINE
  5
10D
100
AcDbEntity
  8
TA900_ISI_B_DN15
  6
CONTINUOUS
 62
         7
100
AcDbLine
 10
58.5352599281
 20
123.8286169461
 30
0.0
 11
33.9645456527
 21
123.8286169461
 31
0.0
  0
ARC
  5
10E
100
AcDbEntity
  8
TA900_ISI_B_DN15
  6
CONTINUOUS
 62
         7
100
AcDbCircle
 10
46.2499027904
 20
139.2286169461
 30
0.0
 40
21.0
100
AcDbArc
 50
207.9512414886
 51
332.0487585114
  0
LINE
  5
10F
100
AcDbEntity
  8
TA900_ISI_B_DN15
  6
CONTINUOUS
 62
         7
100
AcDbLine
 10
72.0999027904
 20
151.7286169461
 30
0.0
 11
63.5670322668
 21
148.6229060626
 31
0.0
  0
LINE
  5
110
100
AcDbEntity
  8
TA900_ISI_B_DN15
  6
CONTINUOUS
 62
         7
100
AcDbLine
 10
9.5228804661
 20
152.7286169461
 30
0.0
 11
9.2499027904
 21
151.9786169461
 31
0.0
  0
LINE
  5
111
100
AcDbEntity
  8
TA900_ISI_B_DN15
  6
CONTINUOUS
 62
         7
100
AcDbLine
 10
88.7499027904
 20
133.2286169461
 30
0.0
 11
83.2499027904
 21
133.2286169461
 31
0.0
  0
LINE
  5
112
100
AcDbEntity
  8
TA900_ISI_B_DN15
  6
CONTINUOUS
 62
         7
100
AcDbLine
 10
88.7499027904
 20
145.2286169461
 30
0.0
 11
83.2499027904
 21
145.2286169461
 31
0.0
  0
LINE
  5
113
100
AcDbEntity
  8
TA900_ISI_B_DN15
  6
CONTINUOUS
 62
         7
100
AcDbLine
 10
91.7499027904
 20
142.2286169461
 30
0.0
 11
91.7499027904
 21
136.2286169461
 31
0.0
  0
ARC
  5
114
100
AcDbEntity
  8
TA900_ISI_B_DN15
  6
CONTINUOUS
 62
         7
100
AcDbCircle
 10
88.7499027904
 20
142.2286169461
 30
0.0
 40
3.0
100
AcDbArc
 50
0.0
 51
90.0
  0
ARC
  5
115
100
AcDbEntity
  8
TA900_ISI_B_DN15
  6
CONTINUOUS
 62
         7
100
AcDbCircle
 10
88.7499027904
 20
136.2286169461
 30
0.0
 40
3.0
100
AcDbArc
 50
270.0
 51
360.0
  0
LINE
  5
116
100
AcDbEntity
  8
TA900_ISI_B_DN15
  6
CONTINUOUS
 62
         7
100
AcDbLine
 10
82.9769251147
 20
125.7286169461
 30
0.0
 11
83.2499027904
 21
126.4786169461
 31
0.0
  0
LINE
  5
117
100
AcDbEntity
  8
TA900_ISI_B_DN15
  6
CONTINUOUS
 62
         7
100
AcDbLine
 10
63.5674629673
 20
129.8341710674
 30
0.0
 11
72.0999027904
 21
126.7286169461
 31
0.0
  0
LINE
  5
118
100
AcDbEntity
  8
TA900_ISI_B_DN15
  6
CONTINUOUS
 62
         7
100
AcDbLine
 10
9.2499027904
 20
126.4786169461
 30
0.0
 11
9.5228804661
 21
125.7286169461
 31
0.0
  0
ENDBLK
  5
119
100
AcDbEntity
  8
TA900_ISI_B_DN15
  6
CONTINUOUS
 62
         7
100
AcDbBlockEnd
  0
BLOCK
  5
157
100
AcDbEntity
  8
0
 62
         1
 48
0.0
100
AcDbBlockBegin
  2
SE4
 70
         0
 10
0.0
 20
0.0
 30
0.0
  3
SE4
  1

  0
ENDBLK
  5
158
100
AcDbEntity
  8
0
 62
         1
 48
0.0
100
AcDbBlockEnd
  0
BLOCK
  5
11C
100
AcDbEntity
  8
0
 62
         1
 48
0.0
100
AcDbBlockBegin
  2
SE5
 70
         0
 10
0.0
 20
0.0
 30
0.0
  3
SE5
  1

  0
LINE
  5
11D
100
AcDbEntity
  8
TA900_ISI_B_DN15
  6
CONTINUOUS
 62
         7
100
AcDbLine
 10
148.1131437969
 20
147.7286169461
 30
0.0
 11
147.9131437969
 21
147.7286169461
 31
0.0
  0
LINE
  5
11E
100
AcDbEntity
  8
TA900_ISI_B_DN15
  6
CONTINUOUS
 62
         7
100
AcDbLine
 10
155.4131437969
 20
117.5786169461
 30
0.0
 11
157.4131437969
 21
117.5786169461
 31
0.0
  0
LINE
  5
11F
100
AcDbEntity
  8
TA900_ISI_B_DN15
  6
CONTINUOUS
 62
         7
100
AcDbLine
 10
162.6631437969
 20
160.2286169461
 30
0.0
 11
161.7131437969
 21
161.1786169461
 31
0.0
  0
LINE
  5
120
100
AcDbEntity
  8
TA900_ISI_B_DN15
  6
CONTINUOUS
 62
         7
100
AcDbLine
 10
161.7131437969
 20
161.1786169461
 30
0.0
 11
157.4131437969
 21
161.1786169461
 31
0.0
  0
LINE
  5
121
100
AcDbEntity
  8
TA900_ISI_B_DN15
  6
CONTINUOUS
 62
         7
100
AcDbLine
 10
171.5131437969
 20
160.2286169461
 30
0.0
 11
162.6631437969
 21
160.2286169461
 31
0.0
  0
LINE
  5
122
100
AcDbEntity
  8
TA900_ISI_B_DN15
  6
CONTINUOUS
 62
         7
100
AcDbLine
 10
145.4131437969
 20
128.4786169461
 30
0.0
 11
147.9131437969
 21
128.4786169461
 31
0.0
  0
LINE
  5
123
100
AcDbEntity
  8
TA900_ISI_B_DN15
  6
CONTINUOUS
 62
         7
100
AcDbLine
 10
147.9131437969
 20
130.7286169461
 30
0.0
 11
148.1131437969
 21
130.7286169461
 31
0.0
  0
LINE
  5
124
100
AcDbEntity
  8
TA900_ISI_B_DN15
  6
CONTINUOUS
 62
         7
100
AcDbLine
 10
177.0163730187
 20
154.9286169461
 30
0.0
 11
175.9131437969
 21
154.9286169461
 31
0.0
  0
LINE
  5
125
100
AcDbEntity
  8
TA900_ISI_B_DN15
  6
CONTINUOUS
 62
         7
100
AcDbLine
 10
179.9131437969
 20
154.9286169461
 30
0.0
 11
177.0163730187
 21
154.9286169461
 31
0.0
  0
LINE
  5
126
100
AcDbEntity
  8
TA900_ISI_B_DN15
  6
CONTINUOUS
 62
         7
100
AcDbLine
 10
179.9131437969
 20
154.9286169461
 30
0.0
 11
179.9131437969
 21
154.6286169461
 31
0.0
  0
LINE
  5
127
100
AcDbEntity
  8
TA900_ISI_B_DN15
  6
CONTINUOUS
 62
         7
100
AcDbLine
 10
177.0163730187
 20
154.9286169461
 30
0.0
 11
177.0163730187
 21
154.6286169461
 31
0.0
  0
LINE
  5
128
100
AcDbEntity
  8
TA900_ISI_B_DN15
  6
CONTINUOUS
 62
         7
100
AcDbLine
 10
175.9131437969
 20
154.9286169461
 30
0.0
 11
175.9131437969
 21
154.6286169461
 31
0.0
  0
LINE
  5
129
100
AcDbEntity
  8
TA900_ISI_B_DN15
  6
CONTINUOUS
 62
         7
100
AcDbLine
 10
148.1131437969
 20
139.2286169461
 30
0.0
 11
148.1131437969
 21
127.2286169461
 31
0.0
  0
LINE
  5
12A
100
AcDbEntity
  8
TA900_ISI_B_DN15
  6
CONTINUOUS
 62
         7
100
AcDbLine
 10
148.1131437969
 20
151.2286169461
 30
0.0
 11
148.1131437969
 21
139.2286169461
 31
0.0
  0
LINE
  5
12B
100
AcDbEntity
  8
TA900_ISI_B_DN15
  6
CONTINUOUS
 62
         7
100
AcDbLine
 10
148.1131437969
 20
127.2286169461
 30
0.0
 11
155.4131437969
 21
127.2286169461
 31
0.0
  0
LINE
  5
12C
100
AcDbEntity
  8
TA900_ISI_B_DN15
  6
CONTINUOUS
 62
         7
100
AcDbLine
 10
148.1131437969
 20
151.2286169461
 30
0.0
 11
155.4131437969
 21
151.2286169461
 31
0.0
  0
LINE
  5
12D
100
AcDbEntity
  8
TA900_ISI_B_DN15
  6
CONTINUOUS
 62
         7
100
AcDbLine
 10
148.1131437969
 20
139.2286169461
 30
0.0
 11
155.4131437969
 21
139.2286169461
 31
0.0
  0
LINE
  5
12E
100
AcDbEntity
  8
TA900_ISI_B_DN15
  6
CONTINUOUS
 62
         7
100
AcDbLine
 10
171.8614777471
 20
154.6286169461
 30
0.0
 11
171.8614777471
 21
148.8269135228
 31
0.0
  0
LINE
  5
12F
100
AcDbEntity
  8
TA900_ISI_B_DN15
  6
CONTINUOUS
 62
         7
100
AcDbLine
 10
171.5131437969
 20
148.2157998492
 30
0.0
 11
171.5131437969
 21
160.2286169461
 31
0.0
  0
LINE
  5
130
100
AcDbEntity
  8
TA900_ISI_B_DN15
  6
CONTINUOUS
 62
         7
100
AcDbLine
 10
155.4131437969
 20
117.5786169461
 30
0.0
 11
155.4131437969
 21
160.8786169461
 31
0.0
  0
LINE
  5
131
100
AcDbEntity
  8
TA900_ISI_B_DN15
  6
CONTINUOUS
 62
         7
100
AcDbLine
 10
162.6631437969
 20
160.2286169461
 30
0.0
 11
162.6631437969
 21
118.2286169461
 31
0.0
  0
LINE
  5
132
100
AcDbEntity
  8
TA900_ISI_B_DN15
  6
CONTINUOUS
 62
         7
100
AcDbLine
 10
157.4131437969
 20
161.1786169461
 30
0.0
 11
157.4131437969
 21
117.2786169461
 31
0.0
  0
LINE
  5
133
100
AcDbEntity
  8
TA900_ISI_B_DN15
  6
CONTINUOUS
 62
         7
100
AcDbLine
 10
161.7131437969
 20
161.1786169461
 30
0.0
 11
161.7131437969
 21
117.2786169461
 31
0.0
  0
LINE
  5
134
100
AcDbEntity
  8
TA900_ISI_B_DN15
  6
CONTINUOUS
 62
         7
100
AcDbLine
 10
189.707372431
 20
152.7286169461
 30
0.0
 11
174.1189151628
 21
152.7286169461
 31
0.0
  0
LINE
  5
135
100
AcDbEntity
  8
TA900_ISI_B_DN15
  6
CONTINUOUS
 62
         7
100
AcDbLine
 10
171.8614777471
 20
154.6286169461
 30
0.0
 11
182.9131437969
 21
154.6286169461
 31
0.0
  0
LINE
  5
136
100
AcDbEntity
  8
TA900_ISI_B_DN15
  6
CONTINUOUS
 62
         7
100
AcDbLine
 10
171.8614777471
 20
123.8286169461
 30
0.0
 11
182.9131437969
 21
123.8286169461
 31
0.0
  0
ARC
  5
137
100
AcDbEntity
  8
TA900_ISI_B_DN15
  6
CONTINUOUS
 62
         7
100
AcDbCircle
 10
182.9131437969
 20
139.2286169461
 30
0.0
 40
15.4
100
AcDbArc
 50
270.0
 51
90.0
  0
CIRCLE
  5
138
100
AcDbEntity
  8
TA900_ISI_B_DN15
  6
CONTINUOUS
 62
         7
100
AcDbCircle
 10
181.9131437969
 20
139.2286169461
 30
0.0
 40
12.75
  0
LINE
  5
139
100
AcDbEntity
  8
TA900_ISI_B_DN15
  6
CONTINUOUS
 62
         7
100
AcDbLine
 10
174.1189151628
 20
152.7286169461
 30
0.0
 11
166.3246865288
 21
139.2286169461
 31
0.0
  0
LINE
  5
13A
100
AcDbEntity
  8
TA900_ISI_B_DN15
  6
CONTINUOUS
 62
         7
100
AcDbLine
 10
166.3246865288
 20
139.2286169461
 30
0.0
 11
174.1189151628
 21
125.7286169461
 31
0.0
  0
LINE
  5
13B
100
AcDbEntity
  8
TA900_ISI_B_DN15
  6
CONTINUOUS
 62
         7
100
AcDbLine
 10
174.1189151628
 20
125.7286169461
 30
0.0
 11
189.707372431
 21
125.7286169461
 31
0.0
  0
LINE
  5
13C
100
AcDbEntity
  8
TA900_ISI_B_DN15
  6
CONTINUOUS
 62
         7
100
AcDbLine
 10
189.707372431
 20
125.7286169461
 30
0.0
 11
197.501601065
 21
139.2286169461
 31
0.0
  0
LINE
  5
13D
100
AcDbEntity
  8
TA900_ISI_B_DN15
  6
CONTINUOUS
 62
         7
100
AcDbLine
 10
197.501601065
 20
139.2286169461
 30
0.0
 11
189.707372431
 21
152.7286169461
 31
0.0
  0
LINE
  5
13E
100
AcDbEntity
  8
TA900_ISI_B_DN15
  6
CONTINUOUS
 62
         7
100
AcDbLine
 10
171.8614777471
 20
129.6352164278
 30
0.0
 11
171.8614777471
 21
123.8286169461
 31
0.0
  0
LINE
  5
13F
100
AcDbEntity
  8
TA900_ISI_B_DN15
  6
CONTINUOUS
 62
         7
100
AcDbLine
 10
171.5131437969
 20
130.2345194801
 30
0.0
 11
171.5131437969
 21
118.2286169461
 31
0.0
  0
LINE
  5
140
100
AcDbEntity
  8
TA900_ISI_B_DN15
  6
CONTINUOUS
 62
         7
100
AcDbLine
 10
171.5131437969
 20
118.2286169461
 30
0.0
 11
173.0136592745
 21
123.8286169461
 31
0.0
  0
LINE
  5
141
100
AcDbEntity
  8
TA900_ISI_B_DN15
  6
CONTINUOUS
 62
         7
100
AcDbLine
 10
147.9131437969
 20
128.4786169461
 30
0.0
 11
147.9131437969
 21
149.9786169461
 31
0.0
  0
LINE
  5
142
100
AcDbEntity
  8
TA900_ISI_B_DN15
  6
CONTINUOUS
 62
         7
100
AcDbLine
 10
146.4131437969
 20
142.2286169461
 30
0.0
 11
146.4131437969
 21
136.2286169461
 31
0.0
  0
LINE
  5
143
100
AcDbEntity
  8
TA900_ISI_B_DN15
  6
CONTINUOUS
 62
         7
100
AcDbLine
 10
132.9131437969
 20
145.2286169461
 30
0.0
 11
137.0617390365
 21
145.2286169461
 31
0.0
  0
LINE
  5
144
100
AcDbEntity
  8
TA900_ISI_B_DN15
  6
CONTINUOUS
 62
         7
100
AcDbLine
 10
137.0617390365
 20
145.2286169461
 30
0.0
 11
140.9979144943
 21
145.2286169461
 31
0.0
  0
LINE
  5
145
100
AcDbEntity
  8
TA900_ISI_B_DN15
  6
CONTINUOUS
 62
         7
100
AcDbLine
 10
146.4131437969
 20
145.2286169461
 30
0.0
 11
146.4131437969
 21
142.2286169461
 31
0.0
  0
LINE
  5
146
100
AcDbEntity
  8
TA900_ISI_B_DN15
  6
CONTINUOUS
 62
         7
100
AcDbLine
 10
140.9979144943
 20
145.2286169461
 30
0.0
 11
146.4131437969
 21
145.2286169461
 31
0.0
  0
LINE
  5
147
100
AcDbEntity
  8
TA900_ISI_B_DN15
  6
CONTINUOUS
 62
         7
100
AcDbLine
 10
137.0617390365
 20
133.2286169461
 30
0.0
 11
132.9131437969
 21
133.2286169461
 31
0.0
  0
LINE
  5
148
100
AcDbEntity
  8
TA900_ISI_B_DN15
  6
CONTINUOUS
 62
         7
100
AcDbLine
 10
140.9979144943
 20
133.2286169461
 30
0.0
 11
137.0617390365
 21
133.2286169461
 31
0.0
  0
LINE
  5
149
100
AcDbEntity
  8
TA900_ISI_B_DN15
  6
CONTINUOUS
 62
         7
100
AcDbLine
 10
146.4131437969
 20
133.2286169461
 30
0.0
 11
140.9979144943
 21
133.2286169461
 31
0.0
  0
LINE
  5
14A
100
AcDbEntity
  8
TA900_ISI_B_DN15
  6
CONTINUOUS
 62
         7
100
AcDbLine
 10
146.4131437969
 20
136.2286169461
 30
0.0
 11
146.4131437969
 21
133.2286169461
 31
0.0
  0
LINE
  5
14B
100
AcDbEntity
  8
TA900_ISI_B_DN15
  6
CONTINUOUS
 62
         7
100
AcDbLine
 10
173.0136592745
 20
154.6286169461
 30
0.0
 11
171.5131437969
 21
160.2286169461
 31
0.0
  0
LINE
  5
14C
100
AcDbEntity
  8
TA900_ISI_B_DN15
  6
CONTINUOUS
 62
         7
100
AcDbLine
 10
157.4131437969
 20
160.8786169461
 30
0.0
 11
155.4131437969
 21
160.8786169461
 31
0.0
  0
LINE
  5
14D
100
AcDbEntity
  8
TA900_ISI_B_DN15
  6
CONTINUOUS
 62
         7
100
AcDbLine
 10
161.7131437969
 20
117.2786169461
 30
0.0
 11
162.6631437969
 21
118.2286169461
 31
0.0
  0
LINE
  5
14E
100
AcDbEntity
  8
TA900_ISI_B_DN15
  6
CONTINUOUS
 62
         7
100
AcDbLine
 10
157.4131437969
 20
117.2786169461
 30
0.0
 11
161.7131437969
 21
117.2786169461
 31
0.0
  0
LINE
  5
14F
100
AcDbEntity
  8
TA900_ISI_B_DN15
  6
CONTINUOUS
 62
         7
100
AcDbLine
 10
162.6631437969
 20
118.2286169461
 30
0.0
 11
171.5131437969
 21
118.2286169461
 31
0.0
  0
LINE
  5
150
100
AcDbEntity
  8
TA900_ISI_B_DN15
  6
CONTINUOUS
 62
         7
100
AcDbLine
 10
129.9131437969
 20
142.2286169461
 30
0.0
 11
129.9131437969
 21
136.2286169461
 31
0.0
  0
ARC
  5
151
100
AcDbEntity
  8
TA900_ISI_B_DN15
  6
CONTINUOUS
 62
         7
100
AcDbCircle
 10
132.9131437969
 20
142.2286169461
 30
0.0
 40
3.0
100
AcDbArc
 50
90.0
 51
180.0
  0
ARC
  5
152
100
AcDbEntity
  8
TA900_ISI_B_DN15
  6
CONTINUOUS
 62
         7
100
AcDbCircle
 10
132.9131437969
 20
136.2286169461
 30
0.0
 40
3.0
100
AcDbArc
 50
180.0
 51
270.0
  0
ARC
  5
153
100
AcDbEntity
  8
TA900_ISI_B_DN15
  6
CONTINUOUS
 62
         7
100
AcDbCircle
 10
145.4131437969
 20
139.2286169461
 30
0.0
 40
10.75
100
AcDbArc
 50
213.9272315847
 51
270.0
  0
ARC
  5
154
100
AcDbEntity
  8
TA900_ISI_B_DN15
  6
CONTINUOUS
 62
         7
100
AcDbCircle
 10
145.4131437969
 20
139.2286169461
 30
0.0
 40
10.75
100
AcDbArc
 50
90.0
 51
146.0727684153
  0
LINE
  5
155
100
AcDbEntity
  8
TA900_ISI_B_DN15
  6
CONTINUOUS
 62
         7
100
AcDbLine
 10
147.9131437969
 20
149.9786169461
 30
0.0
 11
145.4131437969
 21
149.9786169461
 31
0.0
  0
ENDBLK
  5
156
100
AcDbEntity
  8
TA900_ISI_B_DN15
  6
CONTINUOUS
 62
         7
100
AcDbBlockEnd
  0
BLOCK
  5
1BC
100
AcDbEntity
  8
0
 62
         1
 48
0.0
100
AcDbBlockBegin
  2
SE6
 70
         0
 10
0.0
 20
0.0
 30
0.0
  3
SE6
  1

  0
ENDBLK
  5
1BD
100
AcDbEntity
  8
0
 62
         1
 48
0.0
100
AcDbBlockEnd
  0
BLOCK
  5
159
100
AcDbEntity
  8
0
 62
         1
 48
0.0
100
AcDbBlockBegin
  2
SE7
 70
         0
 10
0.0
 20
0.0
 30
0.0
  3
SE7
  1

  0
LINE
  5
15A
100
AcDbEntity
  8
TA900_ISI_B_DN15
  6
CONTINUOUS
 62
         7
100
AcDbLine
 10
171.5389826127
 20
62.5468647266
 30
0.0
 11
171.5389826127
 21
62.7468647266
 31
0.0
  0
ARC
  5
15B
100
AcDbEntity
  8
TA900_ISI_B_DN15
  6
CONTINUOUS
 62
         7
100
AcDbCircle
 10
121.2120450729
 20
28.4788852002
 30
0.0
 40
24.4977500378
100
AcDbArc
 50
358.2876824364
 51
24.9134488342
  0
LINE
  5
15C
100
AcDbEntity
  8
TA900_ISI_B_DN15
  6
CONTINUOUS
 62
         7
100
AcDbLine
 10
127.0720965695
 20
13.1584074585
 30
0.0
 11
134.1648760973
 21
13.1584074585
 31
0.0
  0
LINE
  5
15D
100
AcDbEntity
  8
TA900_ISI_B_DN15
  6
CONTINUOUS
 62
         7
100
AcDbLine
 10
126.0389826127
 20
15.9968647266
 30
0.0
 11
127.0720965695
 21
13.1584074585
 31
0.0
  0
LINE
  5
15E
100
AcDbEntity
  8
TA900_ISI_B_DN15
  6
CONTINUOUS
 62
         7
100
AcDbLine
 10
141.3889826127
 20
55.2468647266
 30
0.0
 11
141.3889826127
 21
53.2468647266
 31
0.0
  0
LINE
  5
15F
100
AcDbEntity
  8
TA900_ISI_B_DN15
  6
CONTINUOUS
 62
         7
100
AcDbLine
 10
184.0389826127
 20
47.9968647266
 30
0.0
 11
184.9889826127
 21
48.9468647266
 31
0.0
  0
LINE
  5
160
100
AcDbEntity
  8
TA900_ISI_B_DN15
  6
CONTINUOUS
 62
         7
100
AcDbLine
 10
184.9889826127
 20
48.9468647266
 30
0.0
 11
184.9889826127
 21
53.2468647266
 31
0.0
  0
LINE
  5
161
100
AcDbEntity
  8
TA900_ISI_B_DN15
  6
CONTINUOUS
 62
         7
100
AcDbLine
 10
184.0389826127
 20
39.4744259734
 30
0.0
 11
184.0389826127
 21
47.9968647266
 31
0.0
  0
LINE
  5
162
100
AcDbEntity
  8
TA900_ISI_B_DN15
  6
CONTINUOUS
 62
         7
100
AcDbLine
 10
188.8889826127
 20
41.2468647266
 30
0.0
 11
184.0339353597
 21
39.4797720406
 31
0.0
  0
LINE
  5
163
100
AcDbEntity
  8
TA900_ISI_B_DN15
  6
CONTINUOUS
 62
         7
100
AcDbLine
 10
188.8889826127
 20
16.2468647266
 30
0.0
 11
190.7889826127
 21
16.2468647266
 31
0.0
  0
LINE
  5
164
100
AcDbEntity
  8
TA900_ISI_B_DN15
  6
CONTINUOUS
 62
         7
100
AcDbLine
 10
135.2889826127
 20
16.2468647266
 30
0.0
 11
137.1889826127
 21
16.2468647266
 31
0.0
  0
ARC
  5
165
100
AcDbEntity
  8
TA900_ISI_B_DN15
  6
CONTINUOUS
 62
         7
100
AcDbCircle
 10
163.0389826127
 20
27.7468647266
 30
0.0
 40
19.7
100
AcDbArc
 50
308.5811311463
 51
334.3025991176
  0
LINE
  5
166
100
AcDbEntity
  8
TA900_ISI_B_DN15
  6
CONTINUOUS
 62
         7
100
AcDbLine
 10
191.9130891281
 20
44.3353219947
 30
0.0
 11
190.7889826127
 21
41.2468647266
 31
0.0
  0
LINE
  5
167
100
AcDbEntity
  8
TA900_ISI_B_DN15
  6
CONTINUOUS
 62
         7
100
AcDbLine
 10
134.1648760973
 20
13.1584074585
 30
0.0
 11
135.2889826127
 21
16.2468647266
 31
0.0
  0
LINE
  5
168
100
AcDbEntity
  8
TA900_ISI_B_DN15
  6
CONTINUOUS
 62
         7
100
AcDbLine
 10
152.2889826127
 20
64.2468647266
 30
0.0
 11
152.2889826127
 21
62.7468647266
 31
0.0
  0
LINE
  5
169
100
AcDbEntity
  8
TA900_ISI_B_DN15
  6
CONTINUOUS
 62
         7
100
AcDbLine
 10
154.5389826127
 20
62.7468647266
 30
0.0
 11
154.5389826127
 21
62.5468647266
 31
0.0
  0
LINE
  5
16A
100
AcDbEntity
  8
TA900_ISI_B_DN15
  6
CONTINUOUS
 62
         7
100
AcDbLine
 10
180.782478983
 20
19.1973907518
 30
0.0
 11
188.8889826127
 21
16.2468647266
 31
0.0
  0
LINE
  5
16B
100
AcDbEntity
  8
TA900_ISI_B_DN15
  6
CONTINUOUS
 62
         7
100
AcDbLine
 10
190.7889826127
 20
41.2468647266
 30
0.0
 11
188.8889826127
 21
41.2468647266
 31
0.0
  0
LINE
  5
16C
100
AcDbEntity
  8
TA900_ISI_B_DN15
  6
CONTINUOUS
 62
         7
100
AcDbLine
 10
137.1889826127
 20
41.2468647266
 30
0.0
 11
135.2889826127
 21
41.2468647266
 31
0.0
  0
LINE
  5
16D
100
AcDbEntity
  8
TA900_ISI_B_DN15
  6
CONTINUOUS
 62
         7
100
AcDbLine
 10
190.7889826127
 20
16.2468647266
 30
0.0
 11
191.9130891281
 21
13.1584074585
 31
0.0
  0
LINE
  5
16E
100
AcDbEntity
  8
TA900_ISI_B_DN15
  6
CONTINUOUS
 62
         7
100
AcDbLine
 10
135.2889826127
 20
41.2468647266
 30
0.0
 11
134.1648760973
 21
44.3353219947
 31
0.0
  0
SPLINE
  5
16F
100
AcDbEntity
  8
TA900_ISI_B_DN15
  6
CONTINUOUS
 62
         7
100
AcDbSpline
210
0.0
220
0.0
230
1.0
 70
         8
 71
         3
 72
        10
 73
         6
 74
         0
 42
0.0
 43
0.0
 40
0.5013924408539285
 40
0.5013924408539285
 40
0.5013924408539285
 40
0.5013924408539285
 40
0.75
 40
0.75
 40
1.0
 40
1.0
 40
1.0
 40
1.0
 10
184.03898259310211
 20
39.48160905299455
 30
0.0
 10
184.03898027111345
 20
39.481604611781485
 30
0.0
 10
184.02669322752334
 20
39.453179770875494
 30
0.0
 10
183.97881722773684
 20
39.341402498177843
 30
0.0
 10
183.94314139394541
 20
39.257846279976683
 30
0.0
 10
183.89649874578095
 20
39.146864726611369
 30
0.0
  0
LINE
  5
170
100
AcDbEntity
  8
TA900_ISI_B_DN15
  6
CONTINUOUS
 62
         7
100
AcDbLine
 10
171.9587640001
 20
65.2468647266
 30
0.0
 11
171.9587640001
 21
64.2468647266
 31
0.0
  0
LINE
  5
171
100
AcDbEntity
  8
TA900_ISI_B_DN15
  6
CONTINUOUS
 62
         7
100
AcDbLine
 10
154.1192012252
 20
64.2468647266
 30
0.0
 11
154.1192012252
 21
65.2468647266
 31
0.0
  0
ARC
  5
172
100
AcDbEntity
  8
TA900_ISI_B_DN15
  6
CONTINUOUS
 62
         7
100
AcDbCircle
 10
163.0389826127
 20
65.2468647266
 30
0.0
 40
8.9197813875
100
AcDbArc
 50
0.0
 51
180.0
  0
LINE
  5
173
100
AcDbEntity
  8
TA900_ISI_B_DN15
  6
CONTINUOUS
 62
         7
100
AcDbLine
 10
169.967185843
 20
62.5468647266
 30
0.0
 11
156.1107793824
 21
62.5468647266
 31
0.0
  0
LINE
  5
174
100
AcDbEntity
  8
TA900_ISI_B_DN15
  6
CONTINUOUS
 62
         7
100
AcDbLine
 10
176.8953890732
 20
62.5468647266
 30
0.0
 11
169.967185843
 21
62.5468647266
 31
0.0
  0
LINE
  5
175
100
AcDbEntity
  8
TA900_ISI_B_DN15
  6
CONTINUOUS
 62
         7
100
AcDbLine
 10
176.8953890732
 20
62.5468647266
 30
0.0
 11
176.8953890732
 21
55.2468647266
 31
0.0
  0
LINE
  5
176
100
AcDbEntity
  8
TA900_ISI_B_DN15
  6
CONTINUOUS
 62
         7
100
AcDbLine
 10
169.967185843
 20
62.5468647266
 30
0.0
 11
169.967185843
 21
55.2468647266
 31
0.0
  0
LINE
  5
177
100
AcDbEntity
  8
TA900_ISI_B_DN15
  6
CONTINUOUS
 62
         7
100
AcDbLine
 10
156.1107793824
 20
62.5468647266
 30
0.0
 11
156.1107793824
 21
55.2468647266
 31
0.0
  0
LINE
  5
178
100
AcDbEntity
  8
TA900_ISI_B_DN15
  6
CONTINUOUS
 62
         7
100
AcDbLine
 10
156.1107793824
 20
62.5468647266
 30
0.0
 11
149.1825761521
 21
62.5468647266
 31
0.0
  0
LINE
  5
179
100
AcDbEntity
  8
TA900_ISI_B_DN15
  6
CONTINUOUS
 62
         7
100
AcDbLine
 10
149.1825761521
 20
62.5468647266
 30
0.0
 11
149.1825761521
 21
55.2468647266
 31
0.0
  0
LINE
  5
17A
100
AcDbEntity
  8
TA900_ISI_B_DN15
  6
CONTINUOUS
 62
         7
100
AcDbLine
 10
141.3889826127
 20
55.2468647266
 30
0.0
 11
184.6889826127
 21
55.2468647266
 31
0.0
  0
LINE
  5
17B
100
AcDbEntity
  8
TA900_ISI_B_DN15
  6
CONTINUOUS
 62
         7
100
AcDbLine
 10
142.0389826127
 20
47.9968647266
 30
0.0
 11
184.0389826127
 21
47.9968647266
 31
0.0
  0
LINE
  5
17C
100
AcDbEntity
  8
TA900_ISI_B_DN15
  6
CONTINUOUS
 62
         7
100
AcDbLine
 10
141.0889826127
 20
53.2468647266
 30
0.0
 11
184.9889826127
 21
53.2468647266
 31
0.0
  0
LINE
  5
17D
100
AcDbEntity
  8
TA900_ISI_B_DN15
  6
CONTINUOUS
 62
         7
100
AcDbLine
 10
141.0889826127
 20
48.9468647266
 30
0.0
 11
184.9889826127
 21
48.9468647266
 31
0.0
  0
ARC
  5
17E
100
AcDbEntity
  8
TA900_ISI_B_DN15
  6
CONTINUOUS
 62
         7
100
AcDbCircle
 10
204.8666182296
 20
28.4787418983
 30
0.0
 40
24.4984435218
100
AcDbArc
 50
155.0869349484
 51
181.7119337809
  0
ARC
  5
17F
100
AcDbEntity
  8
TA900_ISI_B_DN15
  6
CONTINUOUS
 62
         7
100
AcDbCircle
 10
163.0389826127
 20
104.6670558214
 30
0.0
 40
67.0044221795
100
AcDbArc
 50
259.4349672218
 51
280.5650327782
  0
SPLINE
  5
180
100
AcDbEntity
  8
TA900_ISI_B_DN15
  6
CONTINUOUS
 62
         7
100
AcDbSpline
210
0.0
220
0.0
230
1.0
 70
         8
 71
         3
 72
        14
 73
        10
 74
         0
 42
0.0
 43
0.0
 40
0.5002787482995527
 40
0.5002787482995527
 40
0.5002787482995527
 40
0.5002787482995527
 40
0.625
 40
0.625
 40
0.75
 40
0.75
 40
0.875
 40
0.875
 40
1.0
 40
1.0
 40
1.0
 40
1.0
 10
145.2915348751429
 20
19.195952635635152
 30
0.0
 10
145.29153492691017
 20
19.195954444902121
 30
0.0
 10
145.30177818083132
 20
19.413512725564825
 30
0.0
 10
145.34112816732019
 20
20.247332589663401
 30
0.0
 10
145.37067685202987
 20
20.872861345905733
 30
0.0
 10
145.44443384008201
 20
22.428566253459003
 30
0.0
 10
145.48951496953518
 20
23.377005065575478
 30
0.0
 10
145.5881602492135
 20
25.442995449747912
 30
0.0
 10
145.64276157044998
 20
26.582211635923951
 30
0.0
 10
145.69885586854423
 20
27.746864726611349
 30
0.0
  0
ARC
  5
181
100
AcDbEntity
  8
TA900_ISI_B_DN15
  6
CONTINUOUS
 62
         7
100
AcDbCircle
 10
201.6426235294
 20
40.4382076777
 30
0.0
 40
10.4809989823
100
AcDbArc
 50
158.1716867869
 51
201.8283132131
  0
ARC
  5
182
100
AcDbEntity
  8
TA900_ISI_B_DN15
  6
CONTINUOUS
 62
         7
100
AcDbCircle
 10
231.8472525942
 20
28.7468647266
 30
0.0
 40
40.6876813266
100
AcDbArc
 50
168.9560236633
 51
191.0439763367
  0
ARC
  5
183
100
AcDbEntity
  8
TA900_ISI_B_DN15
  6
CONTINUOUS
 62
         7
100
AcDbCircle
 10
94.2307126312
 20
28.7468647266
 30
0.0
 40
40.6876813266
100
AcDbArc
 50
348.9560236633
 51
11.0439763367
  0
LINE
  5
184
100
AcDbEntity
  8
TA900_ISI_B_DN15
  6
CONTINUOUS
 62
         7
100
AcDbLine
 10
127.0720965695
 20
44.3353219947
 30
0.0
 11
134.1648760973
 21
44.3353219947
 31
0.0
  0
ARC
  5
185
100
AcDbEntity
  8
TA900_ISI_B_DN15
  6
CONTINUOUS
 62
         7
100
AcDbCircle
 10
124.4353416959
 20
17.0555217755
 30
0.0
 40
10.4809989823
100
AcDbArc
 50
338.1716867869
 51
21.8283132131
  0
LINE
  5
186
100
AcDbEntity
  8
TA900_ISI_B_DN15
  6
CONTINUOUS
 62
         7
100
AcDbLine
 10
175.3243397503
 20
38.7985307765
 30
0.0
 11
175.3243397503
 21
27.7468647266
 31
0.0
  0
SPLINE
  5
187
100
AcDbEntity
  8
TA900_ISI_B_DN15
  6
CONTINUOUS
 62
         7
100
AcDbSpline
210
0.0
220
0.0
230
1.0
 70
         8
 71
         3
 72
        10
 73
         6
 74
         0
 42
0.0
 43
0.0
 40
0.0
 40
0.0
 40
0.0
 40
0.0
 40
0.5
 40
0.5
 40
0.5013924408539289
 40
0.5013924408539289
 40
0.5013924408539289
 40
0.5013924408539289
 10
142.18146647957596
 20
39.146864726611369
 30
0.0
 10
142.08820013023487
 20
39.36878275086454
 30
0.0
 10
142.03925589015336
 20
39.480975022390801
 30
0.0
 10
142.03898299162498
 20
39.481608211175498
 30
0.0
 10
142.03898261924945
 20
39.481609077869599
 30
0.0
 10
142.0389826322548
 20
39.48160905299455
 30
0.0
  0
LINE
  5
188
100
AcDbEntity
  8
TA900_ISI_B_DN15
  6
CONTINUOUS
 62
         7
100
AcDbLine
 10
143.4301609268
 20
38.7985307765
 30
0.0
 11
142.1814664796
 21
39.1468647266
 31
0.0
  0
LINE
  5
189
100
AcDbEntity
  8
TA900_ISI_B_DN15
  6
CONTINUOUS
 62
         7
100
AcDbLine
 10
183.8964987458
 20
39.1468647266
 30
0.0
 11
182.6478042986
 21
38.7985307765
 31
0.0
  0
LINE
  5
18A
100
AcDbEntity
  8
TA900_ISI_B_DN15
  6
CONTINUOUS
 62
         7
100
AcDbLine
 10
190.7889826127
 20
41.2468647266
 30
0.0
 11
190.7889826127
 21
16.2468647266
 31
0.0
  0
LINE
  5
18B
100
AcDbEntity
  8
TA900_ISI_B_DN15
  6
CONTINUOUS
 62
         7
100
AcDbLine
 10
200.0389826127
 20
41.4968647266
 30
0.0
 11
200.0389826127
 21
15.9968647266
 31
0.0
  0
LINE
  5
18C
100
AcDbEntity
  8
TA900_ISI_B_DN15
  6
CONTINUOUS
 62
         7
100
AcDbLine
 10
175.3243397503
 20
12.3468647266
 30
0.0
 11
175.3243397503
 21
27.7468647266
 31
0.0
  0
LINE
  5
18D
100
AcDbEntity
  8
TA900_ISI_B_DN15
  6
CONTINUOUS
 62
         7
100
AcDbLine
 10
150.753625475
 20
12.3468647266
 30
0.0
 11
150.753625475
 21
27.7468647266
 31
0.0
  0
LINE
  5
18E
100
AcDbEntity
  8
TA900_ISI_B_DN15
  6
CONTINUOUS
 62
         7
100
AcDbLine
 10
188.8889826127
 20
41.2468647266
 30
0.0
 11
188.8889826127
 21
16.2468647266
 31
0.0
  0
LINE
  5
18F
100
AcDbEntity
  8
TA900_ISI_B_DN15
  6
CONTINUOUS
 62
         7
100
AcDbLine
 10
137.1889826127
 20
41.2468647266
 30
0.0
 11
137.1889826127
 21
16.2468647266
 31
0.0
  0
LINE
  5
190
100
AcDbEntity
  8
TA900_ISI_B_DN15
  6
CONTINUOUS
 62
         7
100
AcDbLine
 10
126.0389826127
 20
41.4968647266
 30
0.0
 11
126.0389826127
 21
15.9968647266
 31
0.0
  0
LINE
  5
191
100
AcDbEntity
  8
TA900_ISI_B_DN15
  6
CONTINUOUS
 62
         7
100
AcDbLine
 10
135.2889826127
 20
41.2468647266
 30
0.0
 11
135.2889826127
 21
16.2468647266
 31
0.0
  0
ARC
  5
192
100
AcDbEntity
  8
TA900_ISI_B_DN15
  6
CONTINUOUS
 62
         7
100
AcDbCircle
 10
189.2763342545
 20
40.4382076777
 30
0.0
 40
10.4809989823
100
AcDbArc
 50
338.1716867869
 51
21.8283132131
  0
ARC
  5
193
100
AcDbEntity
  8
TA900_ISI_B_DN15
  6
CONTINUOUS
 62
         7
100
AcDbCircle
 10
159.071705969
 20
28.7468647266
 30
0.0
 40
40.6876805618
100
AcDbArc
 50
348.956023453
 51
11.043976547
  0
ARC
  5
194
100
AcDbEntity
  8
TA900_ISI_B_DN15
  6
CONTINUOUS
 62
         7
100
AcDbCircle
 10
189.2763342545
 20
17.0555217755
 30
0.0
 40
10.4809989823
100
AcDbArc
 50
338.1716867869
 51
21.8283132131
  0
LINE
  5
195
100
AcDbEntity
  8
TA900_ISI_B_DN15
  6
CONTINUOUS
 62
         7
100
AcDbLine
 10
191.9130891281
 20
44.3353219947
 30
0.0
 11
199.0058686558
 21
44.3353219947
 31
0.0
  0
LINE
  5
196
100
AcDbEntity
  8
TA900_ISI_B_DN15
  6
CONTINUOUS
 62
         7
100
AcDbLine
 10
191.9130891281
 20
13.1584074585
 30
0.0
 11
199.0058686558
 21
13.1584074585
 31
0.0
  0
LINE
  5
197
100
AcDbEntity
  8
TA900_ISI_B_DN15
  6
CONTINUOUS
 62
         7
100
AcDbLine
 10
191.9130891281
 20
20.9526360926
 30
0.0
 11
199.0058686558
 21
20.9526360926
 31
0.0
  0
LINE
  5
198
100
AcDbEntity
  8
TA900_ISI_B_DN15
  6
CONTINUOUS
 62
         7
100
AcDbLine
 10
191.9130891281
 20
36.5410933607
 30
0.0
 11
199.0058686558
 21
36.5410933607
 31
0.0
  0
LINE
  5
199
100
AcDbEntity
  8
TA900_ISI_B_DN15
  6
CONTINUOUS
 62
         7
100
AcDbLine
 10
127.0720965695
 20
36.5410933607
 30
0.0
 11
134.1648760973
 21
36.5410933607
 31
0.0
  0
ARC
  5
19A
100
AcDbEntity
  8
TA900_ISI_B_DN15
  6
CONTINUOUS
 62
         7
100
AcDbCircle
 10
124.4353416959
 20
40.4382076777
 30
0.0
 40
10.4809989823
100
AcDbArc
 50
338.1716867869
 51
21.8283132131
  0
LINE
  5
19B
100
AcDbEntity
  8
TA900_ISI_B_DN15
  6
CONTINUOUS
 62
         7
100
AcDbLine
 10
127.0720965695
 20
20.9526360926
 30
0.0
 11
134.1648760973
 21
20.9526360926
 31
0.0
  0
ARC
  5
19C
100
AcDbEntity
  8
TA900_ISI_B_DN15
  6
CONTINUOUS
 62
         7
100
AcDbCircle
 10
201.6426235294
 20
17.0555217755
 30
0.0
 40
10.4809989823
100
AcDbArc
 50
158.1716867869
 51
201.8283132131
  0
ARC
  5
19D
100
AcDbEntity
  8
TA900_ISI_B_DN15
  6
CONTINUOUS
 62
         7
100
AcDbCircle
 10
136.8016309708
 20
17.0555217755
 30
0.0
 40
10.4809989823
100
AcDbArc
 50
158.1716867869
 51
201.8283132131
  0
ARC
  5
19E
100
AcDbEntity
  8
TA900_ISI_B_DN15
  6
CONTINUOUS
 62
         7
100
AcDbCircle
 10
167.0062592563
 20
28.7468647266
 30
0.0
 40
40.6876805618
100
AcDbArc
 50
168.956023453
 51
191.043976547
  0
ARC
  5
19F
100
AcDbEntity
  8
TA900_ISI_B_DN15
  6
CONTINUOUS
 62
         7
100
AcDbCircle
 10
136.8016309708
 20
40.4382076777
 30
0.0
 40
10.4809989823
100
AcDbArc
 50
158.1716867869
 51
201.8283132131
  0
LINE
  5
1A0
100
AcDbEntity
  8
TA900_ISI_B_DN15
  6
CONTINUOUS
 62
         7
100
AcDbLine
 10
150.753625475
 20
38.7985307765
 30
0.0
 11
150.753625475
 21
27.7468647266
 31
0.0
  0
SPLINE
  5
1A1
100
AcDbEntity
  8
TA900_ISI_B_DN15
  6
CONTINUOUS
 62
         7
100
AcDbSpline
210
0.0
220
0.0
230
1.0
 70
         8
 71
         3
 72
        16
 73
        12
 74
         0
 42
0.0
 43
0.0
 40
0.0
 40
0.0
 40
0.0
 40
0.0
 40
0.1250000000000001
 40
0.1250000000000001
 40
0.2500000000000003
 40
0.2500000000000003
 40
0.3750000000000003
 40
0.3750000000000003
 40
0.5000000000000003
 40
0.5000000000000003
 40
0.5002726043623577
 40
0.5002726043623577
 40
0.5002726043623577
 40
0.5002726043623577
 10
180.37910935681271
 20
27.746864726611349
 30
0.0
 10
180.43520334612006
 20
26.582218047085302
 30
0.0
 10
180.48818426502956
 20
25.476883160609635
 30
0.0
 10
180.58811552482709
 20
23.384070331025697
 30
0.0
 10
180.63243163128914
 20
22.45173660169209
 30
0.0
 10
180.70716937867329
 20
20.875396795492023
 30
0.0
 10
180.73635440498666
 20
20.257553496297305
 30
0.0
 10
180.77614659207751
 20
19.414376249000057
 30
0.0
 10
180.78638435592757
 20
19.196928801969193
 30
0.0
 10
180.78643029702653
 20
19.195953762082912
 30
0.0
 10
180.78643034805447
 20
19.195952679846197
 30
0.0
 10
180.78643035014713
 20
19.195952636951596
 30
0.0
  0
LINE
  5
1A2
100
AcDbEntity
  8
TA900_ISI_B_DN15
  6
CONTINUOUS
 62
         7
100
AcDbLine
 10
150.753625475
 20
38.7985307765
 30
0.0
 11
143.4301609268
 21
38.7985307765
 31
0.0
  0
LINE
  5
1A3
100
AcDbEntity
  8
TA900_ISI_B_DN15
  6
CONTINUOUS
 62
         7
100
AcDbLine
 10
182.6478042986
 20
38.7985307765
 30
0.0
 11
175.3243397503
 21
38.7985307765
 31
0.0
  0
LINE
  5
1A4
100
AcDbEntity
  8
TA900_ISI_B_DN15
  6
CONTINUOUS
 62
         7
100
AcDbLine
 10
142.1814664796
 20
39.1468647266
 30
0.0
 11
183.8964987458
 21
39.1468647266
 31
0.0
  0
LINE
  5
1A5
100
AcDbEntity
  8
TA900_ISI_B_DN15
  6
CONTINUOUS
 62
         7
100
AcDbLine
 10
137.1889826127
 20
16.2468647266
 30
0.0
 11
145.2954862423
 21
19.1973907518
 31
0.0
  0
LINE
  5
1A6
100
AcDbEntity
  8
TA900_ISI_B_DN15
  6
CONTINUOUS
 62
         7
100
AcDbLine
 10
199.0058686558
 20
13.1584074585
 30
0.0
 11
200.0389826127
 21
15.9968647266
 31
0.0
  0
ARC
  5
1A7
100
AcDbEntity
  8
TA900_ISI_B_DN15
  6
CONTINUOUS
 62
         7
100
AcDbCircle
 10
163.0389826127
 20
27.7468647266
 30
0.0
 40
19.7
100
AcDbArc
 50
205.6973955122
 51
231.4188688537
  0
LINE
  5
1A8
100
AcDbEntity
  8
TA900_ISI_B_DN15
  6
CONTINUOUS
 62
         7
100
AcDbLine
 10
152.2889826127
 20
62.7468647266
 30
0.0
 11
173.7889826127
 21
62.7468647266
 31
0.0
  0
LINE
  5
1A9
100
AcDbEntity
  8
TA900_ISI_B_DN15
  6
CONTINUOUS
 62
         7
100
AcDbLine
 10
120.5389826127
 20
64.2468647266
 30
0.0
 11
154.1192012252
 21
64.2468647266
 31
0.0
  0
ARC
  5
1AA
100
AcDbEntity
  8
TA900_ISI_B_DN15
  6
CONTINUOUS
 62
         7
100
AcDbCircle
 10
126.5389826127
 20
71.6062385605
 30
0.0
 40
9.0
100
AcDbArc
 50
91.9066627389
 51
180.0
  0
LINE
  5
1AB
100
AcDbEntity
  8
TA900_ISI_B_DN15
  6
CONTINUOUS
 62
         7
100
AcDbLine
 10
187.5389826127
 20
64.2468647266
 30
0.0
 11
184.5389826127
 21
64.2468647266
 31
0.0
  0
LINE
  5
1AC
100
AcDbEntity
  8
TA900_ISI_B_DN15
  6
CONTINUOUS
 62
         7
100
AcDbLine
 10
187.5389826127
 20
69.6620940292
 30
0.0
 11
187.5389826127
 21
64.2468647266
 31
0.0
  0
LINE
  5
1AD
100
AcDbEntity
  8
TA900_ISI_B_DN15
  6
CONTINUOUS
 62
         7
100
AcDbLine
 10
117.5389826127
 20
64.2468647266
 30
0.0
 11
117.5389826127
 21
71.6062385605
 31
0.0
  0
LINE
  5
1AE
100
AcDbEntity
  8
TA900_ISI_B_DN15
  6
CONTINUOUS
 62
         7
100
AcDbLine
 10
120.5389826127
 20
64.2468647266
 30
0.0
 11
117.5389826127
 21
64.2468647266
 31
0.0
  0
ARC
  5
1AF
100
AcDbEntity
  8
TA900_ISI_B_DN15
  6
CONTINUOUS
 62
         7
100
AcDbCircle
 10
134.9899184572
 20
-182.2531352734
 30
0.0
 40
263.0
100
AcDbArc
 50
79.7510197288
 51
91.9066627389
  0
ARC
  5
1B0
100
AcDbEntity
  8
TA900_ISI_B_DN15
  6
CONTINUOUS
 62
         7
100
AcDbCircle
 10
180.5389826127
 20
69.6620940292
 30
0.0
 40
7.0
100
AcDbArc
 50
0.0
 51
79.7510197288
  0
LINE
  5
1B1
100
AcDbEntity
  8
TA900_ISI_B_DN15
  6
CONTINUOUS
 62
         7
100
AcDbLine
 10
127.0720965695
 20
44.3353219947
 30
0.0
 11
126.0389826127
 21
41.4968647266
 31
0.0
  0
LINE
  5
1B2
100
AcDbEntity
  8
TA900_ISI_B_DN15
  6
CONTINUOUS
 62
         7
100
AcDbLine
 10
171.9587640001
 20
64.2468647266
 30
0.0
 11
184.5389826127
 21
64.2468647266
 31
0.0
  0
LINE
  5
1B3
100
AcDbEntity
  8
TA900_ISI_B_DN15
  6
CONTINUOUS
 62
         7
100
AcDbLine
 10
184.6889826127
 20
53.2468647266
 30
0.0
 11
184.6889826127
 21
55.2468647266
 31
0.0
  0
LINE
  5
1B4
100
AcDbEntity
  8
TA900_ISI_B_DN15
  6
CONTINUOUS
 62
         7
100
AcDbLine
 10
141.0889826127
 20
48.9468647266
 30
0.0
 11
142.0389826127
 21
47.9968647266
 31
0.0
  0
LINE
  5
1B5
100
AcDbEntity
  8
TA900_ISI_B_DN15
  6
CONTINUOUS
 62
         7
100
AcDbLine
 10
141.0889826127
 20
53.2468647266
 30
0.0
 11
141.0889826127
 21
48.9468647266
 31
0.0
  0
LINE
  5
1B6
100
AcDbEntity
  8
TA900_ISI_B_DN15
  6
CONTINUOUS
 62
         7
100
AcDbLine
 10
150.753625475
 20
12.3468647266
 30
0.0
 11
175.3243397503
 21
12.3468647266
 31
0.0
  0
LINE
  5
1B7
100
AcDbEntity
  8
TA900_ISI_B_DN15
  6
CONTINUOUS
 62
         7
100
AcDbLine
 10
142.0389826127
 20
47.9968647266
 30
0.0
 11
142.0389826127
 21
39.4744259734
 31
0.0
  0
LINE
  5
1B8
100
AcDbEntity
  8
TA900_ISI_B_DN15
  6
CONTINUOUS
 62
         7
100
AcDbLine
 10
142.0440298657
 20
39.4797720406
 30
0.0
 11
137.1889826127
 21
41.2468647266
 31
0.0
  0
LINE
  5
1B9
100
AcDbEntity
  8
TA900_ISI_B_DN15
  6
CONTINUOUS
 62
         7
100
AcDbLine
 10
200.0389826127
 20
41.4968647266
 30
0.0
 11
199.0058686558
 21
44.3353219947
 31
0.0
  0
LINE
  5
1BA
100
AcDbEntity
  8
TA900_ISI_B_DN15
  6
CONTINUOUS
 62
         7
100
AcDbLine
 10
173.7889826127
 20
62.7468647266
 30
0.0
 11
173.7889826127
 21
64.2468647266
 31
0.0
  0
ENDBLK
  5
1BB
100
AcDbEntity
  8
TA900_ISI_B_DN15
  6
CONTINUOUS
 62
         7
100
AcDbBlockEnd
  0
ENDSEC
  0
SECTION
  2
ENTITIES
  0
INSERT
  5
3A
102
{ACAD_XDICTIONARY
360
3B
102
}
100
AcDbEntity
  8
0
 62
         0
 48
0.0
100
AcDbBlockReference
  2
SE1
 10
0.0
 20
0.0
 30
0.0
  0
INSERT
  5
3E
100
AcDbEntity
  8
0
 62
         0
 48
0.0
100
AcDbBlockReference
  2
SE0
 10
0.0
 20
0.0
 30
0.0
  0
INSERT
  5
41
102
{ACAD_XDICTIONARY
360
42
102
}
100
AcDbEntity
  8
0
 62
         0
 48
0.0
100
AcDbBlockReference
  2
SE3
 10
0.0
 20
0.0
 30
0.0
  0
INSERT
  5
45
100
AcDbEntity
  8
0
 62
         0
 48
0.0
100
AcDbBlockReference
  2
SE2
 10
0.0
 20
0.0
 30
0.0
  0
INSERT
  5
48
102
{ACAD_XDICTIONARY
360
49
102
}
100
AcDbEntity
  8
0
 62
         0
 48
0.0
100
AcDbBlockReference
  2
SE5
 10
0.0
 20
0.0
 30
0.0
  0
INSERT
  5
4C
100
AcDbEntity
  8
0
 62
         0
 48
0.0
100
AcDbBlockReference
  2
SE4
 10
0.0
 20
0.0
 30
0.0
  0
INSERT
  5
4F
102
{ACAD_XDICTIONARY
360
50
102
}
100
AcDbEntity
  8
0
 62
         0
 48
0.0
100
AcDbBlockReference
  2
SE7
 10
0.0
 20
0.0
 30
0.0
  0
INSERT
  5
53
100
AcDbEntity
  8
0
 62
         0
 48
0.0
100
AcDbBlockReference
  2
SE6
 10
0.0
 20
0.0
 30
0.0
  0
ENDSEC
  0
SECTION
  2
OBJECTS
  0
DICTIONARY
  5
19
100
AcDbDictionary
  3
ACAD_GROUP
350
1A
  3
ACAD_MLINESTYLE
350
1B
  3
ACDBVARIABLEDICTIONARY
350
1BE
  0
DICTIONARY
  5
1A
102
{ACAD_REACTORS
330
19
102
}
100
AcDbDictionary
  0
DICTIONARY
  5
1B
102
{ACAD_REACTORS
330
19
102
}
100
AcDbDictionary
  3
STANDARD
350
1C
  0
MLINESTYLE
  5
1C
102
{ACAD_REACTORS
330
1B
102
}
100
AcDbMlineStyle
  2
Standard
 70
         0
  3

 62
         0
 51
90.0
 52
90.0
 71
         2
 49
0.5
 62
       256
  6
ByLayer
 49
-0.5
 62
       256
  6
ByLayer
  0
DICTIONARY
  5
22
102
{ACAD_REACTORS
330
19
102
}
100
AcDbDictionary
  0
DICTIONARY
  5
3B
100
AcDbDictionary
  3
ACAD_FILTER
350
3C
  0
DICTIONARY
  5
3C
100
AcDbDictionary
  3
SPATIAL
350
3D
  0
SPATIAL_FILTER
  5
3D
100
AcDbFilter
100
AcDbSpatialFilter
 70
         2
 10
2.8999027904
 20
5.9968647266
 10
98.0999027904
 20
87.0968647266
210
0.0
220
0.0
230
1.0
 11
0.0
 21
0.0
 31
0.0
 71
         1
 72
         0
 73
         0
 40
1.0
 40
0.0
 40
0.0
 40
0.0
 40
0.0
 40
1.0
 40
0.0
 40
0.0
 40
0.0
 40
0.0
 40
1.0
 40
0.0
 40
1.0
 40
0.0
 40
0.0
 40
0.0
 40
0.0
 40
1.0
 40
0.0
 40
0.0
 40
0.0
 40
0.0
 40
1.0
 40
0.0
  0
DICTIONARY
  5
42
100
AcDbDictionary
  3
ACAD_FILTER
350
43
  0
DICTIONARY
  5
43
100
AcDbDictionary
  3
SPATIAL
350
44
  0
SPATIAL_FILTER
  5
44
100
AcDbFilter
100
AcDbSpatialFilter
 70
         2
 10
2.8999027904
 20
110.9286169461
 10
98.0999027904
 20
167.5286169461
210
0.0
220
0.0
230
1.0
 11
0.0
 21
0.0
 31
0.0
 71
         1
 72
         0
 73
         0
 40
1.0
 40
0.0
 40
0.0
 40
0.0
 40
0.0
 40
1.0
 40
0.0
 40
0.0
 40
0.0
 40
0.0
 40
1.0
 40
0.0
 40
1.0
 40
0.0
 40
0.0
 40
0.0
 40
0.0
 40
1.0
 40
0.0
 40
0.0
 40
0.0
 40
0.0
 40
1.0
 40
0.0
  0
DICTIONARY
  5
49
100
AcDbDictionary
  3
ACAD_FILTER
350
4A
  0
DICTIONARY
  5
4A
100
AcDbDictionary
  3
SPATIAL
350
4B
  0
SPATIAL_FILTER
  5
4B
100
AcDbFilter
100
AcDbSpatialFilter
 70
         2
 10
123.5631437969
 20
110.9286169461
 10
204.6631437969
 20
167.5286169461
210
0.0
220
0.0
230
1.0
 11
0.0
 21
0.0
 31
0.0
 71
         1
 72
         0
 73
         0
 40
1.0
 40
0.0
 40
0.0
 40
0.0
 40
0.0
 40
1.0
 40
0.0
 40
0.0
 40
0.0
 40
0.0
 40
1.0
 40
0.0
 40
1.0
 40
0.0
 40
0.0
 40
0.0
 40
0.0
 40
1.0
 40
0.0
 40
0.0
 40
0.0
 40
0.0
 40
1.0
 40
0.0
  0
DICTIONARY
  5
50
100
AcDbDictionary
  3
ACAD_FILTER
350
51
  0
DICTIONARY
  5
51
100
AcDbDictionary
  3
SPATIAL
350
52
  0
SPATIAL_FILTER
  5
52
100
AcDbFilter
100
AcDbSpatialFilter
 70
         2
 10
111.1889826127
 20
5.9968647266
 10
206.3889826127
 20
87.0968647266
210
0.0
220
0.0
230
1.0
 11
0.0
 21
0.0
 31
0.0
 71
         1
 72
         0
 73
         0
 40
1.0
 40
0.0
 40
0.0
 40
0.0
 40
0.0
 40
1.0
 40
0.0
 40
0.0
 40
0.0
 40
0.0
 40
1.0
 40
0.0
 40
1.0
 40
0.0
 40
0.0
 40
0.0
 40
0.0
 40
1.0
 40
0.0
 40
0.0
 40
0.0
 40
0.0
 40
1.0
 40
0.0
  0
DICTIONARY
  5
1BE
100
AcDbDictionary
  3
DIMASSOC
350
1BF
  0
DICTIONARYVAR
  5
1BF
100
DictionaryVariables
280
         0
  1
2
  0
ENDSEC
  0
EOF
