  0
SECTION
  2
HEADER
  9
$ACADVER
  1
AC1014
  9
$ACADMAINTVER
 70
         0
  9
$DWGCODEPAGE
  3
ANSI_1252
  9
$INSBASE
 10
0.0
 20
0.0
 30
0.0
  9
$EXTMIN
 10
0.0
 20
0.0
 30
0.0
  9
$EXTMAX
 10
420.0
 20
297.0
 30
0.0
  9
$LIMMIN
 10
0.0
 20
0.0
  9
$LIMMAX
 10
420.0
 20
297.0
  9
$ORTHOMODE
 70
         0
  9
$REGENMODE
 70
         1
  9
$FILLMODE
 70
         1
  9
$QTEXTMODE
 70
         0
  9
$MIRRTEXT
 70
         1
  9
$DRAGMODE
 70
         2
  9
$LTSCALE
 40
25.4
  9
$OSMODE
 70
         0
  9
$ATTMODE
 70
         1
  9
$TEXTSIZE
 40
0.2
  9
$TRACEWID
 40
0.05
  9
$TEXTSTYLE
  7
Standard
  9
$CLAYER
  8
0
  9
$CELTYPE
  6
CONTINUOUS
  9
$CECOLOR
 62
       256
  9
$CELTSCALE
 40
1.0
  9
$DELOBJ
 70
         1
  9
$DISPSILH
 70
         0
  9
$DIMSCALE
 40
1.0
  9
$DIMASZ
 40
0.18
  9
$DIMEXO
 40
0.0625
  9
$DIMDLI
 40
0.38
  9
$DIMRND
 40
0.0
  9
$DIMDLE
 40
0.0
  9
$DIMEXE
 40
0.18
  9
$DIMTP
 40
0.0
  9
$DIMTM
 40
0.0
  9
$DIMTXT
 40
0.18
  9
$DIMCEN
 40
0.09
  9
$DIMTSZ
 40
0.0
  9
$DIMTOL
 70
         0
  9
$DIMLIM
 70
         0
  9
$DIMTIH
 70
         1
  9
$DIMTOH
 70
         1
  9
$DIMSE1
 70
         0
  9
$DIMSE2
 70
         0
  9
$DIMTAD
 70
         0
  9
$DIMZIN
 70
         0
  9
$DIMBLK
  1

  9
$DIMASO
 70
         1
  9
$DIMSHO
 70
         1
  9
$DIMPOST
  1

  9
$DIMAPOST
  1

  9
$DIMALT
 70
         0
  9
$DIMALTD
 70
         2
  9
$DIMALTF
 40
25.4
  9
$DIMLFAC
 40
1.0
  9
$DIMTOFL
 70
         0
  9
$DIMTVP
 40
0.0
  9
$DIMTIX
 70
         0
  9
$DIMSOXD
 70
         0
  9
$DIMSAH
 70
         0
  9
$DIMBLK1
  1

  9
$DIMBLK2
  1

  9
$DIMSTYLE
  2
Standard
  9
$DIMCLRD
 70
         0
  9
$DIMCLRE
 70
         0
  9
$DIMCLRT
 70
         0
  9
$DIMTFAC
 40
1.0
  9
$DIMGAP
 40
0.09
  9
$DIMJUST
 70
         0
  9
$DIMSD1
 70
         0
  9
$DIMSD2
 70
         0
  9
$DIMTOLJ
 70
         1
  9
$DIMTZIN
 70
         0
  9
$DIMALTZ
 70
         0
  9
$DIMALTTZ
 70
         0
  9
$DIMFIT
 70
         3
  9
$DIMUPT
 70
         0
  9
$DIMUNIT
 70
         2
  9
$DIMDEC
 70
         4
  9
$DIMTDEC
 70
         4
  9
$DIMALTU
 70
         2
  9
$DIMALTTD
 70
         2
  9
$DIMTXSTY
  7
Standard
  9
$DIMAUNIT
 70
         0
  9
$LUNITS
 70
         2
  9
$LUPREC
 70
         4
  9
$SKETCHINC
 40
0.1
  9
$FILLETRAD
 40
0.0
  9
$AUNITS
 70
         0
  9
$AUPREC
 70
         0
  9
$MENU
  1
acad
  9
$ELEVATION
 40
0.0
  9
$PELEVATION
 40
0.0
  9
$THICKNESS
 40
0.0
  9
$LIMCHECK
 70
         0
  9
$BLIPMODE
 70
         1
  9
$CHAMFERA
 40
0.0
  9
$CHAMFERB
 40
0.0
  9
$CHAMFERC
 40
0.0
  9
$CHAMFERD
 40
0.0
  9
$SKPOLY
 70
         0
  9
$TDCREATE
 40
0.000000000
  9
$TDUPDATE
 40
0.000000000
  9
$TDINDWG
 40
0.0000000000
  9
$TDUSRTIMER
 40
0.0000000000
  9
$USRTIMER
 70
         1
  9
$ANGBASE
 50
0.0
  9
$ANGDIR
 70
         0
  9
$PDMODE
 70
         0
  9
$PDSIZE
 40
0.0
  9
$PLINEWID
 40
0.0
  9
$COORDS
 70
         0
  9
$SPLFRAME
 70
         0
  9
$SPLINETYPE
 70
         6
  9
$SPLINESEGS
 70
         8
  9
$ATTDIA
 70
         0
  9
$ATTREQ
 70
         1
  9
$HANDLING
 70
         1
  9
$HANDSEED
  5
1BA
  9
$SURFTAB1
 70
         6
  9
$SURFTAB2
 70
         6
  9
$SURFTYPE
 70
         6
  9
$SURFU
 70
         6
  9
$SURFV
 70
         6
  9
$UCSNAME
  2

  9
$UCSORG
 10
0.0
 20
0.0
 30
0.0
  9
$UCSXDIR
 10
1.0
 20
0.0
 30
0.0
  9
$UCSYDIR
 10
0.0
 20
1.0
 30
0.0
  9
$PUCSNAME
  2

  9
$PUCSORG
 10
0.0
 20
0.0
 30
0.0
  9
$PUCSXDIR
 10
1.0
 20
0.0
 30
0.0
  9
$PUCSYDIR
 10
0.0
 20
1.0
 30
0.0
  9
$USERI1
 70
         0
  9
$USERI2
 70
         0
  9
$USERI3
 70
         0
  9
$USERI4
 70
         0
  9
$USERI5
 70
         0
  9
$USERR1
 40
0.0
  9
$USERR2
 40
0.0
  9
$USERR3
 40
0.0
  9
$USERR4
 40
0.0
  9
$USERR5
 40
0.0
  9
$WORLDVIEW
 70
         1
  9
$SHADEDGE
 70
         3
  9
$SHADEDIF
 70
        70
  9
$TILEMODE
 70
         1
  9
$MAXACTVP
 70
        16
  9
$PINSBASE
 10
0.0
 20
0.0
 30
0.0
  9
$PLIMCHECK
 70
         0
  9
$PEXTMIN
 10
1.0000000000E+20
 20
1.0000000000E+20
 30
1.0000000000E+20
  9
$PEXTMAX
 10
-1.0000000000E+20
 20
-1.0000000000E+20
 30
-1.0000000000E+20
  9
$PLIMMIN
 10
0.0
 20
0.0
  9
$PLIMMAX
 10
12.0
 20
9.0
  9
$UNITMODE
 70
         0
  9
$VISRETAIN
 70
         0
  9
$PLINEGEN
 70
         1
  9
$PSLTSCALE
 70
         0
  9
$TREEDEPTH
 70
      3020
  9
$PICKSTYLE
 70
         1
  9
$CMLSTYLE
  2
Standard
  9
$CMLJUST
 70
         0
  9
$CMLSCALE
 40
1.0
  9
$PROXYGRAPHICS
 70
         0
  9
$MEASUREMENT
 70
         0
  0
ENDSEC
  0
SECTION
  2
CLASSES
  0
CLASS
  1
LWPOLYLINE
  2
AcDbPolyline
  3
"AutoCAD"
 90
        0
280
         0
281
         1
  0
CLASS
  1
IMAGE
  2
AcDbRasterImage
  3
ISM
 90
      127
280
         0
281
         1
  0
CLASS
  1
OLE2FRAME
  2
AcDbOle2Frame
  3
""
 90
        0
280
         0
281
         1
  0
CLASS
  1
HATCH
  2
AcDbHatch
  3
"ACAD_SEDONA"
 90
        0
280
         0
281
         1
  0
CLASS
  1
DICTIONARYVAR
  2
AcDbDictionaryVar
  3
"AutoCAD"
 90
        0
280
         0
281
         0
  0
CLASS
  1
RASTERVARIABLES
  2
AcDbRasterVariables
  3
ISM
 90
        0
280
         0
281
         0
  0
CLASS
  1
IMAGEDEF
  2
AcDbRasterImageDef
  3
ISM
 90
        0
280
         0
281
         0
  0
CLASS
  1
IMAGEDEF_REACTOR
  2
AcDbRasterImageDefReactor
  3
ISM
 90
        1
280
         0
281
         0
  0
CLASS
  1
IDBUFFER
  2
AcDbIdBuffer
  3
"Acad"
 90
        0
280
         0
281
         0
  0
CLASS
  1
SPATIAL_FILTER
  2
AcDbSpatialFilter
  3
"Acad"
 90
        0
280
         0
281
         0
  0
CLASS
  1
XRECORD
  2
AcDbXrecord
  3
"<Built In>"
 90
        0
280
         0
281
         0
  0
CLASS
  1
SORTENTSTABLE
  2
AcDbSortentsTable
  3
"AutoCAD"
 90
        0
280
         0
281
         0
  0
CLASS
  1
LAYER_INDEX
  2
AcDbLayerIndex
  3
"Acad"
 90
        0
280
         0
281
         0
  0
CLASS
  1
SPATIAL_INDEX
  2
AcDbSpatialIndex
  3
"Acad"
 90
        0
280
         0
281
         0
  0
CLASS
  1
OBJECT_PTR
  2
CAseDLPNTableRecord
  3
"ASE-LPNTableRecord"
 90
        1
280
         0
281
         0
  0
CLASS
  1
LAYOUT
  2
AcDbLayout
  3
"AutoCAD 2000"
 90
        1
280
         0
281
         0
  0
CLASS
  1
PLOTSETTINGS
  2
AcDbPlotSettings
  3
"AutoCAD 2000"
 90
        1
280
         0
281
         0
  0
CLASS
  1
ACDBDICTIONARYWDFLT
  2
AcDbDictionaryWithDefault
  3
"AutoCAD 2000"
 90
        1
280
         0
281
         0
  0
CLASS
  1
ACDBPLACEHOLDER
  2
AcDbPlaceHolder
  3
"AutoCAD 2000"
 90
        1
280
         0
281
         0
  0
CLASS
  1
VBA_PROJECT
  2
AcDbVbaProject
  3
"acadvba"
 90
        1
280
         0
281
         0
  0
CLASS
  1
WIPEOUT
  2
AcDbWipeout
  3
WipeOut|AutoCAD Express Tool|expresstools@autodesk.com
 90
      127
280
         0
281
         1
  0
CLASS
  1
WIPEOUTVARIABLES
  2
AcDbWipeoutVariables
  3
WipeOut|AutoCAD Express Tool|expresstools@autodesk.com
 90
        0
280
         0
281
         0
  0
CLASS
  1
RTEXT
  2
RText
  3
RText|AutoCAD Express Tool|expresstools@autodesk.com
 90
        0
280
         0
281
         1
  0
CLASS
  1
ARCALIGNEDTEXT
  2
AcDbArcAlignedText
  3
ATEXT|AutoCAD Express Tool|expresstools@autodesk.com
 90
        0
280
         0
281
         1
  0
ENDSEC
  0
SECTION
  2
TABLES
  0
TABLE
  2
VPORT
  5
7
100
AcDbSymbolTable
 70
         1
  0
VPORT
  5
15
100
AcDbSymbolTableRecord
100
AcDbViewportTableRecord
  2
*ACTIVE
 70
         0
 10
0.0
 20
0.0
 11
1.0
 21
1.0
 12
210.0
 22
148.5
 13
0.0
 23
0.0
 14
1.0
 24
1.0
 15
0.0
 25
0.0
 16
0.0
 26
0.0
 36
1.0
 17
0.0
 27
0.0
 37
0.0
 40
297.0
 41
1.604229
 42
50.0
 43
0.0
 44
0.0
 50
0.0
 51
0.0
 71
         0
 72
       100
 73
         1
 74
         1
 75
         0
 76
         0
 77
         0
 78
         0
  0
ENDTAB
  0
TABLE
  2
LTYPE
  5
4
100
AcDbSymbolTable
 70
         7
  0
LTYPE
  5
11
100
AcDbSymbolTableRecord
100
AcDbLinetypeTableRecord
  2
ByBlock
 70
        64
  3

 72
        65
 73
         0
 40
0.0
  0
LTYPE
  5
12
100
AcDbSymbolTableRecord
100
AcDbLinetypeTableRecord
  2
ByLayer
 70
        64
  3

 72
        65
 73
         0
 40
0.0
  0
LTYPE
  5
13
100
AcDbSymbolTableRecord
100
AcDbLinetypeTableRecord
  2
CONTINUOUS
 70
         0
  3
Solid line
 72
        65
 73
         0
 40
0.0
  0
LTYPE
  5
28
100
AcDbSymbolTableRecord
100
AcDbLinetypeTableRecord
  2
HIDDEN2
 70
        64
  3
_ _ _ _ _ _ _ _ _ _ _ _ _ _ _ _ _ _ _ _ _ _ _ _
 72
        65
 73
         2
 40
0.1875
 49
0.125
 74
         0
 49
-0.0625
 74
         0
  0
LTYPE
  5
29
100
AcDbSymbolTableRecord
100
AcDbLinetypeTableRecord
  2
CENTER2
 70
        64
  3
___ _ ___ _ ___ _ ___ _ ___ _ ___ _ ___ _ ___ _
 72
        65
 73
         4
 40
1.125
 49
0.75
 74
         0
 49
-0.125
 74
         0
 49
0.125
 74
         0
 49
-0.125
 74
         0
  0
LTYPE
  5
2A
100
AcDbSymbolTableRecord
100
AcDbLinetypeTableRecord
  2
PHANTOM2
 70
        64
  3
___ _ _ ___ _ _ ___ _ _ ___ _ _ ___ _ _ ___ _ _
 72
        65
 73
         6
 40
1.25
 49
0.625
 74
         0
 49
-0.125
 74
         0
 49
0.125
 74
         0
 49
-0.125
 74
         0
 49
0.125
 74
         0
 49
-0.125
 74
         0
  0
LTYPE
  5
2B
100
AcDbSymbolTableRecord
100
AcDbLinetypeTableRecord
  2
DOT2
 70
        64
  3
...............................................
 72
        65
 73
         2
 40
0.125
 49
0.0
 74
         0
 49
-0.125
 74
         0
  0
ENDTAB
  0
TABLE
  2
LAYER
  5
2
100
AcDbSymbolTable
 70
         3
  0
LAYER
  5
14
100
AcDbSymbolTableRecord
100
AcDbLayerTableRecord
  2
0
 70
         0
 62
         7
  6
CONTINUOUS
  0
LAYER
  5
2D
100
AcDbSymbolTableRecord
100
AcDbLayerTableRecord
  2
DEFAULT
 70
         0
 62
         7
  6
CONTINUOUS
  0
LAYER
  5
37
100
AcDbSymbolTableRecord
100
AcDbLayerTableRecord
  2
TA900_ISI_B_DN10
 70
         0
 62
         7
  6
CONTINUOUS
  0
ENDTAB
  0
TABLE
  2
STYLE
  5
3
100
AcDbSymbolTable
 70
         1
  0
STYLE
  5
17
100
AcDbSymbolTableRecord
100
AcDbTextStyleTableRecord
  2
Standard
 70
         0
 40
0.0
 41
1.0
 50
0.0
 71
         0
 42
0.2
  3
txt
  4

  0
ENDTAB
  0
TABLE
  2
VIEW
  5
5
100
AcDbSymbolTable
 70
         0
  0
ENDTAB
  0
TABLE
  2
UCS
  5
6
100
AcDbSymbolTable
 70
         0
  0
ENDTAB
  0
TABLE
  2
APPID
  5
8
100
AcDbSymbolTable
 70
         1
  0
APPID
  5
16
100
AcDbSymbolTableRecord
100
AcDbRegAppTableRecord
  2
ACAD
 70
         0
  0
ENDTAB
  0
TABLE
  2
DIMSTYLE
  5
9
100
AcDbSymbolTable
 70
         1
  0
DIMSTYLE
105
18
100
AcDbSymbolTableRecord
100
AcDbDimStyleTableRecord
  2
Standard
 70
         0
  3

  4

  5

  6

  7

 40
1.0
 41
0.18
 42
0.0625
 43
0.38
 44
0.18
 45
0.0
 46
0.0
 47
0.0
 48
0.0
 71
         0
 72
         0
 73
         1
 74
         1
 75
         0
 76
         0
 77
         0
 78
         0
140
0.18
141
0.09
142
0.0
143
25.4
144
1.0
145
0.0
146
1.0
147
0.09
170
         0
171
         2
172
         0
173
         0
174
         0
175
         0
176
         0
177
         0
178
         0
270
         2
271
         4
272
         4
273
         2
274
         2
275
         0
280
         0
281
         0
282
         0
283
         1
284
         0
285
         0
286
         0
287
         0
288
         0
340
17
  0
ENDTAB
  0
TABLE
  2
BLOCK_RECORD
  5
1
100
AcDbSymbolTable
 70
         8
  0
BLOCK_RECORD
  5
A
100
AcDbSymbolTableRecord
100
AcDbBlockTableRecord
  2
*MODEL_SPACE
  0
BLOCK_RECORD
  5
B
100
AcDbSymbolTableRecord
100
AcDbBlockTableRecord
  2
*PAPER_SPACE
  0
BLOCK_RECORD
  5
38
100
AcDbSymbolTableRecord
100
AcDbBlockTableRecord
  2
SE0
  0
BLOCK_RECORD
  5
39
100
AcDbSymbolTableRecord
100
AcDbBlockTableRecord
  2
SE1
  0
BLOCK_RECORD
  5
3F
100
AcDbSymbolTableRecord
100
AcDbBlockTableRecord
  2
SE2
  0
BLOCK_RECORD
  5
40
100
AcDbSymbolTableRecord
100
AcDbBlockTableRecord
  2
SE3
  0
BLOCK_RECORD
  5
46
100
AcDbSymbolTableRecord
100
AcDbBlockTableRecord
  2
SE4
  0
BLOCK_RECORD
  5
47
100
AcDbSymbolTableRecord
100
AcDbBlockTableRecord
  2
SE5
  0
BLOCK_RECORD
  5
4D
100
AcDbSymbolTableRecord
100
AcDbBlockTableRecord
  2
SE6
  0
BLOCK_RECORD
  5
4E
100
AcDbSymbolTableRecord
100
AcDbBlockTableRecord
  2
SE7
  0
ENDTAB
  0
ENDSEC
  0
SECTION
  2
BLOCKS
  0
BLOCK
  5
D
100
AcDbEntity
  8
0
100
AcDbBlockBegin
  2
*MODEL_SPACE
 70
         0
 10
0.0
 20
0.0
 30
0.0
  3
*MODEL_SPACE
  1

  0
ENDBLK
  5
E
100
AcDbEntity
  8
0
100
AcDbBlockEnd
  0
BLOCK
  5
F
100
AcDbEntity
 67
         1
  8
0
100
AcDbBlockBegin
  2
*PAPER_SPACE
 70
         0
 10
0.0
 20
0.0
 30
0.0
  3
*PAPER_SPACE
  1

  0
ENDBLK
  5
10
100
AcDbEntity
 67
         1
  8
0
100
AcDbBlockEnd
  0
BLOCK
  5
C6
100
AcDbEntity
  8
0
 62
         1
 48
0.0
100
AcDbBlockBegin
  2
SE0
 70
         0
 10
0.0
 20
0.0
 30
0.0
  3
SE0
  1

  0
ENDBLK
  5
C7
100
AcDbEntity
  8
0
 62
         1
 48
0.0
100
AcDbBlockEnd
  0
BLOCK
  5
54
100
AcDbEntity
  8
0
 62
         1
 48
0.0
100
AcDbBlockBegin
  2
SE1
 70
         0
 10
0.0
 20
0.0
 30
0.0
  3
SE1
  1

  0
LINE
  5
55
100
AcDbEntity
  8
TA900_ISI_B_DN10
  6
CONTINUOUS
 62
         7
100
AcDbLine
 10
15.925926694
 20
14.4589170281
 30
0.0
 11
9.3332330697
 21
14.4589170281
 31
0.0
  0
LINE
  5
56
100
AcDbEntity
  8
TA900_ISI_B_DN10
  6
CONTINUOUS
 62
         7
100
AcDbLine
 10
15.925926694
 20
39.8623288725
 30
0.0
 11
9.3332330697
 21
39.8623288725
 31
0.0
  0
ARC
  5
57
100
AcDbEntity
  8
TA900_ISI_B_DN10
  6
CONTINUOUS
 62
         7
100
AcDbCircle
 10
68.0655973763
 20
36.6869023919
 30
0.0
 40
8.5400732448
100
AcDbArc
 50
158.1716867869
 51
201.8283132131
  0
ARC
  5
58
100
AcDbEntity
  8
TA900_ISI_B_DN10
  6
CONTINUOUS
 62
         7
100
AcDbCircle
 10
68.0655973763
 20
17.6343435087
 30
0.0
 40
8.5400732448
100
AcDbArc
 50
158.1716867869
 51
201.8283132131
  0
ARC
  5
59
100
AcDbEntity
  8
TA900_ISI_B_DN10
  6
CONTINUOUS
 62
         7
100
AcDbCircle
 10
92.676773179
 20
27.1606229503
 30
0.0
 40
33.1529221538
100
AcDbArc
 50
168.956022526
 51
191.043977474
  0
LINE
  5
5A
100
AcDbEntity
  8
TA900_ISI_B_DN10
  6
CONTINUOUS
 62
         7
100
AcDbLine
 10
66.7305222291
 20
20.8097699892
 30
0.0
 11
60.1378286048
 21
20.8097699892
 31
0.0
  0
ARC
  5
5B
100
AcDbEntity
  8
TA900_ISI_B_DN10
  6
CONTINUOUS
 62
         7
100
AcDbCircle
 10
58.8027534577
 20
36.6869023919
 30
0.0
 40
8.5400732448
100
AcDbArc
 50
338.1716867869
 51
21.8283132131
  0
ARC
  5
5C
100
AcDbEntity
  8
TA900_ISI_B_DN10
  6
CONTINUOUS
 62
         7
100
AcDbCircle
 10
17.2610018411
 20
17.6343435087
 30
0.0
 40
8.5400732448
100
AcDbArc
 50
158.1716867869
 51
201.8283132131
  0
ARC
  5
5D
100
AcDbEntity
  8
TA900_ISI_B_DN10
  6
CONTINUOUS
 62
         7
100
AcDbCircle
 10
34.1915781087
 20
27.1606229503
 30
0.0
 40
33.1529217085
100
AcDbArc
 50
348.9560223758
 51
11.0439776242
  0
ARC
  5
5E
100
AcDbEntity
  8
TA900_ISI_B_DN10
  6
CONTINUOUS
 62
         7
100
AcDbCircle
 10
10.471817566
 20
27.1535960677
 30
0.0
 40
15.8972553399
100
AcDbArc
 50
352.434688498
 51
22.3263601674
  0
SPLINE
  5
5F
100
AcDbEntity
  8
TA900_ISI_B_DN10
  6
CONTINUOUS
 62
         7
100
AcDbSpline
210
0.0
220
0.0
230
1.0
 70
         8
 71
         3
 72
        10
 73
         6
 74
         0
 42
0.0
 43
0.0
 40
0.5004999373495206
 40
0.5004999373495206
 40
0.5004999373495206
 40
0.5004999373495206
 40
0.75
 40
0.75
 40
1.0
 40
1.0
 40
1.0
 40
1.0
 10
25.416067622713314
 20
19.225270833287205
 30
0.0
 10
25.416074899788953
 20
19.225340411653555
 30
0.0
 10
25.495181089266683
 20
19.813317831146644
 30
0.0
 10
25.78497366355289
 20
21.917835803715718
 30
0.0
 10
25.993007064188944
 20
23.410225937745825
 30
0.0
 10
26.230694139924108
 20
25.060622950279811
 30
0.0
  0
LINE
  5
60
100
AcDbEntity
  8
TA900_ISI_B_DN10
  6
CONTINUOUS
 62
         7
100
AcDbLine
 10
57.2818776494
 20
37.5106229503
 30
0.0
 11
52.9287747197
 21
35.9262230572
 31
0.0
  0
LINE
  5
61
100
AcDbEntity
  8
TA900_ISI_B_DN10
  6
CONTINUOUS
 62
         7
100
AcDbLine
 10
9.3332330697
 20
39.8623288725
 30
0.0
 11
8.5318776494
 21
37.6606229503
 31
0.0
  0
ARC
  5
62
100
AcDbEntity
  8
TA900_ISI_B_DN10
  6
CONTINUOUS
 62
         7
100
AcDbCircle
 10
38.0318776494
 20
25.0606229503
 30
0.0
 40
13.9
100
AcDbArc
 50
300.3097875016
 51
335.2198527866
  0
LINE
  5
63
100
AcDbEntity
  8
TA900_ISI_B_DN10
  6
CONTINUOUS
 62
         7
100
AcDbLine
 10
48.7818776494
 20
57.6606229503
 30
0.0
 11
27.2818776494
 21
57.6606229503
 31
0.0
  0
LINE
  5
64
100
AcDbEntity
  8
TA900_ISI_B_DN10
  6
CONTINUOUS
 62
         7
100
AcDbLine
 10
46.9516590369
 20
59.1606229503
 30
0.0
 11
46.9516590369
 21
60.1606229503
 31
0.0
  0
LINE
  5
65
100
AcDbEntity
  8
TA900_ISI_B_DN10
  6
CONTINUOUS
 62
         7
100
AcDbLine
 10
29.1120962619
 20
60.1606229503
 30
0.0
 11
29.1120962619
 21
59.1606229503
 31
0.0
  0
ARC
  5
66
100
AcDbEntity
  8
TA900_ISI_B_DN10
  6
CONTINUOUS
 62
         7
100
AcDbCircle
 10
38.0318776494
 20
60.1606229503
 30
0.0
 40
8.9197813875
100
AcDbArc
 50
0.0
 51
180.0
  0
LINE
  5
67
100
AcDbEntity
  8
TA900_ISI_B_DN10
  6
CONTINUOUS
 62
         7
100
AcDbLine
 10
80.5318776494
 20
59.1606229503
 30
0.0
 11
46.9516590369
 21
59.1606229503
 31
0.0
  0
LINE
  5
68
100
AcDbEntity
  8
TA900_ISI_B_DN10
  6
CONTINUOUS
 62
         7
100
AcDbLine
 10
83.5318776494
 20
59.1606229503
 30
0.0
 11
80.5318776494
 21
59.1606229503
 31
0.0
  0
LINE
  5
69
100
AcDbEntity
  8
TA900_ISI_B_DN10
  6
CONTINUOUS
 62
         7
100
AcDbLine
 10
13.5318776494
 20
59.1606229503
 30
0.0
 11
13.5318776494
 21
64.5758522528
 31
0.0
  0
ARC
  5
6A
100
AcDbEntity
  8
TA900_ISI_B_DN10
  6
CONTINUOUS
 62
         7
100
AcDbCircle
 10
20.5318776494
 20
64.5758522528
 30
0.0
 40
7.0
100
AcDbArc
 50
100.2489802712
 51
180.0
  0
LINE
  5
6B
100
AcDbEntity
  8
TA900_ISI_B_DN10
  6
CONTINUOUS
 62
         7
100
AcDbLine
 10
83.5318776494
 20
66.5199967842
 30
0.0
 11
83.5318776494
 21
59.1606229503
 31
0.0
  0
LINE
  5
6C
100
AcDbEntity
  8
TA900_ISI_B_DN10
  6
CONTINUOUS
 62
         7
100
AcDbLine
 10
16.5318776494
 20
59.1606229503
 30
0.0
 11
13.5318776494
 21
59.1606229503
 31
0.0
  0
ARC
  5
6D
100
AcDbEntity
  8
TA900_ISI_B_DN10
  6
CONTINUOUS
 62
         7
100
AcDbCircle
 10
66.0809418049
 20
-187.3393770497
 30
0.0
 40
263.0
100
AcDbArc
 50
88.0933372611
 51
100.2489802712
  0
ARC
  5
6E
100
AcDbEntity
  8
TA900_ISI_B_DN10
  6
CONTINUOUS
 62
         7
100
AcDbCircle
 10
74.5318776494
 20
66.5199967842
 30
0.0
 40
9.0
100
AcDbArc
 50
0.0
 51
88.0933372611
  0
LINE
  5
6F
100
AcDbEntity
  8
TA900_ISI_B_DN10
  6
CONTINUOUS
 62
         7
100
AcDbLine
 10
66.7305222291
 20
14.4589170281
 30
0.0
 11
67.5318776494
 21
16.6606229503
 31
0.0
  0
LINE
  5
70
100
AcDbEntity
  8
TA900_ISI_B_DN10
  6
CONTINUOUS
 62
         7
100
AcDbLine
 10
29.1120962619
 20
59.1606229503
 30
0.0
 11
16.5318776494
 21
59.1606229503
 31
0.0
  0
LINE
  5
71
100
AcDbEntity
  8
TA900_ISI_B_DN10
  6
CONTINUOUS
 62
         7
100
AcDbLine
 10
53.9818776494
 20
47.6606229503
 30
0.0
 11
53.9818776494
 21
50.3506437692
 31
0.0
  0
LINE
  5
72
100
AcDbEntity
  8
TA900_ISI_B_DN10
  6
CONTINUOUS
 62
         7
100
AcDbLine
 10
21.8818776494
 20
47.6606229503
 30
0.0
 11
21.8818776494
 21
42.7606229503
 31
0.0
  0
LINE
  5
73
100
AcDbEntity
  8
TA900_ISI_B_DN10
  6
CONTINUOUS
 62
         7
100
AcDbLine
 10
21.8818776494
 20
42.7606229503
 30
0.0
 11
23.1318776494
 21
41.5106229503
 31
0.0
  0
LINE
  5
74
100
AcDbEntity
  8
TA900_ISI_B_DN10
  6
CONTINUOUS
 62
         7
100
AcDbLine
 10
31.0168936865
 20
13.0606229503
 30
0.0
 11
45.0468616123
 21
13.0606229503
 31
0.0
  0
LINE
  5
75
100
AcDbEntity
  8
TA900_ISI_B_DN10
  6
CONTINUOUS
 62
         7
100
AcDbLine
 10
18.7818776494
 20
16.8106229503
 30
0.0
 11
25.4213981364
 21
19.2272107773
 31
0.0
  0
LINE
  5
76
100
AcDbEntity
  8
TA900_ISI_B_DN10
  6
CONTINUOUS
 62
         7
100
AcDbLine
 10
18.7818776494
 20
37.5106229503
 30
0.0
 11
16.7818776494
 21
37.5106229503
 31
0.0
  0
LINE
  5
77
100
AcDbEntity
  8
TA900_ISI_B_DN10
  6
CONTINUOUS
 62
         7
100
AcDbLine
 10
59.2818776494
 20
37.5106229503
 30
0.0
 11
57.2818776494
 21
37.5106229503
 31
0.0
  0
LINE
  5
78
100
AcDbEntity
  8
TA900_ISI_B_DN10
  6
CONTINUOUS
 62
         7
100
AcDbLine
 10
15.925926694
 20
14.4589170281
 30
0.0
 11
16.7818776494
 21
16.8106229503
 31
0.0
  0
LINE
  5
79
100
AcDbEntity
  8
TA900_ISI_B_DN10
  6
CONTINUOUS
 62
         7
100
AcDbLine
 10
60.1378286048
 20
39.8623288725
 30
0.0
 11
59.2818776494
 21
37.5106229503
 31
0.0
  0
ARC
  5
7A
100
AcDbEntity
  8
TA900_ISI_B_DN10
  6
CONTINUOUS
 62
         7
100
AcDbCircle
 10
38.0318776494
 20
25.0606229503
 30
0.0
 40
13.9
100
AcDbArc
 50
204.7797294684
 51
239.6902124984
  0
LINE
  5
7B
100
AcDbEntity
  8
TA900_ISI_B_DN10
  6
CONTINUOUS
 62
         7
100
AcDbLine
 10
23.1318776494
 20
41.5106229503
 30
0.0
 11
23.1318776494
 21
35.9233618592
 31
0.0
  0
LINE
  5
7C
100
AcDbEntity
  8
TA900_ISI_B_DN10
  6
CONTINUOUS
 62
         7
100
AcDbLine
 10
50.6423571624
 20
19.2272107773
 30
0.0
 11
57.2818776494
 21
16.8106229503
 31
0.0
  0
LINE
  5
7D
100
AcDbEntity
  8
TA900_ISI_B_DN10
  6
CONTINUOUS
 62
         7
100
AcDbLine
 10
8.5318776494
 20
16.6606229503
 30
0.0
 11
9.3332330697
 21
14.4589170281
 31
0.0
  0
LINE
  5
7E
100
AcDbEntity
  8
TA900_ISI_B_DN10
  6
CONTINUOUS
 62
         7
100
AcDbLine
 10
51.8693482667
 20
33.4606229503
 30
0.0
 11
50.8864194491
 21
33.1926737578
 31
0.0
  0
LINE
  5
7F
100
AcDbEntity
  8
TA900_ISI_B_DN10
  6
CONTINUOUS
 62
         7
100
AcDbLine
 10
48.7818776494
 20
57.6606229503
 30
0.0
 11
48.7818776494
 21
59.1606229503
 31
0.0
  0
ARC
  5
80
100
AcDbEntity
  8
TA900_ISI_B_DN10
  6
CONTINUOUS
 62
         7
100
AcDbCircle
 10
58.8027534577
 20
17.6343435087
 30
0.0
 40
8.5400732448
100
AcDbArc
 50
338.1716867869
 51
21.8283132131
  0
LINE
  5
81
100
AcDbEntity
  8
TA900_ISI_B_DN10
  6
CONTINUOUS
 62
         7
100
AcDbLine
 10
66.7305222291
 20
14.4589170281
 30
0.0
 11
60.1378286048
 21
14.4589170281
 31
0.0
  0
LINE
  5
82
100
AcDbEntity
  8
TA900_ISI_B_DN10
  6
CONTINUOUS
 62
         7
100
AcDbLine
 10
67.5318776494
 20
37.6606229503
 30
0.0
 11
66.7305222291
 21
39.8623288725
 31
0.0
  0
LINE
  5
83
100
AcDbEntity
  8
TA900_ISI_B_DN10
  6
CONTINUOUS
 62
         7
100
AcDbLine
 10
22.0818776494
 20
50.3506437692
 30
0.0
 11
22.0818776494
 21
47.6606229503
 31
0.0
  0
LINE
  5
84
100
AcDbEntity
  8
TA900_ISI_B_DN10
  6
CONTINUOUS
 62
         7
100
AcDbLine
 10
54.1818776494
 20
42.7606229503
 30
0.0
 11
54.1818776494
 21
47.6606229503
 31
0.0
  0
LINE
  5
85
100
AcDbEntity
  8
TA900_ISI_B_DN10
  6
CONTINUOUS
 62
         7
100
AcDbLine
 10
52.9318776494
 20
41.5106229503
 30
0.0
 11
54.1818776494
 21
42.7606229503
 31
0.0
  0
LINE
  5
86
100
AcDbEntity
  8
TA900_ISI_B_DN10
  6
CONTINUOUS
 62
         7
100
AcDbLine
 10
23.1349805791
 20
35.9262230572
 30
0.0
 11
18.7818776494
 21
37.5106229503
 31
0.0
  0
LINE
  5
87
100
AcDbEntity
  8
TA900_ISI_B_DN10
  6
CONTINUOUS
 62
         7
100
AcDbLine
 10
16.7818776494
 20
16.8106229503
 30
0.0
 11
18.7818776494
 21
16.8106229503
 31
0.0
  0
LINE
  5
88
100
AcDbEntity
  8
TA900_ISI_B_DN10
  6
CONTINUOUS
 62
         7
100
AcDbLine
 10
57.2818776494
 20
16.8106229503
 30
0.0
 11
59.2818776494
 21
16.8106229503
 31
0.0
  0
LINE
  5
89
100
AcDbEntity
  8
TA900_ISI_B_DN10
  6
CONTINUOUS
 62
         7
100
AcDbLine
 10
16.7818776494
 20
37.5106229503
 30
0.0
 11
15.925926694
 21
39.8623288725
 31
0.0
  0
LINE
  5
8A
100
AcDbEntity
  8
TA900_ISI_B_DN10
  6
CONTINUOUS
 62
         7
100
AcDbLine
 10
59.2818776494
 20
16.8106229503
 30
0.0
 11
60.1378286048
 21
14.4589170281
 31
0.0
  0
LINE
  5
8B
100
AcDbEntity
  8
TA900_ISI_B_DN10
  6
CONTINUOUS
 62
         7
100
AcDbLine
 10
52.9318776494
 20
35.9233618592
 30
0.0
 11
52.9318776494
 21
41.5106229503
 31
0.0
  0
LINE
  5
8C
100
AcDbEntity
  8
TA900_ISI_B_DN10
  6
CONTINUOUS
 62
         7
100
AcDbLine
 10
27.2818776494
 20
59.1606229503
 30
0.0
 11
27.2818776494
 21
57.6606229503
 31
0.0
  0
ARC
  5
8D
100
AcDbEntity
  8
TA900_ISI_B_DN10
  6
CONTINUOUS
 62
         7
100
AcDbCircle
 10
-3.2036031304
 20
23.1212931433
 30
0.0
 40
29.2840007806
100
AcDbArc
 50
20.675263243
 51
25.9320811032
  0
LINE
  5
8E
100
AcDbEntity
  8
TA900_ISI_B_DN10
  6
CONTINUOUS
 62
         7
100
AcDbLine
 10
35.7481296346
 20
30.3332010339
 30
0.0
 11
35.9911153413
 21
31.1606229503
 31
0.0
  0
LINE
  5
8F
100
AcDbEntity
  8
TA900_ISI_B_DN10
  6
CONTINUOUS
 62
         7
100
AcDbLine
 10
36.4072085123
 20
30.3332010339
 30
0.0
 11
35.7481296346
 21
30.3332010339
 31
0.0
  0
LINE
  5
90
100
AcDbEntity
  8
TA900_ISI_B_DN10
  6
CONTINUOUS
 62
         7
100
AcDbLine
 10
36.4072085123
 20
28.1606229503
 30
0.0
 11
36.4072085123
 21
30.3332010339
 31
0.0
  0
LINE
  5
91
100
AcDbEntity
  8
TA900_ISI_B_DN10
  6
CONTINUOUS
 62
         7
100
AcDbLine
 10
38.0318776494
 20
31.1606229503
 30
0.0
 11
37.7857156589
 21
30.3332010339
 31
0.0
  0
LINE
  5
92
100
AcDbEntity
  8
TA900_ISI_B_DN10
  6
CONTINUOUS
 62
         7
100
AcDbLine
 10
37.3013323874
 20
30.3332010339
 30
0.0
 11
37.3013323874
 21
28.1606229503
 31
0.0
  0
LINE
  5
93
100
AcDbEntity
  8
TA900_ISI_B_DN10
  6
CONTINUOUS
 62
         7
100
AcDbLine
 10
37.3013323874
 20
28.1606229503
 30
0.0
 11
36.4072085123
 21
28.1606229503
 31
0.0
  0
LINE
  5
94
100
AcDbEntity
  8
TA900_ISI_B_DN10
  6
CONTINUOUS
 62
         7
100
AcDbLine
 10
37.7857156589
 20
30.3332010339
 30
0.0
 11
37.3013323874
 21
30.3332010339
 31
0.0
  0
LINE
  5
95
100
AcDbEntity
  8
TA900_ISI_B_DN10
  6
CONTINUOUS
 62
         7
100
AcDbLine
 10
35.9911153413
 20
31.1606229503
 30
0.0
 11
38.0318776494
 21
31.1606229503
 31
0.0
  0
LINE
  5
96
100
AcDbEntity
  8
TA900_ISI_B_DN10
  6
CONTINUOUS
 62
         7
100
AcDbLine
 10
37.3918564742
 20
28.1606229503
 30
0.0
 11
38.8799454101
 21
28.1606229503
 31
0.0
  0
LINE
  5
97
100
AcDbEntity
  8
TA900_ISI_B_DN10
  6
CONTINUOUS
 62
         7
100
AcDbLine
 10
38.8799454101
 20
30.4173725532
 30
0.0
 11
39.4183255054
 21
28.1606229503
 31
0.0
  0
LINE
  5
98
100
AcDbEntity
  8
TA900_ISI_B_DN10
  6
CONTINUOUS
 62
         7
100
AcDbLine
 10
40.3664462042
 20
28.1606229503
 30
0.0
 11
39.4754986129
 21
31.1606229503
 31
0.0
  0
LINE
  5
99
100
AcDbEntity
  8
TA900_ISI_B_DN10
  6
CONTINUOUS
 62
         7
100
AcDbLine
 10
39.4754986129
 20
31.1606229503
 30
0.0
 11
38.2828040655
 21
31.1606229503
 31
0.0
  0
LINE
  5
9A
100
AcDbEntity
  8
TA900_ISI_B_DN10
  6
CONTINUOUS
 62
         7
100
AcDbLine
 10
38.2828040655
 20
31.1606229503
 30
0.0
 11
37.3918564742
 21
28.1606229503
 31
0.0
  0
LINE
  5
9B
100
AcDbEntity
  8
TA900_ISI_B_DN10
  6
CONTINUOUS
 62
         7
100
AcDbLine
 10
38.8799454101
 20
28.1606229503
 30
0.0
 11
39.1134022656
 21
28.9340480429
 31
0.0
  0
LINE
  5
9C
100
AcDbEntity
  8
TA900_ISI_B_DN10
  6
CONTINUOUS
 62
         7
100
AcDbLine
 10
39.1134022656
 20
28.9340480429
 30
0.0
 11
38.528966056
 21
28.9340480429
 31
0.0
  0
LINE
  5
9D
100
AcDbEntity
  8
TA900_ISI_B_DN10
  6
CONTINUOUS
 62
         7
100
AcDbLine
 10
38.528966056
 20
28.9340480429
 30
0.0
 11
38.8799454101
 21
30.4173725532
 31
0.0
  0
LINE
  5
9E
100
AcDbEntity
  8
TA900_ISI_B_DN10
  6
CONTINUOUS
 62
         7
100
AcDbLine
 10
39.4183255054
 20
28.1606229503
 30
0.0
 11
40.3664462042
 21
28.1606229503
 31
0.0
  0
LINE
  5
9F
100
AcDbEntity
  8
TA900_ISI_B_DN10
  6
CONTINUOUS
 62
         7
100
AcDbLine
 10
44.9600808797
 20
57.6506437692
 30
0.0
 11
31.1036744191
 21
57.6506437692
 31
0.0
  0
LINE
  5
A0
100
AcDbEntity
  8
TA900_ISI_B_DN10
  6
CONTINUOUS
 62
         7
100
AcDbLine
 10
51.88828411
 20
57.6506437692
 30
0.0
 11
44.9600808797
 21
57.6506437692
 31
0.0
  0
LINE
  5
A1
100
AcDbEntity
  8
TA900_ISI_B_DN10
  6
CONTINUOUS
 62
         7
100
AcDbLine
 10
51.88828411
 20
57.6506437692
 30
0.0
 11
51.88828411
 21
50.3506437692
 31
0.0
  0
LINE
  5
A2
100
AcDbEntity
  8
TA900_ISI_B_DN10
  6
CONTINUOUS
 62
         7
100
AcDbLine
 10
31.1036744191
 20
57.6506437692
 30
0.0
 11
24.1754711889
 21
57.6506437692
 31
0.0
  0
LINE
  5
A3
100
AcDbEntity
  8
TA900_ISI_B_DN10
  6
CONTINUOUS
 62
         7
100
AcDbLine
 10
44.9600808797
 20
57.6506437692
 30
0.0
 11
44.9600808797
 21
50.3506437692
 31
0.0
  0
LINE
  5
A4
100
AcDbEntity
  8
TA900_ISI_B_DN10
  6
CONTINUOUS
 62
         7
100
AcDbLine
 10
31.1036744191
 20
57.6506437692
 30
0.0
 11
31.1036744191
 21
50.3506437692
 31
0.0
  0
LINE
  5
A5
100
AcDbEntity
  8
TA900_ISI_B_DN10
  6
CONTINUOUS
 62
         7
100
AcDbLine
 10
24.1754711889
 20
57.6506437692
 30
0.0
 11
24.1754711889
 21
50.3506437692
 31
0.0
  0
LINE
  5
A6
100
AcDbEntity
  8
TA900_ISI_B_DN10
  6
CONTINUOUS
 62
         7
100
AcDbLine
 10
53.9818776494
 20
50.3506437692
 30
0.0
 11
22.0818776494
 21
50.3506437692
 31
0.0
  0
LINE
  5
A7
100
AcDbEntity
  8
TA900_ISI_B_DN10
  6
CONTINUOUS
 62
         7
100
AcDbLine
 10
54.1818776494
 20
47.6606229503
 30
0.0
 11
21.8818776494
 21
47.6606229503
 31
0.0
  0
LINE
  5
A8
100
AcDbEntity
  8
TA900_ISI_B_DN10
  6
CONTINUOUS
 62
         7
100
AcDbLine
 10
52.9318776494
 20
41.5106229503
 30
0.0
 11
23.1318776494
 21
41.5106229503
 31
0.0
  0
LINE
  5
A9
100
AcDbEntity
  8
TA900_ISI_B_DN10
  6
CONTINUOUS
 62
         7
100
AcDbLine
 10
54.1818776494
 20
42.7606229503
 30
0.0
 11
21.8818776494
 21
42.7606229503
 31
0.0
  0
LINE
  5
AA
100
AcDbEntity
  8
TA900_ISI_B_DN10
  6
CONTINUOUS
 62
         7
100
AcDbLine
 10
25.1773358498
 20
33.1926737578
 30
0.0
 11
24.1944070321
 21
33.4606229503
 31
0.0
  0
LINE
  5
AB
100
AcDbEntity
  8
TA900_ISI_B_DN10
  6
CONTINUOUS
 62
         7
100
AcDbLine
 10
31.0168936865
 20
33.1926737578
 30
0.0
 11
25.1773358498
 21
33.1926737578
 31
0.0
  0
LINE
  5
AC
100
AcDbEntity
  8
TA900_ISI_B_DN10
  6
CONTINUOUS
 62
         7
100
AcDbLine
 10
50.8864194491
 20
33.1926737578
 30
0.0
 11
45.0468616123
 21
33.1926737578
 31
0.0
  0
LINE
  5
AD
100
AcDbEntity
  8
TA900_ISI_B_DN10
  6
CONTINUOUS
 62
         7
100
AcDbLine
 10
24.1944070321
 20
33.4606229503
 30
0.0
 11
51.8693482667
 21
33.4606229503
 31
0.0
  0
SPLINE
  5
AE
100
AcDbEntity
  8
TA900_ISI_B_DN10
  6
CONTINUOUS
 62
         7
100
AcDbSpline
210
0.0
220
0.0
230
1.0
 70
         8
 71
         3
 72
        12
 73
         8
 74
         0
 42
0.0
 43
0.0
 40
0.0
 40
0.0
 40
0.0
 40
0.0
 40
0.25
 40
0.25
 40
0.5
 40
0.5
 40
0.5004994279359448
 40
0.5004994279359448
 40
0.5004994279359448
 40
0.5004994279359448
 10
49.833061158885798
 20
25.060622950279811
 30
0.0
 10
50.070736968702747
 20
23.410304163445335
 30
0.0
 10
50.276729878402826
 20
21.932605019900262
 30
0.0
 10
50.567595454053937
 20
19.820555172326717
 30
0.0
 10
50.647376379432316
 20
19.227569050423138
 30
0.0
 10
50.64768738704182
 20
19.225272919593749
 30
0.0
 10
50.647687690060252
 20
19.225270698397868
 30
0.0
 10
50.647687676140166
 20
19.225270832868372
 30
0.0
  0
ARC
  5
AF
100
AcDbEntity
  8
TA900_ISI_B_DN10
  6
CONTINUOUS
 62
         7
100
AcDbCircle
 10
65.4185757385
 20
27.1760519399
 30
0.0
 40
15.7284234595
100
AcDbArc
 50
157.5094046481
 51
187.7295466865
  0
ARC
  5
B0
100
AcDbEntity
  8
TA900_ISI_B_DN10
  6
CONTINUOUS
 62
         7
100
AcDbCircle
 10
41.8721771901
 20
27.1606229503
 30
0.0
 40
33.1529217085
100
AcDbArc
 50
168.9560223758
 51
191.0439776242
  0
ARC
  5
B1
100
AcDbEntity
  8
TA900_ISI_B_DN10
  6
CONTINUOUS
 62
         7
100
AcDbCircle
 10
7.9981579225
 20
17.6343435087
 30
0.0
 40
8.5400732448
100
AcDbArc
 50
338.1716867869
 51
21.8283132131
  0
ARC
  5
B2
100
AcDbEntity
  8
TA900_ISI_B_DN10
  6
CONTINUOUS
 62
         7
100
AcDbCircle
 10
-16.6130178802
 20
27.1606229503
 30
0.0
 40
33.1529221538
100
AcDbArc
 50
348.956022526
 51
11.043977474
  0
ARC
  5
B3
100
AcDbEntity
  8
TA900_ISI_B_DN10
  6
CONTINUOUS
 62
         7
100
AcDbCircle
 10
7.9981579225
 20
36.6869023919
 30
0.0
 40
8.5400732448
100
AcDbArc
 50
338.1716867869
 51
21.8283132131
  0
LINE
  5
B4
100
AcDbEntity
  8
TA900_ISI_B_DN10
  6
CONTINUOUS
 62
         7
100
AcDbLine
 10
66.7305222291
 20
39.8623288725
 30
0.0
 11
60.1378286048
 21
39.8623288725
 31
0.0
  0
LINE
  5
B5
100
AcDbEntity
  8
TA900_ISI_B_DN10
  6
CONTINUOUS
 62
         7
100
AcDbLine
 10
15.925926694
 20
20.8097699892
 30
0.0
 11
9.3332330697
 21
20.8097699892
 31
0.0
  0
LINE
  5
B6
100
AcDbEntity
  8
TA900_ISI_B_DN10
  6
CONTINUOUS
 62
         7
100
AcDbLine
 10
15.925926694
 20
33.5114759114
 30
0.0
 11
9.3332330697
 21
33.5114759114
 31
0.0
  0
LINE
  5
B7
100
AcDbEntity
  8
TA900_ISI_B_DN10
  6
CONTINUOUS
 62
         7
100
AcDbLine
 10
66.7305222291
 20
33.5114759114
 30
0.0
 11
60.1378286048
 21
33.5114759114
 31
0.0
  0
LINE
  5
B8
100
AcDbEntity
  8
TA900_ISI_B_DN10
  6
CONTINUOUS
 62
         7
100
AcDbLine
 10
31.0168936865
 20
33.1926737578
 30
0.0
 11
31.0168936865
 21
25.0606229503
 31
0.0
  0
ARC
  5
B9
100
AcDbEntity
  8
TA900_ISI_B_DN10
  6
CONTINUOUS
 62
         7
100
AcDbCircle
 10
38.0318776494
 20
81.682652732
 30
0.0
 40
48.9947758533
100
AcDbArc
 50
261.7682028409
 51
278.2317971591
  0
LINE
  5
BA
100
AcDbEntity
  8
TA900_ISI_B_DN10
  6
CONTINUOUS
 62
         7
100
AcDbLine
 10
45.0468616123
 20
33.1926737578
 30
0.0
 11
45.0468616123
 21
25.0606229503
 31
0.0
  0
ARC
  5
BB
100
AcDbEntity
  8
TA900_ISI_B_DN10
  6
CONTINUOUS
 62
         7
100
AcDbCircle
 10
79.2673584292
 20
23.1212931433
 30
0.0
 40
29.2840007807
100
AcDbArc
 50
154.0679188968
 51
159.3247367569
  0
LINE
  5
BC
100
AcDbEntity
  8
TA900_ISI_B_DN10
  6
CONTINUOUS
 62
         7
100
AcDbLine
 10
8.5318776494
 20
37.6606229503
 30
0.0
 11
8.5318776494
 21
16.6606229503
 31
0.0
  0
LINE
  5
BD
100
AcDbEntity
  8
TA900_ISI_B_DN10
  6
CONTINUOUS
 62
         7
100
AcDbLine
 10
16.7818776494
 20
37.5106229503
 30
0.0
 11
16.7818776494
 21
16.8106229503
 31
0.0
  0
LINE
  5
BE
100
AcDbEntity
  8
TA900_ISI_B_DN10
  6
CONTINUOUS
 62
         7
100
AcDbLine
 10
31.0168936865
 20
13.0606229503
 30
0.0
 11
31.0168936865
 21
25.0606229503
 31
0.0
  0
LINE
  5
BF
100
AcDbEntity
  8
TA900_ISI_B_DN10
  6
CONTINUOUS
 62
         7
100
AcDbLine
 10
45.0468616123
 20
13.0606229503
 30
0.0
 11
45.0468616123
 21
25.0606229503
 31
0.0
  0
LINE
  5
C0
100
AcDbEntity
  8
TA900_ISI_B_DN10
  6
CONTINUOUS
 62
         7
100
AcDbLine
 10
18.7818776494
 20
37.5106229503
 30
0.0
 11
18.7818776494
 21
16.8106229503
 31
0.0
  0
LINE
  5
C1
100
AcDbEntity
  8
TA900_ISI_B_DN10
  6
CONTINUOUS
 62
         7
100
AcDbLine
 10
57.2818776494
 20
37.5106229503
 30
0.0
 11
57.2818776494
 21
16.8106229503
 31
0.0
  0
LINE
  5
C2
100
AcDbEntity
  8
TA900_ISI_B_DN10
  6
CONTINUOUS
 62
         7
100
AcDbLine
 10
59.2818776494
 20
37.5106229503
 30
0.0
 11
59.2818776494
 21
16.8106229503
 31
0.0
  0
LINE
  5
C3
100
AcDbEntity
  8
TA900_ISI_B_DN10
  6
CONTINUOUS
 62
         7
100
AcDbLine
 10
67.5318776494
 20
37.6606229503
 30
0.0
 11
67.5318776494
 21
16.6606229503
 31
0.0
  0
ARC
  5
C4
100
AcDbEntity
  8
TA900_ISI_B_DN10
  6
CONTINUOUS
 62
         7
100
AcDbCircle
 10
17.2610018411
 20
36.6869023919
 30
0.0
 40
8.5400732448
100
AcDbArc
 50
158.1716867869
 51
201.8283132131
  0
ENDBLK
  5
C5
100
AcDbEntity
  8
TA900_ISI_B_DN10
  6
CONTINUOUS
 62
         7
100
AcDbBlockEnd
  0
BLOCK
  5
118
100
AcDbEntity
  8
0
 62
         1
 48
0.0
100
AcDbBlockBegin
  2
SE2
 70
         0
 10
0.0
 20
0.0
 30
0.0
  3
SE2
  1

  0
ENDBLK
  5
119
100
AcDbEntity
  8
0
 62
         1
 48
0.0
100
AcDbBlockEnd
  0
BLOCK
  5
C8
100
AcDbEntity
  8
0
 62
         1
 48
0.0
100
AcDbBlockBegin
  2
SE3
 70
         0
 10
0.0
 20
0.0
 30
0.0
  3
SE3
  1

  0
LINE
  5
C9
100
AcDbEntity
  8
TA900_ISI_B_DN10
  6
CONTINUOUS
 62
         7
100
AcDbLine
 10
15.925926694
 20
127.5817807149
 30
0.0
 11
9.3332330697
 21
127.5817807149
 31
0.0
  0
LINE
  5
CA
100
AcDbEntity
  8
TA900_ISI_B_DN10
  6
CONTINUOUS
 62
         7
100
AcDbLine
 10
15.925926694
 20
116.5817807149
 30
0.0
 11
9.3332330697
 21
116.5817807149
 31
0.0
  0
ARC
  5
CB
100
AcDbEntity
  8
TA900_ISI_B_DN10
  6
CONTINUOUS
 62
         7
100
AcDbCircle
 10
84.4729881737
 20
133.0817807149
 30
0.0
 40
24.9489476981
100
AcDbArc
 50
167.2645244266
 51
192.7354755734
  0
LINE
  5
CC
100
AcDbEntity
  8
TA900_ISI_B_DN10
  6
CONTINUOUS
 62
         7
100
AcDbLine
 10
60.1378286048
 20
138.5817807149
 30
0.0
 11
59.5184594633
 21
138.5817807149
 31
0.0
  0
LINE
  5
CD
100
AcDbEntity
  8
TA900_ISI_B_DN10
  6
CONTINUOUS
 62
         7
100
AcDbLine
 10
66.7305222291
 20
116.5817807149
 30
0.0
 11
60.1378286048
 21
116.5817807149
 31
0.0
  0
LINE
  5
CE
100
AcDbEntity
  8
TA900_ISI_B_DN10
  6
CONTINUOUS
 62
         7
100
AcDbLine
 10
66.7305222291
 20
138.5817807149
 30
0.0
 11
60.1378286048
 21
138.5817807149
 31
0.0
  0
ARC
  5
CF
100
AcDbEntity
  8
TA900_ISI_B_DN10
  6
CONTINUOUS
 62
         7
100
AcDbCircle
 10
-8.4092328749
 20
122.0817807149
 30
0.0
 40
24.9489476981
100
AcDbArc
 50
347.2645244266
 51
12.7354755734
  0
LINE
  5
D0
100
AcDbEntity
  8
TA900_ISI_B_DN10
  6
CONTINUOUS
 62
         7
100
AcDbLine
 10
67.3498913802
 20
116.5817807149
 30
0.0
 11
66.7305222291
 21
116.5817807149
 31
0.0
  0
LINE
  5
D1
100
AcDbEntity
  8
TA900_ISI_B_DN10
  6
CONTINUOUS
 62
         7
100
AcDbLine
 10
67.3498913802
 20
138.5817807149
 30
0.0
 11
66.7305222291
 21
138.5817807149
 31
0.0
  0
ARC
  5
D2
100
AcDbEntity
  8
TA900_ISI_B_DN10
  6
CONTINUOUS
 62
         7
100
AcDbCircle
 10
42.3953626603
 20
122.0817807149
 30
0.0
 40
24.9489476981
100
AcDbArc
 50
347.2645244266
 51
12.7354755734
  0
ARC
  5
D3
100
AcDbEntity
  8
TA900_ISI_B_DN10
  6
CONTINUOUS
 62
         7
100
AcDbCircle
 10
33.6683926385
 20
133.0817807149
 30
0.0
 40
24.9489476981
100
AcDbArc
 50
167.2645244266
 51
192.7354755734
  0
ARC
  5
D4
100
AcDbEntity
  8
TA900_ISI_B_DN10
  6
CONTINUOUS
 62
         7
100
AcDbCircle
 10
56.526437147
 20
127.5817807149
 30
0.0
 40
31.1732916472
100
AcDbArc
 50
166.3728196664
 51
193.6271803336
  0
LINE
  5
D5
100
AcDbEntity
  8
TA900_ISI_B_DN10
  6
CONTINUOUS
 62
         7
100
AcDbLine
 10
57.2818776494
 20
137.9317807149
 30
0.0
 11
49.6820056711
 21
135.1656535305
 31
0.0
  0
LINE
  5
D6
100
AcDbEntity
  8
TA900_ISI_B_DN10
  6
CONTINUOUS
 62
         7
100
AcDbLine
 10
8.7138627665
 20
138.5817807149
 30
0.0
 11
8.5318776494
 21
138.0817807149
 31
0.0
  0
LINE
  5
D7
100
AcDbEntity
  8
TA900_ISI_B_DN10
  6
CONTINUOUS
 62
         7
100
AcDbLine
 10
80.5318776494
 20
121.5817807149
 30
0.0
 11
67.5318776494
 21
121.5817807149
 31
0.0
  0
LINE
  5
D8
100
AcDbEntity
  8
TA900_ISI_B_DN10
  6
CONTINUOUS
 62
         7
100
AcDbLine
 10
80.5318776494
 20
133.5817807149
 30
0.0
 11
67.5318776494
 21
133.5817807149
 31
0.0
  0
LINE
  5
D9
100
AcDbEntity
  8
TA900_ISI_B_DN10
  6
CONTINUOUS
 62
         7
100
AcDbLine
 10
83.5318776494
 20
130.5817807149
 30
0.0
 11
83.5318776494
 21
124.5817807149
 31
0.0
  0
ARC
  5
DA
100
AcDbEntity
  8
TA900_ISI_B_DN10
  6
CONTINUOUS
 62
         7
100
AcDbCircle
 10
80.5318776494
 20
130.5817807149
 30
0.0
 40
3.0
100
AcDbArc
 50
0.0
 51
90.0
  0
ARC
  5
DB
100
AcDbEntity
  8
TA900_ISI_B_DN10
  6
CONTINUOUS
 62
         7
100
AcDbCircle
 10
80.5318776494
 20
124.5817807149
 30
0.0
 40
3.0
100
AcDbArc
 50
270.0
 51
360.0
  0
LINE
  5
DC
100
AcDbEntity
  8
TA900_ISI_B_DN10
  6
CONTINUOUS
 62
         7
100
AcDbLine
 10
67.3498925323
 20
116.5817807149
 30
0.0
 11
67.5318776494
 21
117.0817807149
 31
0.0
  0
LINE
  5
DD
100
AcDbEntity
  8
TA900_ISI_B_DN10
  6
CONTINUOUS
 62
         7
100
AcDbLine
 10
18.7818776494
 20
117.2317807149
 30
0.0
 11
26.3817496277
 21
119.9979078992
 31
0.0
  0
LINE
  5
DE
100
AcDbEntity
  8
TA900_ISI_B_DN10
  6
CONTINUOUS
 62
         7
100
AcDbLine
 10
18.7818776494
 20
137.9317807149
 30
0.0
 11
16.7818776494
 21
137.9317807149
 31
0.0
  0
LINE
  5
DF
100
AcDbEntity
  8
TA900_ISI_B_DN10
  6
CONTINUOUS
 62
         7
100
AcDbLine
 10
59.2818776494
 20
137.9317807149
 30
0.0
 11
57.2818776494
 21
137.9317807149
 31
0.0
  0
LINE
  5
E0
100
AcDbEntity
  8
TA900_ISI_B_DN10
  6
CONTINUOUS
 62
         7
100
AcDbLine
 10
16.5452969971
 20
116.5817807149
 30
0.0
 11
16.7818776494
 21
117.2317807149
 31
0.0
  0
LINE
  5
E1
100
AcDbEntity
  8
TA900_ISI_B_DN10
  6
CONTINUOUS
 62
         7
100
AcDbLine
 10
59.5184583017
 20
138.5817807149
 30
0.0
 11
59.2818776494
 21
137.9317807149
 31
0.0
  0
LINE
  5
E2
100
AcDbEntity
  8
TA900_ISI_B_DN10
  6
CONTINUOUS
 62
         7
100
AcDbLine
 10
49.6823105684
 20
119.9977969256
 30
0.0
 11
57.2818776494
 21
117.2317807149
 31
0.0
  0
LINE
  5
E3
100
AcDbEntity
  8
TA900_ISI_B_DN10
  6
CONTINUOUS
 62
         7
100
AcDbLine
 10
8.5318776494
 20
117.0817807149
 30
0.0
 11
8.7138627665
 21
116.5817807149
 31
0.0
  0
ARC
  5
E4
100
AcDbEntity
  8
TA900_ISI_B_DN10
  6
CONTINUOUS
 62
         7
100
AcDbCircle
 10
38.0318776494
 20
127.5817807149
 30
0.0
 40
14.9
100
AcDbArc
 50
212.1732149215
 51
327.8267850785
  0
ARC
  5
E5
100
AcDbEntity
  8
TA900_ISI_B_DN10
  6
CONTINUOUS
 62
         7
100
AcDbCircle
 10
42.3953626603
 20
133.0817807149
 30
0.0
 40
24.9489476981
100
AcDbArc
 50
347.2645244266
 51
12.7354755734
  0
LINE
  5
E6
100
AcDbEntity
  8
TA900_ISI_B_DN10
  6
CONTINUOUS
 62
         7
100
AcDbLine
 10
66.7305222291
 20
127.5817807149
 30
0.0
 11
60.1378286048
 21
127.5817807149
 31
0.0
  0
LINE
  5
E7
100
AcDbEntity
  8
TA900_ISI_B_DN10
  6
CONTINUOUS
 62
         7
100
AcDbLine
 10
67.5318776494
 20
138.0817807149
 30
0.0
 11
67.3498925323
 21
138.5817807149
 31
0.0
  0
LINE
  5
E8
100
AcDbEntity
  8
TA900_ISI_B_DN10
  6
CONTINUOUS
 62
         7
100
AcDbLine
 10
26.3814447304
 20
135.1657645041
 30
0.0
 11
18.7818776494
 21
137.9317807149
 31
0.0
  0
LINE
  5
E9
100
AcDbEntity
  8
TA900_ISI_B_DN10
  6
CONTINUOUS
 62
         7
100
AcDbLine
 10
16.7818776494
 20
117.2317807149
 30
0.0
 11
18.7818776494
 21
117.2317807149
 31
0.0
  0
LINE
  5
EA
100
AcDbEntity
  8
TA900_ISI_B_DN10
  6
CONTINUOUS
 62
         7
100
AcDbLine
 10
57.2818776494
 20
117.2317807149
 30
0.0
 11
59.2818776494
 21
117.2317807149
 31
0.0
  0
LINE
  5
EB
100
AcDbEntity
  8
TA900_ISI_B_DN10
  6
CONTINUOUS
 62
         7
100
AcDbLine
 10
16.7818776494
 20
137.9317807149
 30
0.0
 11
16.5452969971
 21
138.5817807149
 31
0.0
  0
LINE
  5
EC
100
AcDbEntity
  8
TA900_ISI_B_DN10
  6
CONTINUOUS
 62
         7
100
AcDbLine
 10
59.2818776494
 20
117.2317807149
 30
0.0
 11
59.5184583017
 21
116.5817807149
 31
0.0
  0
LINE
  5
ED
100
AcDbEntity
  8
TA900_ISI_B_DN10
  6
CONTINUOUS
 62
         7
100
AcDbLine
 10
36.4072085123
 20
139.8817807149
 30
0.0
 11
35.7481296346
 21
139.8817807149
 31
0.0
  0
LINE
  5
EE
100
AcDbEntity
  8
TA900_ISI_B_DN10
  6
CONTINUOUS
 62
         7
100
AcDbLine
 10
37.3918564742
 20
139.8817807149
 30
0.0
 11
37.3013323874
 21
139.8817807149
 31
0.0
  0
LINE
  5
EF
100
AcDbEntity
  8
TA900_ISI_B_DN10
  6
CONTINUOUS
 62
         7
100
AcDbLine
 10
36.4072085123
 20
139.8817807149
 30
0.0
 11
36.4072085123
 21
139.5817807149
 31
0.0
  0
LINE
  5
F0
100
AcDbEntity
  8
TA900_ISI_B_DN10
  6
CONTINUOUS
 62
         7
100
AcDbLine
 10
37.3013323874
 20
139.8817807149
 30
0.0
 11
37.3013323874
 21
139.5817807149
 31
0.0
  0
LINE
  5
F1
100
AcDbEntity
  8
TA900_ISI_B_DN10
  6
CONTINUOUS
 62
         7
100
AcDbLine
 10
37.3013323874
 20
139.8817807149
 30
0.0
 11
36.4072085123
 21
139.8817807149
 31
0.0
  0
LINE
  5
F2
100
AcDbEntity
  8
TA900_ISI_B_DN10
  6
CONTINUOUS
 62
         7
100
AcDbLine
 10
35.7481296346
 20
139.8817807149
 30
0.0
 11
35.7481296346
 21
139.5817807149
 31
0.0
  0
LINE
  5
F3
100
AcDbEntity
  8
TA900_ISI_B_DN10
  6
CONTINUOUS
 62
         7
100
AcDbLine
 10
37.3918564742
 20
139.8817807149
 30
0.0
 11
38.8799454101
 21
139.8817807149
 31
0.0
  0
LINE
  5
F4
100
AcDbEntity
  8
TA900_ISI_B_DN10
  6
CONTINUOUS
 62
         7
100
AcDbLine
 10
39.1134022656
 20
139.8817807149
 30
0.0
 11
39.4183255054
 21
139.8817807149
 31
0.0
  0
LINE
  5
F5
100
AcDbEntity
  8
TA900_ISI_B_DN10
  6
CONTINUOUS
 62
         7
100
AcDbLine
 10
39.4183255054
 20
139.8817807149
 30
0.0
 11
40.3664462042
 21
139.8817807149
 31
0.0
  0
LINE
  5
F6
100
AcDbEntity
  8
TA900_ISI_B_DN10
  6
CONTINUOUS
 62
         7
100
AcDbLine
 10
38.8799454101
 20
139.8817807149
 30
0.0
 11
39.1134022656
 21
139.8817807149
 31
0.0
  0
LINE
  5
F7
100
AcDbEntity
  8
TA900_ISI_B_DN10
  6
CONTINUOUS
 62
         7
100
AcDbLine
 10
40.3664462042
 20
139.8817807149
 30
0.0
 11
40.3664462042
 21
139.5817807149
 31
0.0
  0
LINE
  5
F8
100
AcDbEntity
  8
TA900_ISI_B_DN10
  6
CONTINUOUS
 62
         7
100
AcDbLine
 10
39.4183255054
 20
139.8817807149
 30
0.0
 11
39.4183255054
 21
139.5817807149
 31
0.0
  0
LINE
  5
F9
100
AcDbEntity
  8
TA900_ISI_B_DN10
  6
CONTINUOUS
 62
         7
100
AcDbLine
 10
39.1134022656
 20
139.8817807149
 30
0.0
 11
39.1134022656
 21
139.5817807149
 31
0.0
  0
LINE
  5
FA
100
AcDbEntity
  8
TA900_ISI_B_DN10
  6
CONTINUOUS
 62
         7
100
AcDbLine
 10
38.8799454101
 20
139.8817807149
 30
0.0
 11
38.8799454101
 21
139.5817807149
 31
0.0
  0
LINE
  5
FB
100
AcDbEntity
  8
TA900_ISI_B_DN10
  6
CONTINUOUS
 62
         7
100
AcDbLine
 10
37.3918564742
 20
139.8817807149
 30
0.0
 11
37.3918564742
 21
139.5817807149
 31
0.0
  0
ARC
  5
FC
100
AcDbEntity
  8
TA900_ISI_B_DN10
  6
CONTINUOUS
 62
         7
100
AcDbCircle
 10
38.0318776494
 20
127.5817807149
 30
0.0
 40
16.15
100
AcDbArc
 50
31.218250299
 51
148.781749701
  0
ARC
  5
FD
100
AcDbEntity
  8
TA900_ISI_B_DN10
  6
CONTINUOUS
 62
         7
100
AcDbCircle
 10
38.0318776494
 20
127.5817807149
 30
0.0
 40
16.15
100
AcDbArc
 50
211.218250299
 51
328.781749701
  0
ARC
  5
FE
100
AcDbEntity
  8
TA900_ISI_B_DN10
  6
CONTINUOUS
 62
         7
100
AcDbCircle
 10
38.0318776494
 20
127.5817807149
 30
0.0
 40
14.9
100
AcDbArc
 50
32.1732149215
 51
147.8267850785
  0
ARC
  5
FF
100
AcDbEntity
  8
TA900_ISI_B_DN10
  6
CONTINUOUS
 62
         7
100
AcDbCircle
 10
19.5373181519
 20
127.5817807149
 30
0.0
 40
31.1732916472
100
AcDbArc
 50
346.3728196664
 51
13.6271803336
  0
LINE
  5
100
100
AcDbEntity
  8
TA900_ISI_B_DN10
  6
CONTINUOUS
 62
         7
100
AcDbLine
 10
9.3332330697
 20
138.5817807149
 30
0.0
 11
8.7138639186
 21
138.5817807149
 31
0.0
  0
LINE
  5
101
100
AcDbEntity
  8
TA900_ISI_B_DN10
  6
CONTINUOUS
 62
         7
100
AcDbLine
 10
59.5184594633
 20
116.5817807149
 30
0.0
 11
60.1378286048
 21
116.5817807149
 31
0.0
  0
ARC
  5
102
100
AcDbEntity
  8
TA900_ISI_B_DN10
  6
CONTINUOUS
 62
         7
100
AcDbCircle
 10
-8.4092328749
 20
133.0817807149
 30
0.0
 40
24.9489476981
100
AcDbArc
 50
347.2645244266
 51
12.7354755734
  0
LINE
  5
103
100
AcDbEntity
  8
TA900_ISI_B_DN10
  6
CONTINUOUS
 62
         7
100
AcDbLine
 10
16.5452958355
 20
138.5817807149
 30
0.0
 11
15.925926694
 21
138.5817807149
 31
0.0
  0
LINE
  5
104
100
AcDbEntity
  8
TA900_ISI_B_DN10
  6
CONTINUOUS
 62
         7
100
AcDbLine
 10
16.5452958355
 20
116.5817807149
 30
0.0
 11
15.925926694
 21
116.5817807149
 31
0.0
  0
LINE
  5
105
100
AcDbEntity
  8
TA900_ISI_B_DN10
  6
CONTINUOUS
 62
         7
100
AcDbLine
 10
15.925926694
 20
138.5817807149
 30
0.0
 11
9.3332330697
 21
138.5817807149
 31
0.0
  0
ARC
  5
106
100
AcDbEntity
  8
TA900_ISI_B_DN10
  6
CONTINUOUS
 62
         7
100
AcDbCircle
 10
84.4729881737
 20
122.0817807149
 30
0.0
 40
24.9489476981
100
AcDbArc
 50
167.2645244266
 51
192.7354755734
  0
ARC
  5
107
100
AcDbEntity
  8
TA900_ISI_B_DN10
  6
CONTINUOUS
 62
         7
100
AcDbCircle
 10
38.0318776494
 20
127.5817807149
 30
0.0
 40
13.9
100
AcDbArc
 50
211.8962786426
 51
239.6902124984
  0
LINE
  5
108
100
AcDbEntity
  8
TA900_ISI_B_DN10
  6
CONTINUOUS
 62
         7
100
AcDbLine
 10
45.0468616123
 20
115.5817807149
 30
0.0
 11
31.0168936865
 21
115.5817807149
 31
0.0
  0
ARC
  5
109
100
AcDbEntity
  8
TA900_ISI_B_DN10
  6
CONTINUOUS
 62
         7
100
AcDbCircle
 10
38.0318776494
 20
127.5817807149
 30
0.0
 40
13.9
100
AcDbArc
 50
300.3097875016
 51
328.1037213574
  0
LINE
  5
10A
100
AcDbEntity
  8
TA900_ISI_B_DN10
  6
CONTINUOUS
 62
         7
100
AcDbLine
 10
8.5318776494
 20
117.0817807149
 30
0.0
 11
8.5318776494
 21
138.0817807149
 31
0.0
  0
LINE
  5
10B
100
AcDbEntity
  8
TA900_ISI_B_DN10
  6
CONTINUOUS
 62
         7
100
AcDbLine
 10
16.7818776494
 20
117.2317807149
 30
0.0
 11
16.7818776494
 21
137.9317807149
 31
0.0
  0
ARC
  5
10C
100
AcDbEntity
  8
TA900_ISI_B_DN10
  6
CONTINUOUS
 62
         7
100
AcDbCircle
 10
38.0318776494
 20
127.5817807149
 30
0.0
 40
13.9
100
AcDbArc
 50
120.3097875016
 51
148.1037213574
  0
LINE
  5
10D
100
AcDbEntity
  8
TA900_ISI_B_DN10
  6
CONTINUOUS
 62
         7
100
AcDbLine
 10
31.0168936865
 20
139.5817807149
 30
0.0
 11
31.0168936865
 21
115.5817807149
 31
0.0
  0
LINE
  5
10E
100
AcDbEntity
  8
TA900_ISI_B_DN10
  6
CONTINUOUS
 62
         7
100
AcDbLine
 10
45.0468616123
 20
139.5817807149
 30
0.0
 11
31.0168936865
 21
139.5817807149
 31
0.0
  0
ARC
  5
10F
100
AcDbEntity
  8
TA900_ISI_B_DN10
  6
CONTINUOUS
 62
         7
100
AcDbCircle
 10
38.0318776494
 20
127.5817807149
 30
0.0
 40
13.9
100
AcDbArc
 50
31.8962786426
 51
59.6902124984
  0
LINE
  5
110
100
AcDbEntity
  8
TA900_ISI_B_DN10
  6
CONTINUOUS
 62
         7
100
AcDbLine
 10
45.0468616123
 20
139.5817807149
 30
0.0
 11
45.0468616123
 21
115.5817807149
 31
0.0
  0
LINE
  5
111
100
AcDbEntity
  8
TA900_ISI_B_DN10
  6
CONTINUOUS
 62
         7
100
AcDbLine
 10
18.7818776494
 20
117.2317807149
 30
0.0
 11
18.7818776494
 21
137.9317807149
 31
0.0
  0
LINE
  5
112
100
AcDbEntity
  8
TA900_ISI_B_DN10
  6
CONTINUOUS
 62
         7
100
AcDbLine
 10
57.2818776494
 20
117.2317807149
 30
0.0
 11
57.2818776494
 21
137.9317807149
 31
0.0
  0
LINE
  5
113
100
AcDbEntity
  8
TA900_ISI_B_DN10
  6
CONTINUOUS
 62
         7
100
AcDbLine
 10
67.5318776494
 20
117.0817807149
 30
0.0
 11
67.5318776494
 21
138.0817807149
 31
0.0
  0
LINE
  5
114
100
AcDbEntity
  8
TA900_ISI_B_DN10
  6
CONTINUOUS
 62
         7
100
AcDbLine
 10
9.3332330697
 20
116.5817807149
 30
0.0
 11
8.7138639186
 21
116.5817807149
 31
0.0
  0
ARC
  5
115
100
AcDbEntity
  8
TA900_ISI_B_DN10
  6
CONTINUOUS
 62
         7
100
AcDbCircle
 10
33.6683926385
 20
122.0817807149
 30
0.0
 40
24.9489476981
100
AcDbArc
 50
167.2645244266
 51
192.7354755734
  0
LINE
  5
116
100
AcDbEntity
  8
TA900_ISI_B_DN10
  6
CONTINUOUS
 62
         7
100
AcDbLine
 10
59.2818776494
 20
117.2317807149
 30
0.0
 11
59.2818776494
 21
137.9317807149
 31
0.0
  0
ENDBLK
  5
117
100
AcDbEntity
  8
TA900_ISI_B_DN10
  6
CONTINUOUS
 62
         7
100
AcDbBlockEnd
  0
BLOCK
  5
153
100
AcDbEntity
  8
0
 62
         1
 48
0.0
100
AcDbBlockBegin
  2
SE4
 70
         0
 10
0.0
 20
0.0
 30
0.0
  3
SE4
  1

  0
ENDBLK
  5
154
100
AcDbEntity
  8
0
 62
         1
 48
0.0
100
AcDbBlockEnd
  0
BLOCK
  5
11A
100
AcDbEntity
  8
0
 62
         1
 48
0.0
100
AcDbBlockBegin
  2
SE5
 70
         0
 10
0.0
 20
0.0
 30
0.0
  3
SE5
  1

  0
LINE
  5
11B
100
AcDbEntity
  8
TA900_ISI_B_DN10
  6
CONTINUOUS
 62
         7
100
AcDbLine
 10
175.3802855743
 20
127.5817807149
 30
0.0
 11
169.0294326132
 21
138.5817807149
 31
0.0
  0
LINE
  5
11C
100
AcDbEntity
  8
TA900_ISI_B_DN10
  6
CONTINUOUS
 62
         7
100
AcDbLine
 10
156.3785796521
 20
112.6817807149
 30
0.0
 11
157.1556323102
 21
115.5817807149
 31
0.0
  0
LINE
  5
11D
100
AcDbEntity
  8
TA900_ISI_B_DN10
  6
CONTINUOUS
 62
         7
100
AcDbLine
 10
132.1785796521
 20
116.8317807149
 30
0.0
 11
132.1785796521
 21
138.3317807149
 31
0.0
  0
LINE
  5
11E
100
AcDbEntity
  8
TA900_ISI_B_DN10
  6
CONTINUOUS
 62
         7
100
AcDbLine
 10
117.1785796521
 20
133.5817807149
 30
0.0
 11
121.3271748917
 21
133.5817807149
 31
0.0
  0
LINE
  5
11F
100
AcDbEntity
  8
TA900_ISI_B_DN10
  6
CONTINUOUS
 62
         7
100
AcDbLine
 10
125.2633503496
 20
133.5817807149
 30
0.0
 11
130.6785796521
 21
133.5817807149
 31
0.0
  0
LINE
  5
120
100
AcDbEntity
  8
TA900_ISI_B_DN10
  6
CONTINUOUS
 62
         7
100
AcDbLine
 10
130.6785796521
 20
130.5817807149
 30
0.0
 11
130.6785796521
 21
124.5817807149
 31
0.0
  0
LINE
  5
121
100
AcDbEntity
  8
TA900_ISI_B_DN10
  6
CONTINUOUS
 62
         7
100
AcDbLine
 10
121.3271748917
 20
133.5817807149
 30
0.0
 11
125.2633503496
 21
133.5817807149
 31
0.0
  0
LINE
  5
122
100
AcDbEntity
  8
TA900_ISI_B_DN10
  6
CONTINUOUS
 62
         7
100
AcDbLine
 10
121.3271748917
 20
121.5817807149
 30
0.0
 11
117.1785796521
 21
121.5817807149
 31
0.0
  0
LINE
  5
123
100
AcDbEntity
  8
TA900_ISI_B_DN10
  6
CONTINUOUS
 62
         7
100
AcDbLine
 10
125.2633503496
 20
121.5817807149
 30
0.0
 11
121.3271748917
 21
121.5817807149
 31
0.0
  0
LINE
  5
124
100
AcDbEntity
  8
TA900_ISI_B_DN10
  6
CONTINUOUS
 62
         7
100
AcDbLine
 10
130.6785796521
 20
133.5817807149
 30
0.0
 11
130.6785796521
 21
130.5817807149
 31
0.0
  0
LINE
  5
125
100
AcDbEntity
  8
TA900_ISI_B_DN10
  6
CONTINUOUS
 62
         7
100
AcDbLine
 10
130.6785796521
 20
121.5817807149
 30
0.0
 11
125.2633503496
 21
121.5817807149
 31
0.0
  0
LINE
  5
126
100
AcDbEntity
  8
TA900_ISI_B_DN10
  6
CONTINUOUS
 62
         7
100
AcDbLine
 10
130.6785796521
 20
124.5817807149
 30
0.0
 11
130.6785796521
 21
121.5817807149
 31
0.0
  0
LINE
  5
127
100
AcDbEntity
  8
TA900_ISI_B_DN10
  6
CONTINUOUS
 62
         7
100
AcDbLine
 10
157.1556323102
 20
139.5817807149
 30
0.0
 11
156.3785796521
 21
142.4817807149
 31
0.0
  0
LINE
  5
128
100
AcDbEntity
  8
TA900_ISI_B_DN10
  6
CONTINUOUS
 62
         7
100
AcDbLine
 10
142.1785796521
 20
143.5317807149
 30
0.0
 11
139.4885588333
 21
143.5317807149
 31
0.0
  0
LINE
  5
129
100
AcDbEntity
  8
TA900_ISI_B_DN10
  6
CONTINUOUS
 62
         7
100
AcDbLine
 10
142.1785796521
 20
111.4317807149
 30
0.0
 11
147.0785796521
 21
111.4317807149
 31
0.0
  0
LINE
  5
12A
100
AcDbEntity
  8
TA900_ISI_B_DN10
  6
CONTINUOUS
 62
         7
100
AcDbLine
 10
147.0785796521
 20
111.4317807149
 30
0.0
 11
148.3285796521
 21
112.6817807149
 31
0.0
  0
LINE
  5
12B
100
AcDbEntity
  8
TA900_ISI_B_DN10
  6
CONTINUOUS
 62
         7
100
AcDbLine
 10
148.3285796521
 20
112.6817807149
 30
0.0
 11
156.3785796521
 21
112.6817807149
 31
0.0
  0
LINE
  5
12C
100
AcDbEntity
  8
TA900_ISI_B_DN10
  6
CONTINUOUS
 62
         7
100
AcDbLine
 10
114.1785796521
 20
130.5817807149
 30
0.0
 11
114.1785796521
 21
124.5817807149
 31
0.0
  0
ARC
  5
12D
100
AcDbEntity
  8
TA900_ISI_B_DN10
  6
CONTINUOUS
 62
         7
100
AcDbCircle
 10
117.1785796521
 20
130.5817807149
 30
0.0
 40
3.0
100
AcDbArc
 50
90.0
 51
180.0
  0
ARC
  5
12E
100
AcDbEntity
  8
TA900_ISI_B_DN10
  6
CONTINUOUS
 62
         7
100
AcDbCircle
 10
117.1785796521
 20
124.5817807149
 30
0.0
 40
3.0
100
AcDbArc
 50
180.0
 51
270.0
  0
ARC
  5
12F
100
AcDbEntity
  8
TA900_ISI_B_DN10
  6
CONTINUOUS
 62
         7
100
AcDbCircle
 10
129.6785796521
 20
127.5817807149
 30
0.0
 40
10.75
100
AcDbArc
 50
90.0
 51
146.0727684153
  0
ARC
  5
130
100
AcDbEntity
  8
TA900_ISI_B_DN10
  6
CONTINUOUS
 62
         7
100
AcDbCircle
 10
129.6785796521
 20
127.5817807149
 30
0.0
 40
10.75
100
AcDbArc
 50
213.9272315847
 51
270.0
  0
LINE
  5
131
100
AcDbEntity
  8
TA900_ISI_B_DN10
  6
CONTINUOUS
 62
         7
100
AcDbLine
 10
132.1785796521
 20
138.3317807149
 30
0.0
 11
129.6785796521
 21
138.3317807149
 31
0.0
  0
LINE
  5
132
100
AcDbEntity
  8
TA900_ISI_B_DN10
  6
CONTINUOUS
 62
         7
100
AcDbLine
 10
156.3785796521
 20
116.576276162
 30
0.0
 11
156.3785796521
 21
112.6817807149
 31
0.0
  0
LINE
  5
133
100
AcDbEntity
  8
TA900_ISI_B_DN10
  6
CONTINUOUS
 62
         7
100
AcDbLine
 10
139.4885588333
 20
111.6317807149
 30
0.0
 11
142.1785796521
 21
111.6317807149
 31
0.0
  0
LINE
  5
134
100
AcDbEntity
  8
TA900_ISI_B_DN10
  6
CONTINUOUS
 62
         7
100
AcDbLine
 10
147.0785796521
 20
143.7317807149
 30
0.0
 11
142.1785796521
 21
143.7317807149
 31
0.0
  0
LINE
  5
135
100
AcDbEntity
  8
TA900_ISI_B_DN10
  6
CONTINUOUS
 62
         7
100
AcDbLine
 10
148.3285796521
 20
142.4817807149
 30
0.0
 11
147.0785796521
 21
143.7317807149
 31
0.0
  0
LINE
  5
136
100
AcDbEntity
  8
TA900_ISI_B_DN10
  6
CONTINUOUS
 62
         7
100
AcDbLine
 10
156.3785796521
 20
142.4817807149
 30
0.0
 11
148.3285796521
 21
142.4817807149
 31
0.0
  0
LINE
  5
137
100
AcDbEntity
  8
TA900_ISI_B_DN10
  6
CONTINUOUS
 62
         7
100
AcDbLine
 10
129.6785796521
 20
116.8317807149
 30
0.0
 11
132.1785796521
 21
116.8317807149
 31
0.0
  0
LINE
  5
138
100
AcDbEntity
  8
TA900_ISI_B_DN10
  6
CONTINUOUS
 62
         7
100
AcDbLine
 10
159.5060015685
 20
139.8817807149
 30
0.0
 11
158.6785796521
 21
139.8817807149
 31
0.0
  0
LINE
  5
139
100
AcDbEntity
  8
TA900_ISI_B_DN10
  6
CONTINUOUS
 62
         7
100
AcDbLine
 10
161.6785796521
 20
139.8817807149
 30
0.0
 11
159.5060015685
 21
139.8817807149
 31
0.0
  0
LINE
  5
13A
100
AcDbEntity
  8
TA900_ISI_B_DN10
  6
CONTINUOUS
 62
         7
100
AcDbLine
 10
161.6785796521
 20
139.8817807149
 30
0.0
 11
161.6785796521
 21
139.5817807149
 31
0.0
  0
LINE
  5
13B
100
AcDbEntity
  8
TA900_ISI_B_DN10
  6
CONTINUOUS
 62
         7
100
AcDbLine
 10
159.5060015685
 20
139.8817807149
 30
0.0
 11
159.5060015685
 21
139.5817807149
 31
0.0
  0
LINE
  5
13C
100
AcDbEntity
  8
TA900_ISI_B_DN10
  6
CONTINUOUS
 62
         7
100
AcDbLine
 10
158.6785796521
 20
139.8817807149
 30
0.0
 11
158.6785796521
 21
139.5817807149
 31
0.0
  0
LINE
  5
13D
100
AcDbEntity
  8
TA900_ISI_B_DN10
  6
CONTINUOUS
 62
         7
100
AcDbLine
 10
132.1885588333
 20
139.5817807149
 30
0.0
 11
132.1885588333
 21
127.5817807149
 31
0.0
  0
LINE
  5
13E
100
AcDbEntity
  8
TA900_ISI_B_DN10
  6
CONTINUOUS
 62
         7
100
AcDbLine
 10
132.1885588333
 20
127.5817807149
 30
0.0
 11
132.1885588333
 21
115.5817807149
 31
0.0
  0
LINE
  5
13F
100
AcDbEntity
  8
TA900_ISI_B_DN10
  6
CONTINUOUS
 62
         7
100
AcDbLine
 10
132.1885588333
 20
115.5817807149
 30
0.0
 11
139.4885588333
 21
115.5817807149
 31
0.0
  0
LINE
  5
140
100
AcDbEntity
  8
TA900_ISI_B_DN10
  6
CONTINUOUS
 62
         7
100
AcDbLine
 10
132.1885588333
 20
139.5817807149
 30
0.0
 11
139.4885588333
 21
139.5817807149
 31
0.0
  0
LINE
  5
141
100
AcDbEntity
  8
TA900_ISI_B_DN10
  6
CONTINUOUS
 62
         7
100
AcDbLine
 10
132.1885588333
 20
127.5817807149
 30
0.0
 11
139.4885588333
 21
127.5817807149
 31
0.0
  0
LINE
  5
142
100
AcDbEntity
  8
TA900_ISI_B_DN10
  6
CONTINUOUS
 62
         7
100
AcDbLine
 10
139.4885588333
 20
111.6317807149
 30
0.0
 11
139.4885588333
 21
143.5317807149
 31
0.0
  0
LINE
  5
143
100
AcDbEntity
  8
TA900_ISI_B_DN10
  6
CONTINUOUS
 62
         7
100
AcDbLine
 10
142.1785796521
 20
143.7317807149
 30
0.0
 11
142.1785796521
 21
111.4317807149
 31
0.0
  0
LINE
  5
144
100
AcDbEntity
  8
TA900_ISI_B_DN10
  6
CONTINUOUS
 62
         7
100
AcDbLine
 10
148.3285796521
 20
142.4817807149
 30
0.0
 11
148.3285796521
 21
112.6817807149
 31
0.0
  0
LINE
  5
145
100
AcDbEntity
  8
TA900_ISI_B_DN10
  6
CONTINUOUS
 62
         7
100
AcDbLine
 10
147.0785796521
 20
143.7317807149
 30
0.0
 11
147.0785796521
 21
111.4317807149
 31
0.0
  0
LINE
  5
146
100
AcDbEntity
  8
TA900_ISI_B_DN10
  6
CONTINUOUS
 62
         7
100
AcDbLine
 10
156.6465288446
 20
139.5817807149
 30
0.0
 11
156.6465288446
 21
138.5919870998
 31
0.0
  0
LINE
  5
147
100
AcDbEntity
  8
TA900_ISI_B_DN10
  6
CONTINUOUS
 62
         7
100
AcDbLine
 10
156.3785796521
 20
142.4817807149
 30
0.0
 11
156.3785796521
 21
138.5911217413
 31
0.0
  0
LINE
  5
148
100
AcDbEntity
  8
TA900_ISI_B_DN10
  6
CONTINUOUS
 62
         7
100
AcDbLine
 10
169.0294326132
 20
138.5817807149
 30
0.0
 11
156.327726691
 21
138.5817807149
 31
0.0
  0
LINE
  5
149
100
AcDbEntity
  8
TA900_ISI_B_DN10
  6
CONTINUOUS
 62
         7
100
AcDbLine
 10
156.6465288446
 20
139.5817807149
 30
0.0
 11
164.7785796521
 21
139.5817807149
 31
0.0
  0
LINE
  5
14A
100
AcDbEntity
  8
TA900_ISI_B_DN10
  6
CONTINUOUS
 62
         7
100
AcDbLine
 10
156.6465288446
 20
115.5817807149
 30
0.0
 11
164.7785796521
 21
115.5817807149
 31
0.0
  0
LINE
  5
14B
100
AcDbEntity
  8
TA900_ISI_B_DN10
  6
CONTINUOUS
 62
         7
100
AcDbLine
 10
156.6465288446
 20
116.5792557632
 30
0.0
 11
156.6465288446
 21
115.5817807149
 31
0.0
  0
ARC
  5
14C
100
AcDbEntity
  8
TA900_ISI_B_DN10
  6
CONTINUOUS
 62
         7
100
AcDbCircle
 10
164.7785796521
 20
127.5817807149
 30
0.0
 40
12.0
100
AcDbArc
 50
270.0
 51
90.0
  0
CIRCLE
  5
14D
100
AcDbEntity
  8
TA900_ISI_B_DN10
  6
CONTINUOUS
 62
         7
100
AcDbCircle
 10
162.6785796521
 20
127.5817807149
 30
0.0
 40
10.5
  0
LINE
  5
14E
100
AcDbEntity
  8
TA900_ISI_B_DN10
  6
CONTINUOUS
 62
         7
100
AcDbLine
 10
156.327726691
 20
138.5817807149
 30
0.0
 11
149.97687373
 21
127.5817807149
 31
0.0
  0
LINE
  5
14F
100
AcDbEntity
  8
TA900_ISI_B_DN10
  6
CONTINUOUS
 62
         7
100
AcDbLine
 10
149.97687373
 20
127.5817807149
 30
0.0
 11
156.327726691
 21
116.5817807149
 31
0.0
  0
LINE
  5
150
100
AcDbEntity
  8
TA900_ISI_B_DN10
  6
CONTINUOUS
 62
         7
100
AcDbLine
 10
156.327726691
 20
116.5817807149
 30
0.0
 11
169.0294326132
 21
116.5817807149
 31
0.0
  0
LINE
  5
151
100
AcDbEntity
  8
TA900_ISI_B_DN10
  6
CONTINUOUS
 62
         7
100
AcDbLine
 10
169.0294326132
 20
116.5817807149
 30
0.0
 11
175.3802855743
 21
127.5817807149
 31
0.0
  0
ENDBLK
  5
152
100
AcDbEntity
  8
TA900_ISI_B_DN10
  6
CONTINUOUS
 62
         7
100
AcDbBlockEnd
  0
BLOCK
  5
1B6
100
AcDbEntity
  8
0
 62
         1
 48
0.0
100
AcDbBlockBegin
  2
SE6
 70
         0
 10
0.0
 20
0.0
 30
0.0
  3
SE6
  1

  0
ENDBLK
  5
1B7
100
AcDbEntity
  8
0
 62
         1
 48
0.0
100
AcDbBlockEnd
  0
BLOCK
  5
155
100
AcDbEntity
  8
0
 62
         1
 48
0.0
100
AcDbBlockBegin
  2
SE7
 70
         0
 10
0.0
 20
0.0
 30
0.0
  3
SE7
  1

  0
LINE
  5
156
100
AcDbEntity
  8
TA900_ISI_B_DN10
  6
CONTINUOUS
 62
         7
100
AcDbLine
 10
172.542152788
 20
33.5114759114
 30
0.0
 11
179.1348464123
 21
33.5114759114
 31
0.0
  0
LINE
  5
157
100
AcDbEntity
  8
TA900_ISI_B_DN10
  6
CONTINUOUS
 62
         7
100
AcDbLine
 10
172.542152788
 20
39.8623288725
 30
0.0
 11
179.1348464123
 21
39.8623288725
 31
0.0
  0
LINE
  5
158
100
AcDbEntity
  8
TA900_ISI_B_DN10
  6
CONTINUOUS
 62
         7
100
AcDbLine
 10
172.542152788
 20
14.4589170281
 30
0.0
 11
179.1348464123
 21
14.4589170281
 31
0.0
  0
LINE
  5
159
100
AcDbEntity
  8
TA900_ISI_B_DN10
  6
CONTINUOUS
 62
         7
100
AcDbLine
 10
172.542152788
 20
20.8097699892
 30
0.0
 11
179.1348464123
 21
20.8097699892
 31
0.0
  0
LINE
  5
15A
100
AcDbEntity
  8
TA900_ISI_B_DN10
  6
CONTINUOUS
 62
         7
100
AcDbLine
 10
121.7375572528
 20
33.5114759114
 30
0.0
 11
128.3302508772
 21
33.5114759114
 31
0.0
  0
ARC
  5
15B
100
AcDbEntity
  8
TA900_ISI_B_DN10
  6
CONTINUOUS
 62
         7
100
AcDbCircle
 10
120.4024821057
 20
36.6869023919
 30
0.0
 40
8.5400732448
100
AcDbArc
 50
338.1716867869
 51
21.8283132131
  0
LINE
  5
15C
100
AcDbEntity
  8
TA900_ISI_B_DN10
  6
CONTINUOUS
 62
         7
100
AcDbLine
 10
121.7375572528
 20
20.8097699892
 30
0.0
 11
128.3302508772
 21
20.8097699892
 31
0.0
  0
ARC
  5
15D
100
AcDbEntity
  8
TA900_ISI_B_DN10
  6
CONTINUOUS
 62
         7
100
AcDbCircle
 10
180.4699215595
 20
17.6343435087
 30
0.0
 40
8.5400732448
100
AcDbArc
 50
158.1716867869
 51
201.8283132131
  0
ARC
  5
15E
100
AcDbEntity
  8
TA900_ISI_B_DN10
  6
CONTINUOUS
 62
         7
100
AcDbCircle
 10
129.6653260243
 20
17.6343435087
 30
0.0
 40
8.5400732448
100
AcDbArc
 50
158.1716867869
 51
201.8283132131
  0
ARC
  5
15F
100
AcDbEntity
  8
TA900_ISI_B_DN10
  6
CONTINUOUS
 62
         7
100
AcDbCircle
 10
154.2765013733
 20
27.1606229503
 30
0.0
 40
33.1529217085
100
AcDbArc
 50
168.9560223758
 51
191.0439776242
  0
ARC
  5
160
100
AcDbEntity
  8
TA900_ISI_B_DN10
  6
CONTINUOUS
 62
         7
100
AcDbCircle
 10
129.6653260243
 20
36.6869023919
 30
0.0
 40
8.5400732448
100
AcDbArc
 50
158.1716867869
 51
201.8283132131
  0
LINE
  5
161
100
AcDbEntity
  8
TA900_ISI_B_DN10
  6
CONTINUOUS
 62
         7
100
AcDbLine
 10
143.4212178697
 20
33.1926737578
 30
0.0
 11
143.4212178697
 21
25.0606229503
 31
0.0
  0
SPLINE
  5
162
100
AcDbEntity
  8
TA900_ISI_B_DN10
  6
CONTINUOUS
 62
         7
100
AcDbSpline
210
0.0
220
0.0
230
1.0
 70
         8
 71
         3
 72
        12
 73
         8
 74
         0
 42
0.0
 43
0.0
 40
0.0
 40
0.0
 40
0.0
 40
0.0
 40
0.25
 40
0.25
 40
0.5
 40
0.5
 40
0.5004994918435464
 40
0.5004994918435464
 40
0.5004994918435464
 40
0.5004994918435464
 10
162.23738534205188
 20
25.060622950279811
 30
0.0
 10
162.47506115186883
 20
23.410304163445335
 30
0.0
 10
162.68105406156891
 20
21.932605019900262
 30
0.0
 10
162.97191963722003
 20
19.820555172326721
 30
0.0
 10
163.05170056259837
 20
19.227569050423142
 30
0.0
 10
163.05201157028725
 20
19.225272919007963
 30
0.0
 10
163.05201187330388
 20
19.225270697829458
 30
0.0
 10
163.0520118593009
 20
19.225270832920117
 30
0.0
  0
LINE
  5
163
100
AcDbEntity
  8
TA900_ISI_B_DN10
  6
CONTINUOUS
 62
         7
100
AcDbLine
 10
131.1862018326
 20
16.8106229503
 30
0.0
 11
137.8257223196
 21
19.2272107773
 31
0.0
  0
LINE
  5
164
100
AcDbEntity
  8
TA900_ISI_B_DN10
  6
CONTINUOUS
 62
         7
100
AcDbLine
 10
179.1348464123
 20
14.4589170281
 30
0.0
 11
179.9362018326
 21
16.6606229503
 31
0.0
  0
ARC
  5
165
100
AcDbEntity
  8
TA900_ISI_B_DN10
  6
CONTINUOUS
 62
         7
100
AcDbCircle
 10
150.4362018326
 20
25.0606229503
 30
0.0
 40
13.9
100
AcDbArc
 50
204.7801896228
 51
239.6902124984
  0
LINE
  5
166
100
AcDbEntity
  8
TA900_ISI_B_DN10
  6
CONTINUOUS
 62
         7
100
AcDbLine
 10
139.6862018326
 20
57.6606229503
 30
0.0
 11
161.1862018326
 21
57.6606229503
 31
0.0
  0
LINE
  5
167
100
AcDbEntity
  8
TA900_ISI_B_DN10
  6
CONTINUOUS
 62
         7
100
AcDbLine
 10
107.9362018326
 20
59.1606229503
 30
0.0
 11
141.5164204451
 21
59.1606229503
 31
0.0
  0
ARC
  5
168
100
AcDbEntity
  8
TA900_ISI_B_DN10
  6
CONTINUOUS
 62
         7
100
AcDbCircle
 10
113.9362018326
 20
66.5199967842
 30
0.0
 40
9.0
100
AcDbArc
 50
91.9066627389
 51
180.0
  0
LINE
  5
169
100
AcDbEntity
  8
TA900_ISI_B_DN10
  6
CONTINUOUS
 62
         7
100
AcDbLine
 10
174.9362018326
 20
59.1606229503
 30
0.0
 11
171.9362018326
 21
59.1606229503
 31
0.0
  0
LINE
  5
16A
100
AcDbEntity
  8
TA900_ISI_B_DN10
  6
CONTINUOUS
 62
         7
100
AcDbLine
 10
104.9362018326
 20
59.1606229503
 30
0.0
 11
104.9362018326
 21
66.5199967842
 31
0.0
  0
LINE
  5
16B
100
AcDbEntity
  8
TA900_ISI_B_DN10
  6
CONTINUOUS
 62
         7
100
AcDbLine
 10
107.9362018326
 20
59.1606229503
 30
0.0
 11
104.9362018326
 21
59.1606229503
 31
0.0
  0
ARC
  5
16C
100
AcDbEntity
  8
TA900_ISI_B_DN10
  6
CONTINUOUS
 62
         7
100
AcDbCircle
 10
122.3871376771
 20
-187.3393770497
 30
0.0
 40
263.0
100
AcDbArc
 50
79.7510197288
 51
91.9066627389
  0
ARC
  5
16D
100
AcDbEntity
  8
TA900_ISI_B_DN10
  6
CONTINUOUS
 62
         7
100
AcDbCircle
 10
167.9362018326
 20
64.5758522528
 30
0.0
 40
7.0
100
AcDbArc
 50
0.0
 51
79.7510197288
  0
LINE
  5
16E
100
AcDbEntity
  8
TA900_ISI_B_DN10
  6
CONTINUOUS
 62
         7
100
AcDbLine
 10
174.9362018326
 20
64.5758522528
 30
0.0
 11
174.9362018326
 21
59.1606229503
 31
0.0
  0
LINE
  5
16F
100
AcDbEntity
  8
TA900_ISI_B_DN10
  6
CONTINUOUS
 62
         7
100
AcDbLine
 10
121.7375572528
 20
39.8623288725
 30
0.0
 11
120.9362018326
 21
37.6606229503
 31
0.0
  0
LINE
  5
170
100
AcDbEntity
  8
TA900_ISI_B_DN10
  6
CONTINUOUS
 62
         7
100
AcDbLine
 10
159.35598322
 20
59.1606229503
 30
0.0
 11
171.9362018326
 21
59.1606229503
 31
0.0
  0
LINE
  5
171
100
AcDbEntity
  8
TA900_ISI_B_DN10
  6
CONTINUOUS
 62
         7
100
AcDbLine
 10
166.3862018326
 20
47.6606229503
 30
0.0
 11
166.3862018326
 21
50.3506437692
 31
0.0
  0
LINE
  5
172
100
AcDbEntity
  8
TA900_ISI_B_DN10
  6
CONTINUOUS
 62
         7
100
AcDbLine
 10
134.2862018326
 20
47.6606229503
 30
0.0
 11
134.2862018326
 21
42.7606229503
 31
0.0
  0
LINE
  5
173
100
AcDbEntity
  8
TA900_ISI_B_DN10
  6
CONTINUOUS
 62
         7
100
AcDbLine
 10
134.2862018326
 20
42.7606229503
 30
0.0
 11
135.5362018326
 21
41.5106229503
 31
0.0
  0
LINE
  5
174
100
AcDbEntity
  8
TA900_ISI_B_DN10
  6
CONTINUOUS
 62
         7
100
AcDbLine
 10
143.4212178697
 20
13.0606229503
 30
0.0
 11
157.4511857955
 21
13.0606229503
 31
0.0
  0
LINE
  5
175
100
AcDbEntity
  8
TA900_ISI_B_DN10
  6
CONTINUOUS
 62
         7
100
AcDbLine
 10
169.6862018326
 20
37.5106229503
 30
0.0
 11
165.3330989029
 21
35.9262230572
 31
0.0
  0
LINE
  5
176
100
AcDbEntity
  8
TA900_ISI_B_DN10
  6
CONTINUOUS
 62
         7
100
AcDbLine
 10
169.6862018326
 20
16.8106229503
 30
0.0
 11
171.6862018326
 21
16.8106229503
 31
0.0
  0
LINE
  5
177
100
AcDbEntity
  8
TA900_ISI_B_DN10
  6
CONTINUOUS
 62
         7
100
AcDbLine
 10
129.1862018326
 20
16.8106229503
 30
0.0
 11
131.1862018326
 21
16.8106229503
 31
0.0
  0
LINE
  5
178
100
AcDbEntity
  8
TA900_ISI_B_DN10
  6
CONTINUOUS
 62
         7
100
AcDbLine
 10
172.542152788
 20
39.8623288725
 30
0.0
 11
171.6862018326
 21
37.5106229503
 31
0.0
  0
LINE
  5
179
100
AcDbEntity
  8
TA900_ISI_B_DN10
  6
CONTINUOUS
 62
         7
100
AcDbLine
 10
128.3302508772
 20
14.4589170281
 30
0.0
 11
129.1862018326
 21
16.8106229503
 31
0.0
  0
ARC
  5
17A
100
AcDbEntity
  8
TA900_ISI_B_DN10
  6
CONTINUOUS
 62
         7
100
AcDbCircle
 10
150.4362018326
 20
25.0606229503
 30
0.0
 40
13.9
100
AcDbArc
 50
300.3097875016
 51
335.2199478188
  0
LINE
  5
17B
100
AcDbEntity
  8
TA900_ISI_B_DN10
  6
CONTINUOUS
 62
         7
100
AcDbLine
 10
135.5362018326
 20
41.5106229503
 30
0.0
 11
135.5362018326
 21
35.9233618592
 31
0.0
  0
LINE
  5
17C
100
AcDbEntity
  8
TA900_ISI_B_DN10
  6
CONTINUOUS
 62
         7
100
AcDbLine
 10
135.5393047622
 20
35.9262230572
 30
0.0
 11
131.1862018326
 21
37.5106229503
 31
0.0
  0
LINE
  5
17D
100
AcDbEntity
  8
TA900_ISI_B_DN10
  6
CONTINUOUS
 62
         7
100
AcDbLine
 10
179.9362018326
 20
37.6606229503
 30
0.0
 11
179.1348464123
 21
39.8623288725
 31
0.0
  0
LINE
  5
17E
100
AcDbEntity
  8
TA900_ISI_B_DN10
  6
CONTINUOUS
 62
         7
100
AcDbLine
 10
161.1862018326
 20
57.6606229503
 30
0.0
 11
161.1862018326
 21
59.1606229503
 31
0.0
  0
ARC
  5
17F
100
AcDbEntity
  8
TA900_ISI_B_DN10
  6
CONTINUOUS
 62
         7
100
AcDbCircle
 10
122.8761417492
 20
27.1535960677
 30
0.0
 40
15.8972553399
100
AcDbArc
 50
352.434688498
 51
22.3263601674
  0
LINE
  5
180
100
AcDbEntity
  8
TA900_ISI_B_DN10
  6
CONTINUOUS
 62
         7
100
AcDbLine
 10
136.5987312153
 20
33.4606229503
 30
0.0
 11
164.2736724499
 21
33.4606229503
 31
0.0
  0
LINE
  5
181
100
AcDbEntity
  8
TA900_ISI_B_DN10
  6
CONTINUOUS
 62
         7
100
AcDbLine
 10
121.7375572528
 20
14.4589170281
 30
0.0
 11
128.3302508772
 21
14.4589170281
 31
0.0
  0
LINE
  5
182
100
AcDbEntity
  8
TA900_ISI_B_DN10
  6
CONTINUOUS
 62
         7
100
AcDbLine
 10
120.9362018326
 20
16.6606229503
 30
0.0
 11
121.7375572528
 21
14.4589170281
 31
0.0
  0
LINE
  5
183
100
AcDbEntity
  8
TA900_ISI_B_DN10
  6
CONTINUOUS
 62
         7
100
AcDbLine
 10
134.4862018326
 20
50.3506437692
 30
0.0
 11
134.4862018326
 21
47.6606229503
 31
0.0
  0
LINE
  5
184
100
AcDbEntity
  8
TA900_ISI_B_DN10
  6
CONTINUOUS
 62
         7
100
AcDbLine
 10
166.5862018326
 20
42.7606229503
 30
0.0
 11
166.5862018326
 21
47.6606229503
 31
0.0
  0
LINE
  5
185
100
AcDbEntity
  8
TA900_ISI_B_DN10
  6
CONTINUOUS
 62
         7
100
AcDbLine
 10
165.3362018326
 20
41.5106229503
 30
0.0
 11
166.5862018326
 21
42.7606229503
 31
0.0
  0
LINE
  5
186
100
AcDbEntity
  8
TA900_ISI_B_DN10
  6
CONTINUOUS
 62
         7
100
AcDbLine
 10
163.0466813456
 20
19.2272107773
 30
0.0
 11
169.6862018326
 21
16.8106229503
 31
0.0
  0
LINE
  5
187
100
AcDbEntity
  8
TA900_ISI_B_DN10
  6
CONTINUOUS
 62
         7
100
AcDbLine
 10
171.6862018326
 20
37.5106229503
 30
0.0
 11
169.6862018326
 21
37.5106229503
 31
0.0
  0
LINE
  5
188
100
AcDbEntity
  8
TA900_ISI_B_DN10
  6
CONTINUOUS
 62
         7
100
AcDbLine
 10
131.1862018326
 20
37.5106229503
 30
0.0
 11
129.1862018326
 21
37.5106229503
 31
0.0
  0
LINE
  5
189
100
AcDbEntity
  8
TA900_ISI_B_DN10
  6
CONTINUOUS
 62
         7
100
AcDbLine
 10
171.6862018326
 20
16.8106229503
 30
0.0
 11
172.542152788
 21
14.4589170281
 31
0.0
  0
LINE
  5
18A
100
AcDbEntity
  8
TA900_ISI_B_DN10
  6
CONTINUOUS
 62
         7
100
AcDbLine
 10
129.1862018326
 20
37.5106229503
 30
0.0
 11
128.3302508772
 21
39.8623288725
 31
0.0
  0
LINE
  5
18B
100
AcDbEntity
  8
TA900_ISI_B_DN10
  6
CONTINUOUS
 62
         7
100
AcDbLine
 10
165.3362018326
 20
35.9233618592
 30
0.0
 11
165.3362018326
 21
41.5106229503
 31
0.0
  0
LINE
  5
18C
100
AcDbEntity
  8
TA900_ISI_B_DN10
  6
CONTINUOUS
 62
         7
100
AcDbLine
 10
139.6862018326
 20
59.1606229503
 30
0.0
 11
139.6862018326
 21
57.6606229503
 31
0.0
  0
ARC
  5
18D
100
AcDbEntity
  8
TA900_ISI_B_DN10
  6
CONTINUOUS
 62
         7
100
AcDbCircle
 10
191.6716826123
 20
23.1212931433
 30
0.0
 40
29.2840007806
100
AcDbArc
 50
154.0679188968
 51
159.324736757
  0
LINE
  5
18E
100
AcDbEntity
  8
TA900_ISI_B_DN10
  6
CONTINUOUS
 62
         7
100
AcDbLine
 10
159.35598322
 20
60.1606229503
 30
0.0
 11
159.35598322
 21
59.1606229503
 31
0.0
  0
LINE
  5
18F
100
AcDbEntity
  8
TA900_ISI_B_DN10
  6
CONTINUOUS
 62
         7
100
AcDbLine
 10
141.5164204451
 20
59.1606229503
 30
0.0
 11
141.5164204451
 21
60.1606229503
 31
0.0
  0
ARC
  5
190
100
AcDbEntity
  8
TA900_ISI_B_DN10
  6
CONTINUOUS
 62
         7
100
AcDbCircle
 10
150.4362018326
 20
60.1606229503
 30
0.0
 40
8.9197813875
100
AcDbArc
 50
0.0
 51
180.0
  0
LINE
  5
191
100
AcDbEntity
  8
TA900_ISI_B_DN10
  6
CONTINUOUS
 62
         7
100
AcDbLine
 10
157.3644050628
 20
57.6506437692
 30
0.0
 11
143.5079986023
 21
57.6506437692
 31
0.0
  0
LINE
  5
192
100
AcDbEntity
  8
TA900_ISI_B_DN10
  6
CONTINUOUS
 62
         7
100
AcDbLine
 10
164.2926082931
 20
57.6506437692
 30
0.0
 11
157.3644050628
 21
57.6506437692
 31
0.0
  0
LINE
  5
193
100
AcDbEntity
  8
TA900_ISI_B_DN10
  6
CONTINUOUS
 62
         7
100
AcDbLine
 10
157.3644050628
 20
57.6506437692
 30
0.0
 11
157.3644050628
 21
50.3506437692
 31
0.0
  0
LINE
  5
194
100
AcDbEntity
  8
TA900_ISI_B_DN10
  6
CONTINUOUS
 62
         7
100
AcDbLine
 10
143.5079986023
 20
57.6506437692
 30
0.0
 11
143.5079986023
 21
50.3506437692
 31
0.0
  0
LINE
  5
195
100
AcDbEntity
  8
TA900_ISI_B_DN10
  6
CONTINUOUS
 62
         7
100
AcDbLine
 10
143.5079986023
 20
57.6506437692
 30
0.0
 11
136.579795372
 21
57.6506437692
 31
0.0
  0
LINE
  5
196
100
AcDbEntity
  8
TA900_ISI_B_DN10
  6
CONTINUOUS
 62
         7
100
AcDbLine
 10
136.579795372
 20
57.6506437692
 30
0.0
 11
136.579795372
 21
50.3506437692
 31
0.0
  0
LINE
  5
197
100
AcDbEntity
  8
TA900_ISI_B_DN10
  6
CONTINUOUS
 62
         7
100
AcDbLine
 10
164.2926082931
 20
57.6506437692
 30
0.0
 11
164.2926082931
 21
50.3506437692
 31
0.0
  0
LINE
  5
198
100
AcDbEntity
  8
TA900_ISI_B_DN10
  6
CONTINUOUS
 62
         7
100
AcDbLine
 10
134.4862018326
 20
50.3506437692
 30
0.0
 11
166.3862018326
 21
50.3506437692
 31
0.0
  0
LINE
  5
199
100
AcDbEntity
  8
TA900_ISI_B_DN10
  6
CONTINUOUS
 62
         7
100
AcDbLine
 10
134.2862018326
 20
47.6606229503
 30
0.0
 11
166.5862018326
 21
47.6606229503
 31
0.0
  0
LINE
  5
19A
100
AcDbEntity
  8
TA900_ISI_B_DN10
  6
CONTINUOUS
 62
         7
100
AcDbLine
 10
135.5362018326
 20
41.5106229503
 30
0.0
 11
165.3362018326
 21
41.5106229503
 31
0.0
  0
LINE
  5
19B
100
AcDbEntity
  8
TA900_ISI_B_DN10
  6
CONTINUOUS
 62
         7
100
AcDbLine
 10
134.2862018326
 20
42.7606229503
 30
0.0
 11
166.5862018326
 21
42.7606229503
 31
0.0
  0
ARC
  5
19C
100
AcDbEntity
  8
TA900_ISI_B_DN10
  6
CONTINUOUS
 62
         7
100
AcDbCircle
 10
150.4362018326
 20
81.682652732
 30
0.0
 40
48.9947758533
100
AcDbArc
 50
261.7682028409
 51
278.2317971591
  0
ARC
  5
19D
100
AcDbEntity
  8
TA900_ISI_B_DN10
  6
CONTINUOUS
 62
         7
100
AcDbCircle
 10
177.8228999217
 20
27.1760519399
 30
0.0
 40
15.7284234595
100
AcDbArc
 50
157.5094046481
 51
187.7295466865
  0
SPLINE
  5
19E
100
AcDbEntity
  8
TA900_ISI_B_DN10
  6
CONTINUOUS
 62
         7
100
AcDbSpline
210
0.0
220
0.0
230
1.0
 70
         8
 71
         3
 72
        10
 73
         6
 74
         0
 42
0.0
 43
0.0
 40
0.5004995835495285
 40
0.5004995835495285
 40
0.5004995835495285
 40
0.5004995835495285
 40
0.75
 40
0.75
 40
1.0
 40
1.0
 40
1.0
 40
1.0
 10
137.82039180584894
 20
19.225270832994759
 30
0.0
 10
137.82039885860436
 20
19.225338744108555
 30
0.0
 10
137.89950506717031
 20
19.813316340499291
 30
0.0
 10
138.18929784671897
 20
21.917835803715715
 30
0.0
 10
138.397331247355
 20
23.410225937745821
 30
0.0
 10
138.63501832309018
 20
25.060622950279811
 30
0.0
  0
ARC
  5
19F
100
AcDbEntity
  8
TA900_ISI_B_DN10
  6
CONTINUOUS
 62
         7
100
AcDbCircle
 10
95.791306303
 20
27.1606229503
 30
0.0
 40
33.1529221538
100
AcDbArc
 50
348.956022526
 51
11.043977474
  0
ARC
  5
1A0
100
AcDbEntity
  8
TA900_ISI_B_DN10
  6
CONTINUOUS
 62
         7
100
AcDbCircle
 10
205.0810973622
 20
27.1606229503
 30
0.0
 40
33.1529221538
100
AcDbArc
 50
168.956022526
 51
191.043977474
  0
ARC
  5
1A1
100
AcDbEntity
  8
TA900_ISI_B_DN10
  6
CONTINUOUS
 62
         7
100
AcDbCircle
 10
180.4699215595
 20
36.6869023919
 30
0.0
 40
8.5400732448
100
AcDbArc
 50
158.1716867869
 51
201.8283132131
  0
ARC
  5
1A2
100
AcDbEntity
  8
TA900_ISI_B_DN10
  6
CONTINUOUS
 62
         7
100
AcDbCircle
 10
120.4024821057
 20
17.6343435087
 30
0.0
 40
8.5400732448
100
AcDbArc
 50
338.1716867869
 51
21.8283132131
  0
LINE
  5
1A3
100
AcDbEntity
  8
TA900_ISI_B_DN10
  6
CONTINUOUS
 62
         7
100
AcDbLine
 10
121.7375572528
 20
39.8623288725
 30
0.0
 11
128.3302508772
 21
39.8623288725
 31
0.0
  0
LINE
  5
1A4
100
AcDbEntity
  8
TA900_ISI_B_DN10
  6
CONTINUOUS
 62
         7
100
AcDbLine
 10
157.4511857955
 20
33.1926737578
 30
0.0
 11
157.4511857955
 21
25.0606229503
 31
0.0
  0
LINE
  5
1A5
100
AcDbEntity
  8
TA900_ISI_B_DN10
  6
CONTINUOUS
 62
         7
100
AcDbLine
 10
137.5816600329
 20
33.1926737578
 30
0.0
 11
136.5987312153
 21
33.4606229503
 31
0.0
  0
LINE
  5
1A6
100
AcDbEntity
  8
TA900_ISI_B_DN10
  6
CONTINUOUS
 62
         7
100
AcDbLine
 10
143.4212178697
 20
33.1926737578
 30
0.0
 11
137.5816600329
 21
33.1926737578
 31
0.0
  0
LINE
  5
1A7
100
AcDbEntity
  8
TA900_ISI_B_DN10
  6
CONTINUOUS
 62
         7
100
AcDbLine
 10
163.2907436322
 20
33.1926737578
 30
0.0
 11
157.4511857955
 21
33.1926737578
 31
0.0
  0
LINE
  5
1A8
100
AcDbEntity
  8
TA900_ISI_B_DN10
  6
CONTINUOUS
 62
         7
100
AcDbLine
 10
164.2736724499
 20
33.4606229503
 30
0.0
 11
163.2907436322
 21
33.1926737578
 31
0.0
  0
ARC
  5
1A9
100
AcDbEntity
  8
TA900_ISI_B_DN10
  6
CONTINUOUS
 62
         7
100
AcDbCircle
 10
109.2007210528
 20
23.1212931433
 30
0.0
 40
29.2840007807
100
AcDbArc
 50
20.6752632431
 51
25.9320811032
  0
LINE
  5
1AA
100
AcDbEntity
  8
TA900_ISI_B_DN10
  6
CONTINUOUS
 62
         7
100
AcDbLine
 10
171.6862018326
 20
37.5106229503
 30
0.0
 11
171.6862018326
 21
16.8106229503
 31
0.0
  0
LINE
  5
1AB
100
AcDbEntity
  8
TA900_ISI_B_DN10
  6
CONTINUOUS
 62
         7
100
AcDbLine
 10
179.9362018326
 20
37.6606229503
 30
0.0
 11
179.9362018326
 21
16.6606229503
 31
0.0
  0
LINE
  5
1AC
100
AcDbEntity
  8
TA900_ISI_B_DN10
  6
CONTINUOUS
 62
         7
100
AcDbLine
 10
157.4511857955
 20
13.0606229503
 30
0.0
 11
157.4511857955
 21
25.0606229503
 31
0.0
  0
LINE
  5
1AD
100
AcDbEntity
  8
TA900_ISI_B_DN10
  6
CONTINUOUS
 62
         7
100
AcDbLine
 10
143.4212178697
 20
13.0606229503
 30
0.0
 11
143.4212178697
 21
25.0606229503
 31
0.0
  0
LINE
  5
1AE
100
AcDbEntity
  8
TA900_ISI_B_DN10
  6
CONTINUOUS
 62
         7
100
AcDbLine
 10
169.6862018326
 20
37.5106229503
 30
0.0
 11
169.6862018326
 21
16.8106229503
 31
0.0
  0
LINE
  5
1AF
100
AcDbEntity
  8
TA900_ISI_B_DN10
  6
CONTINUOUS
 62
         7
100
AcDbLine
 10
131.1862018326
 20
37.5106229503
 30
0.0
 11
131.1862018326
 21
16.8106229503
 31
0.0
  0
LINE
  5
1B0
100
AcDbEntity
  8
TA900_ISI_B_DN10
  6
CONTINUOUS
 62
         7
100
AcDbLine
 10
120.9362018326
 20
37.6606229503
 30
0.0
 11
120.9362018326
 21
16.6606229503
 31
0.0
  0
LINE
  5
1B1
100
AcDbEntity
  8
TA900_ISI_B_DN10
  6
CONTINUOUS
 62
         7
100
AcDbLine
 10
129.1862018326
 20
37.5106229503
 30
0.0
 11
129.1862018326
 21
16.8106229503
 31
0.0
  0
ARC
  5
1B2
100
AcDbEntity
  8
TA900_ISI_B_DN10
  6
CONTINUOUS
 62
         7
100
AcDbCircle
 10
171.2070776408
 20
36.6869023919
 30
0.0
 40
8.5400732448
100
AcDbArc
 50
338.1716867869
 51
21.8283132131
  0
ARC
  5
1B3
100
AcDbEntity
  8
TA900_ISI_B_DN10
  6
CONTINUOUS
 62
         7
100
AcDbCircle
 10
146.5959022918
 20
27.1606229503
 30
0.0
 40
33.1529217085
100
AcDbArc
 50
348.9560223758
 51
11.0439776242
  0
ARC
  5
1B4
100
AcDbEntity
  8
TA900_ISI_B_DN10
  6
CONTINUOUS
 62
         7
100
AcDbCircle
 10
171.2070776408
 20
17.6343435087
 30
0.0
 40
8.5400732448
100
AcDbArc
 50
338.1716867869
 51
21.8283132131
  0
ENDBLK
  5
1B5
100
AcDbEntity
  8
TA900_ISI_B_DN10
  6
CONTINUOUS
 62
         7
100
AcDbBlockEnd
  0
ENDSEC
  0
SECTION
  2
ENTITIES
  0
INSERT
  5
3A
102
{ACAD_XDICTIONARY
360
3B
102
}
100
AcDbEntity
  8
0
 62
         0
 48
0.0
100
AcDbBlockReference
  2
SE1
 10
0.0
 20
0.0
 30
0.0
  0
INSERT
  5
3E
100
AcDbEntity
  8
0
 62
         0
 48
0.0
100
AcDbBlockReference
  2
SE0
 10
0.0
 20
0.0
 30
0.0
  0
INSERT
  5
41
102
{ACAD_XDICTIONARY
360
42
102
}
100
AcDbEntity
  8
0
 62
         0
 48
0.0
100
AcDbBlockReference
  2
SE3
 10
0.0
 20
0.0
 30
0.0
  0
INSERT
  5
45
100
AcDbEntity
  8
0
 62
         0
 48
0.0
100
AcDbBlockReference
  2
SE2
 10
0.0
 20
0.0
 30
0.0
  0
INSERT
  5
48
102
{ACAD_XDICTIONARY
360
49
102
}
100
AcDbEntity
  8
0
 62
         0
 48
0.0
100
AcDbBlockReference
  2
SE5
 10
0.0
 20
0.0
 30
0.0
  0
INSERT
  5
4C
100
AcDbEntity
  8
0
 62
         0
 48
0.0
100
AcDbBlockReference
  2
SE4
 10
0.0
 20
0.0
 30
0.0
  0
INSERT
  5
4F
102
{ACAD_XDICTIONARY
360
50
102
}
100
AcDbEntity
  8
0
 62
         0
 48
0.0
100
AcDbBlockReference
  2
SE7
 10
0.0
 20
0.0
 30
0.0
  0
INSERT
  5
53
100
AcDbEntity
  8
0
 62
         0
 48
0.0
100
AcDbBlockReference
  2
SE6
 10
0.0
 20
0.0
 30
0.0
  0
ENDSEC
  0
SECTION
  2
OBJECTS
  0
DICTIONARY
  5
19
100
AcDbDictionary
  3
ACAD_GROUP
350
1A
  3
ACAD_MLINESTYLE
350
1B
  3
ACDBVARIABLEDICTIONARY
350
1B8
  0
DICTIONARY
  5
1A
102
{ACAD_REACTORS
330
19
102
}
100
AcDbDictionary
  0
DICTIONARY
  5
1B
102
{ACAD_REACTORS
330
19
102
}
100
AcDbDictionary
  3
STANDARD
350
1C
  0
MLINESTYLE
  5
1C
102
{ACAD_REACTORS
330
1B
102
}
100
AcDbMlineStyle
  2
Standard
 70
         0
  3

 62
         0
 51
90.0
 52
90.0
 71
         2
 49
0.5
 62
       256
  6
ByLayer
 49
-0.5
 62
       256
  6
ByLayer
  0
DICTIONARY
  5
22
102
{ACAD_REACTORS
330
19
102
}
100
AcDbDictionary
  0
DICTIONARY
  5
3B
100
AcDbDictionary
  3
ACAD_FILTER
350
3C
  0
DICTIONARY
  5
3C
100
AcDbDictionary
  3
SPATIAL
350
3D
  0
SPATIAL_FILTER
  5
3D
100
AcDbFilter
100
AcDbSpatialFilter
 70
         2
 10
2.1818776494
 20
6.7106229503
 10
89.8818776494
 20
82.0106229503
210
0.0
220
0.0
230
1.0
 11
0.0
 21
0.0
 31
0.0
 71
         1
 72
         0
 73
         0
 40
1.0
 40
0.0
 40
0.0
 40
0.0
 40
0.0
 40
1.0
 40
0.0
 40
0.0
 40
0.0
 40
0.0
 40
1.0
 40
0.0
 40
1.0
 40
0.0
 40
0.0
 40
0.0
 40
0.0
 40
1.0
 40
0.0
 40
0.0
 40
0.0
 40
0.0
 40
1.0
 40
0.0
  0
DICTIONARY
  5
42
100
AcDbDictionary
  3
ACAD_FILTER
350
43
  0
DICTIONARY
  5
43
100
AcDbDictionary
  3
SPATIAL
350
44
  0
SPATIAL_FILTER
  5
44
100
AcDbFilter
100
AcDbSpatialFilter
 70
         2
 10
2.1818776494
 20
105.0817807149
 10
89.8818776494
 20
150.0817807149
210
0.0
220
0.0
230
1.0
 11
0.0
 21
0.0
 31
0.0
 71
         1
 72
         0
 73
         0
 40
1.0
 40
0.0
 40
0.0
 40
0.0
 40
0.0
 40
1.0
 40
0.0
 40
0.0
 40
0.0
 40
0.0
 40
1.0
 40
0.0
 40
1.0
 40
0.0
 40
0.0
 40
0.0
 40
0.0
 40
1.0
 40
0.0
 40
0.0
 40
0.0
 40
0.0
 40
1.0
 40
0.0
  0
DICTIONARY
  5
49
100
AcDbDictionary
  3
ACAD_FILTER
350
4A
  0
DICTIONARY
  5
4A
100
AcDbDictionary
  3
SPATIAL
350
4B
  0
SPATIAL_FILTER
  5
4B
100
AcDbFilter
100
AcDbSpatialFilter
 70
         2
 10
107.8285796521
 20
105.0817807149
 10
183.1285796521
 20
150.0817807149
210
0.0
220
0.0
230
1.0
 11
0.0
 21
0.0
 31
0.0
 71
         1
 72
         0
 73
         0
 40
1.0
 40
0.0
 40
0.0
 40
0.0
 40
0.0
 40
1.0
 40
0.0
 40
0.0
 40
0.0
 40
0.0
 40
1.0
 40
0.0
 40
1.0
 40
0.0
 40
0.0
 40
0.0
 40
0.0
 40
1.0
 40
0.0
 40
0.0
 40
0.0
 40
0.0
 40
1.0
 40
0.0
  0
DICTIONARY
  5
50
100
AcDbDictionary
  3
ACAD_FILTER
350
51
  0
DICTIONARY
  5
51
100
AcDbDictionary
  3
SPATIAL
350
52
  0
SPATIAL_FILTER
  5
52
100
AcDbFilter
100
AcDbSpatialFilter
 70
         2
 10
98.5862018326
 20
6.7106229503
 10
186.2862018326
 20
82.0106229503
210
0.0
220
0.0
230
1.0
 11
0.0
 21
0.0
 31
0.0
 71
         1
 72
         0
 73
         0
 40
1.0
 40
0.0
 40
0.0
 40
0.0
 40
0.0
 40
1.0
 40
0.0
 40
0.0
 40
0.0
 40
0.0
 40
1.0
 40
0.0
 40
1.0
 40
0.0
 40
0.0
 40
0.0
 40
0.0
 40
1.0
 40
0.0
 40
0.0
 40
0.0
 40
0.0
 40
1.0
 40
0.0
  0
DICTIONARY
  5
1B8
100
AcDbDictionary
  3
DIMASSOC
350
1B9
  0
DICTIONARYVAR
  5
1B9
100
DictionaryVariables
280
         0
  1
2
  0
ENDSEC
  0
EOF
