  0
SECTION
  2
HEADER
  9
$ACADVER
  1
AC1009
  9
$DWGCODEPAGE
  3
ansi_1252
  9
$INSBASE
 10
0.0
 20
0.0
 30
0.0
  9
$EXTMIN
 10
0.0
 20
0.0
 30
0.0
  9
$EXTMAX
 10
594.0
 20
420.0
 30
0.0
  9
$LIMMIN
 10
0.0
 20
0.0
  9
$LIMMAX
 10
594.0
 20
420.0
  9
$ORTHOMODE
 70
     0
  9
$REGENMODE
 70
     1
  9
$FILLMODE
 70
     1
  9
$QTEXTMODE
 70
     0
  9
$MIRRTEXT
 70
     1
  9
$DRAGMODE
 70
     2
  9
$LTSCALE
 40
1.0
  9
$OSMODE
 70
    37
  9
$ATTMODE
 70
     1
  9
$TEXTSIZE
 40
2.5
  9
$TRACEWID
 40
1.0
  9
$TEXTSTYLE
  7
STANDARD
  9
$CLAYER
  8
0
  9
$CELTYPE
  6
BYLAYER
  9
$CECOLOR
 62
   256
  9
$DIMSCALE
 40
1.0
  9
$DIMASZ
 40
2.5
  9
$DIMEXO
 40
0.625
  9
$DIMDLI
 40
3.75
  9
$DIMRND
 40
0.0
  9
$DIMDLE
 40
0.0
  9
$DIMEXE
 40
1.25
  9
$DIMTP
 40
0.0
  9
$DIMTM
 40
0.0
  9
$DIMTXT
 40
2.5
  9
$DIMCEN
 40
2.5
  9
$DIMTSZ
 40
0.0
  9
$DIMTOL
 70
     0
  9
$DIMLIM
 70
     0
  9
$DIMTIH
 70
     0
  9
$DIMTOH
 70
     0
  9
$DIMSE1
 70
     0
  9
$DIMSE2
 70
     0
  9
$DIMTAD
 70
     1
  9
$DIMZIN
 70
     8
  9
$DIMBLK
  1

  9
$DIMASO
 70
     1
  9
$DIMSHO
 70
     1
  9
$DIMPOST
  1

  9
$DIMAPOST
  1

  9
$DIMALT
 70
     0
  9
$DIMALTD
 70
     3
  9
$DIMALTF
 40
0.0393700787
  9
$DIMLFAC
 40
1.0
  9
$DIMTOFL
 70
     1
  9
$DIMTVP
 40
0.0
  9
$DIMTIX
 70
     0
  9
$DIMSOXD
 70
     0
  9
$DIMSAH
 70
     0
  9
$DIMBLK1
  1

  9
$DIMBLK2
  1

  9
$DIMSTYLE
  2
ISO-25
  9
$DIMCLRD
 70
     0
  9
$DIMCLRE
 70
     0
  9
$DIMCLRT
 70
     0
  9
$DIMTFAC
 40
1.0
  9
$DIMGAP
 40
0.625
  9
$LUNITS
 70
     2
  9
$LUPREC
 70
     4
  9
$SKETCHINC
 40
1.0
  9
$FILLETRAD
 40
10.0
  9
$AUNITS
 70
     0
  9
$AUPREC
 70
     0
  9
$MENU
  1
.
  9
$ELEVATION
 40
0.0
  9
$PELEVATION
 40
0.0
  9
$THICKNESS
 40
0.0
  9
$LIMCHECK
 70
     0
  9
$CHAMFERA
 40
10.0
  9
$CHAMFERB
 40
10.0
  9
$SKPOLY
 70
     0
  9
$TDCREATE
 40
2456154.683530289
  9
$TDUPDATE
 40
2456154.683530301
  9
$TDINDWG
 40
0.0000000116
  9
$TDUSRTIMER
 40
0.0000000116
  9
$USRTIMER
 70
     1
  9
$ANGBASE
 50
0.0
  9
$ANGDIR
 70
     0
  9
$PDMODE
 70
     0
  9
$PDSIZE
 40
0.0
  9
$PLINEWID
 40
0.0
  9
$COORDS
 70
     1
  9
$SPLFRAME
 70
     0
  9
$SPLINETYPE
 70
     6
  9
$SPLINESEGS
 70
     8
  9
$ATTDIA
 70
     0
  9
$ATTREQ
 70
     1
  9
$HANDLING
 70
     1
  9
$HANDSEED
  5
69F
  9
$SURFTAB1
 70
     6
  9
$SURFTAB2
 70
     6
  9
$SURFTYPE
 70
     6
  9
$SURFU
 70
     6
  9
$SURFV
 70
     6
  9
$UCSNAME
  2

  9
$UCSORG
 10
0.0
 20
0.0
 30
0.0
  9
$UCSXDIR
 10
1.0
 20
0.0
 30
0.0
  9
$UCSYDIR
 10
0.0
 20
1.0
 30
0.0
  9
$PUCSNAME
  2

  9
$PUCSORG
 10
0.0
 20
0.0
 30
0.0
  9
$PUCSXDIR
 10
1.0
 20
0.0
 30
0.0
  9
$PUCSYDIR
 10
0.0
 20
1.0
 30
0.0
  9
$USERI1
 70
     0
  9
$USERI2
 70
     0
  9
$USERI3
 70
     0
  9
$USERI4
 70
     0
  9
$USERI5
 70
     0
  9
$USERR1
 40
0.0
  9
$USERR2
 40
0.0
  9
$USERR3
 40
0.0
  9
$USERR4
 40
0.0
  9
$USERR5
 40
0.0
  9
$WORLDVIEW
 70
     1
  9
$SHADEDGE
 70
     3
  9
$SHADEDIF
 70
    70
  9
$TILEMODE
 70
     1
  9
$MAXACTVP
 70
    64
  9
$PLIMCHECK
 70
     0
  9
$PEXTMIN
 10
0.0
 20
0.0
 30
0.0
  9
$PEXTMAX
 10
594.0
 20
420.0
 30
0.0
  9
$PLIMMIN
 10
0.0
 20
0.0
  9
$PLIMMAX
 10
594.0
 20
420.0
  9
$UNITMODE
 70
     0
  9
$VISRETAIN
 70
     1
  9
$PLINEGEN
 70
     0
  9
$PSLTSCALE
 70
     1
  0
ENDSEC
  0
SECTION
  2
TABLES
  0
TABLE
  2
VPORT
 70
     1
  0
VPORT
  2
*ACTIVE
 70
     0
 10
0.0
 20
0.0
 11
1.0
 21
1.0
 12
344.1869158879
 22
148.5
 13
0.0
 23
0.0
 14
10.0
 24
10.0
 15
10.0
 25
10.0
 16
0.0
 26
0.0
 36
1.0
 17
0.0
 27
0.0
 37
0.0
 40
297.0
 41
1.9729729729
 42
50.0
 43
0.0
 44
0.0
 50
0.0
 51
0.0
 71
     0
 72
   100
 73
     1
 74
     3
 75
     0
 76
     0
 77
     0
 78
     0
  0
ENDTAB
  0
TABLE
  2
LTYPE
 70
     1
  0
LTYPE
  2
CONTINUOUS
 70
     0
  3
Solid line
 72
    65
 73
     0
 40
0.0
  0
ENDTAB
  0
TABLE
  2
LAYER
 70
     6
  0
LAYER
  2
0
 70
     0
 62
     7
  6
CONTINUOUS
  0
LAYER
  2
DEFAULT
 70
     0
 62
     7
  6
CONTINUOUS
  0
LAYER
  2
DV1_0
 70
     0
 62
     7
  6
CONTINUOUS
  0
LAYER
  2
DV2_0
 70
     0
 62
     7
  6
CONTINUOUS
  0
LAYER
  2
DV3_0
 70
     0
 62
     7
  6
CONTINUOUS
  0
LAYER
  2
DV4_0
 70
     0
 62
     7
  6
CONTINUOUS
  0
ENDTAB
  0
TABLE
  2
STYLE
 70
     1
  0
STYLE
  2
STANDARD
 70
     0
 40
0.0
 41
1.0
 50
0.0
 71
     0
 42
2.5
  3
txt
  4

  0
ENDTAB
  0
TABLE
  2
VIEW
 70
     0
  0
ENDTAB
  0
TABLE
  2
UCS
 70
     0
  0
ENDTAB
  0
TABLE
  2
APPID
 70
     1
  0
APPID
  2
ACAD
 70
     0
  0
ENDTAB
  0
TABLE
  2
DIMSTYLE
 70
     1
  0
DIMSTYLE
  2
ISO-25
 70
     0
  3

  4

  5

  6

  7

 40
1.0
 41
2.5
 42
0.625
 43
3.75
 44
1.25
 45
0.0
 46
0.0
 47
0.0
 48
0.0
140
2.5
141
2.5
142
0.0
143
0.0393700787
144
1.0
145
0.0
146
1.0
147
0.625
 71
     0
 72
     0
 73
     0
 74
     0
 75
     0
 76
     0
 77
     1
 78
     8
170
     0
171
     3
172
     1
173
     0
174
     0
175
     0
176
     0
177
     0
178
     0
  0
ENDTAB
  0
ENDSEC
  0
SECTION
  2
BLOCKS
  0
BLOCK
  8
0
  2
$MODEL_SPACE
 70
     0
 10
0.0
 20
0.0
 30
0.0
  3
$MODEL_SPACE
  1

  0
ENDBLK
  5
21
  8
0
  0
BLOCK
 67
     1
  8
0
  2
$PAPER_SPACE
 70
     0
 10
0.0
 20
0.0
 30
0.0
  3
$PAPER_SPACE
  1

  0
ENDBLK
  5
1D
 67
     1
  8
0
  0
BLOCK
  8
0
  2
SE
 70
     0
 10
0.0
 20
0.0
 30
0.0
  3
SE
  1

  0
LINE
  5
3F
  8
DV1_0
  6
CONTINUOUS
 62
     7
 10
154.0309887532
 20
225.6556247535
 30
0.0
 11
154.0309887532
 21
254.0625062357
 31
0.0
  0
POLYLINE
  5
40
  8
DV1_0
  6
CONTINUOUS
 62
     7
 66
     1
 10
0.0
 20
0.0
 30
0.0
  0
VERTEX
  5
1B7
  8
DV1_0
  6
CONTINUOUS
 62
     7
 10
154.0309887532
 20
254.0625062357
 30
0.0
  0
VERTEX
  5
1B8
  8
DV1_0
  6
CONTINUOUS
 62
     7
 10
153.6624535131
 20
253.9650105529
 30
0.0
  0
VERTEX
  5
1B9
  8
DV1_0
  6
CONTINUOUS
 62
     7
 10
153.2935864075
 20
253.8702831765
 30
0.0
  0
VERTEX
  5
1BA
  8
DV1_0
  6
CONTINUOUS
 62
     7
 10
152.9243805245
 20
253.7783817622
 30
0.0
  0
VERTEX
  5
1BB
  8
DV1_0
  6
CONTINUOUS
 62
     7
 10
152.5548289523
 20
253.6893639659
 30
0.0
  0
VERTEX
  5
1BC
  8
DV1_0
  6
CONTINUOUS
 62
     7
 10
152.1849247792
 20
253.6032874432
 30
0.0
  0
VERTEX
  5
1BD
  8
DV1_0
  6
CONTINUOUS
 62
     7
 10
151.8146610933
 20
253.5202098499
 30
0.0
  0
VERTEX
  5
1BE
  8
DV1_0
  6
CONTINUOUS
 62
     7
 10
151.4440309829
 20
253.4401888417
 30
0.0
  0
VERTEX
  5
1BF
  8
DV1_0
  6
CONTINUOUS
 62
     7
 10
151.0730275362
 20
253.3632820745
 30
0.0
  0
VERTEX
  5
1C0
  8
DV1_0
  6
CONTINUOUS
 62
     7
 10
150.7016438414
 20
253.2895472038
 30
0.0
  0
VERTEX
  5
1C1
  8
DV1_0
  6
CONTINUOUS
 62
     7
 10
150.3298729866
 20
253.2190418856
 30
0.0
  0
VERTEX
  5
1C2
  8
DV1_0
  6
CONTINUOUS
 62
     7
 10
149.9577080602
 20
253.1518237754
 30
0.0
  0
VERTEX
  5
1C3
  8
DV1_0
  6
CONTINUOUS
 62
     7
 10
149.5851421502
 20
253.0879505291
 30
0.0
  0
VERTEX
  5
1C4
  8
DV1_0
  6
CONTINUOUS
 62
     7
 10
149.212168345
 20
253.0274798024
 30
0.0
  0
VERTEX
  5
1C5
  8
DV1_0
  6
CONTINUOUS
 62
     7
 10
148.8387797327
 20
252.9704692511
 30
0.0
  0
VERTEX
  5
1C6
  8
DV1_0
  6
CONTINUOUS
 62
     7
 10
148.4649694016
 20
252.9169765308
 30
0.0
  0
VERTEX
  5
1C7
  8
DV1_0
  6
CONTINUOUS
 62
     7
 10
148.0907304398
 20
252.8670592974
 30
0.0
  0
VERTEX
  5
1C8
  8
DV1_0
  6
CONTINUOUS
 62
     7
 10
147.7160559355
 20
252.8207752065
 30
0.0
  0
VERTEX
  5
1C9
  8
DV1_0
  6
CONTINUOUS
 62
     7
 10
147.340938977
 20
252.778181914
 30
0.0
  0
VERTEX
  5
1CA
  8
DV1_0
  6
CONTINUOUS
 62
     7
 10
146.9653726525
 20
252.7393370756
 30
0.0
  0
VERTEX
  5
1CB
  8
DV1_0
  6
CONTINUOUS
 62
     7
 10
146.5893500501
 20
252.7042983469
 30
0.0
  0
VERTEX
  5
1CC
  8
DV1_0
  6
CONTINUOUS
 62
     7
 10
146.2128642581
 20
252.6731233838
 30
0.0
  0
VERTEX
  5
1CD
  8
DV1_0
  6
CONTINUOUS
 62
     7
 10
145.8359083648
 20
252.6458698421
 30
0.0
  0
VERTEX
  5
1CE
  8
DV1_0
  6
CONTINUOUS
 62
     7
 10
145.4584754582
 20
252.6225953773
 30
0.0
  0
VERTEX
  5
1CF
  8
DV1_0
  6
CONTINUOUS
 62
     7
 10
145.0805586266
 20
252.6033576453
 30
0.0
  0
VERTEX
  5
1D0
  8
DV1_0
  6
CONTINUOUS
 62
     7
 10
144.7021509583
 20
252.5882143019
 30
0.0
  0
VERTEX
  5
1D1
  8
DV1_0
  6
CONTINUOUS
 62
     7
 10
144.3232455414
 20
252.5772230028
 30
0.0
  0
VERTEX
  5
1D2
  8
DV1_0
  6
CONTINUOUS
 62
     7
 10
143.9438354641
 20
252.5704414036
 30
0.0
  0
VERTEX
  5
1D3
  8
DV1_0
  6
CONTINUOUS
 62
     7
 10
143.5639138147
 20
252.5679271602
 30
0.0
  0
VERTEX
  5
1D4
  8
DV1_0
  6
CONTINUOUS
 62
     7
 10
143.1835331652
 20
252.5697128739
 30
0.0
  0
VERTEX
  5
1D5
  8
DV1_0
  6
CONTINUOUS
 62
     7
 10
142.8028190269
 20
252.5757623081
 30
0.0
  0
VERTEX
  5
1D6
  8
DV1_0
  6
CONTINUOUS
 62
     7
 10
142.4218738965
 20
252.586029862
 30
0.0
  0
VERTEX
  5
1D7
  8
DV1_0
  6
CONTINUOUS
 62
     7
 10
142.0408002706
 20
252.6004699344
 30
0.0
  0
VERTEX
  5
1D8
  8
DV1_0
  6
CONTINUOUS
 62
     7
 10
141.6597006461
 20
252.6190369246
 30
0.0
  0
VERTEX
  5
1D9
  8
DV1_0
  6
CONTINUOUS
 62
     7
 10
141.2786775195
 20
252.6416852316
 30
0.0
  0
VERTEX
  5
1DA
  8
DV1_0
  6
CONTINUOUS
 62
     7
 10
140.8978333878
 20
252.6683692543
 30
0.0
  0
VERTEX
  5
1DB
  8
DV1_0
  6
CONTINUOUS
 62
     7
 10
140.5172707475
 20
252.699043392
 30
0.0
  0
VERTEX
  5
1DC
  8
DV1_0
  6
CONTINUOUS
 62
     7
 10
140.1370920954
 20
252.7336620435
 30
0.0
  0
VERTEX
  5
1DD
  8
DV1_0
  6
CONTINUOUS
 62
     7
 10
139.7573999283
 20
252.7721796081
 30
0.0
  0
VERTEX
  5
1DE
  8
DV1_0
  6
CONTINUOUS
 62
     7
 10
139.3782967428
 20
252.8145504847
 30
0.0
  0
VERTEX
  5
1DF
  8
DV1_0
  6
CONTINUOUS
 62
     7
 10
138.9998850357
 20
252.8607290723
 30
0.0
  0
VERTEX
  5
1E0
  8
DV1_0
  6
CONTINUOUS
 62
     7
 10
138.6222673036
 20
252.9106697701
 30
0.0
  0
VERTEX
  5
1E1
  8
DV1_0
  6
CONTINUOUS
 62
     7
 10
138.2455460435
 20
252.9643269771
 30
0.0
  0
VERTEX
  5
1E2
  8
DV1_0
  6
CONTINUOUS
 62
     7
 10
137.8696019203
 20
253.0216205277
 30
0.0
  0
VERTEX
  5
1E3
  8
DV1_0
  6
CONTINUOUS
 62
     7
 10
137.4942394483
 20
253.0824530759
 30
0.0
  0
VERTEX
  5
1E4
  8
DV1_0
  6
CONTINUOUS
 62
     7
 10
137.1194468969
 20
253.1467532502
 30
0.0
  0
VERTEX
  5
1E5
  8
DV1_0
  6
CONTINUOUS
 62
     7
 10
136.7452125362
 20
253.2144496791
 30
0.0
  0
VERTEX
  5
1E6
  8
DV1_0
  6
CONTINUOUS
 62
     7
 10
136.3715246357
 20
253.285470991
 30
0.0
  0
VERTEX
  5
1E7
  8
DV1_0
  6
CONTINUOUS
 62
     7
 10
135.9983714652
 20
253.3597458145
 30
0.0
  0
VERTEX
  5
1E8
  8
DV1_0
  6
CONTINUOUS
 62
     7
 10
135.6257412945
 20
253.437202778
 30
0.0
  0
VERTEX
  5
1E9
  8
DV1_0
  6
CONTINUOUS
 62
     7
 10
135.2536223934
 20
253.51777051
 30
0.0
  0
VERTEX
  5
1EA
  8
DV1_0
  6
CONTINUOUS
 62
     7
 10
134.8820030316
 20
253.601377639
 30
0.0
  0
VERTEX
  5
1EB
  8
DV1_0
  6
CONTINUOUS
 62
     7
 10
134.5108714788
 20
253.6879527935
 30
0.0
  0
VERTEX
  5
1EC
  8
DV1_0
  6
CONTINUOUS
 62
     7
 10
134.1402160048
 20
253.7774246019
 30
0.0
  0
VERTEX
  5
1ED
  8
DV1_0
  6
CONTINUOUS
 62
     7
 10
133.7700248794
 20
253.8697216928
 30
0.0
  0
VERTEX
  5
1EE
  8
DV1_0
  6
CONTINUOUS
 62
     7
 10
133.4002863722
 20
253.9647726945
 30
0.0
  0
VERTEX
  5
1EF
  8
DV1_0
  6
CONTINUOUS
 62
     7
 10
133.0309887532
 20
254.0625062357
 30
0.0
  0
SEQEND
  5
1F0
  8
DV1_0
  6
CONTINUOUS
 62
     7
  0
LINE
  5
41
  8
DV1_0
  6
CONTINUOUS
 62
     7
 10
133.0309887532
 20
225.6556247535
 30
0.0
 11
133.0309887532
 21
254.0625062357
 31
0.0
  0
LINE
  5
42
  8
DV1_0
  6
CONTINUOUS
 62
     7
 10
107.0309887532
 20
245.1556247535
 30
0.0
 11
107.0309887532
 21
206.1556247535
 31
0.0
  0
LINE
  5
43
  8
DV1_0
  6
CONTINUOUS
 62
     7
 10
116.3307523823
 20
201.9842637167
 30
0.0
 11
108.5492400069
 21
201.9842637167
 31
0.0
  0
ARC
  5
44
  8
DV1_0
  6
CONTINUOUS
 62
     7
 10
123.3237181719
 20
207.9021039759
 30
0.0
 40
15.91559104718665
 50
158.1716867869
 51
201.8283132131
  0
POLYLINE
  5
45
  8
DV1_0
  6
CONTINUOUS
 62
     7
 66
     1
 10
0.0
 20
0.0
 30
0.0
  0
VERTEX
  5
1F1
  8
DV1_0
  6
CONTINUOUS
 62
     7
 10
108.5492400069
 20
213.8199442351
 30
0.0
  0
VERTEX
  5
1F2
  8
DV1_0
  6
CONTINUOUS
 62
     7
 10
108.4827270756
 20
214.1898092513
 30
0.0
  0
VERTEX
  5
1F3
  8
DV1_0
  6
CONTINUOUS
 62
     7
 10
108.4178324273
 20
214.5596742675
 30
0.0
  0
VERTEX
  5
1F4
  8
DV1_0
  6
CONTINUOUS
 62
     7
 10
108.3545924956
 20
214.9295392837
 30
0.0
  0
VERTEX
  5
1F5
  8
DV1_0
  6
CONTINUOUS
 62
     7
 10
108.2930437143
 20
215.2994042999
 30
0.0
  0
VERTEX
  5
1F6
  8
DV1_0
  6
CONTINUOUS
 62
     7
 10
108.2332225169
 20
215.6692693161
 30
0.0
  0
VERTEX
  5
1F7
  8
DV1_0
  6
CONTINUOUS
 62
     7
 10
108.1751653372
 20
216.0391343323
 30
0.0
  0
VERTEX
  5
1F8
  8
DV1_0
  6
CONTINUOUS
 62
     7
 10
108.1189086088
 20
216.4089993485
 30
0.0
  0
VERTEX
  5
1F9
  8
DV1_0
  6
CONTINUOUS
 62
     7
 10
108.0644887654
 20
216.7788643647
 30
0.0
  0
VERTEX
  5
1FA
  8
DV1_0
  6
CONTINUOUS
 62
     7
 10
108.0119422405
 20
217.1487293809
 30
0.0
  0
VERTEX
  5
1FB
  8
DV1_0
  6
CONTINUOUS
 62
     7
 10
107.961305468
 20
217.5185943971
 30
0.0
  0
VERTEX
  5
1FC
  8
DV1_0
  6
CONTINUOUS
 62
     7
 10
107.9126148814
 20
217.8884594133
 30
0.0
  0
VERTEX
  5
1FD
  8
DV1_0
  6
CONTINUOUS
 62
     7
 10
107.8659069143
 20
218.2583244295
 30
0.0
  0
VERTEX
  5
1FE
  8
DV1_0
  6
CONTINUOUS
 62
     7
 10
107.8212180005
 20
218.6281894457
 30
0.0
  0
VERTEX
  5
1FF
  8
DV1_0
  6
CONTINUOUS
 62
     7
 10
107.7785845737
 20
218.9980544619
 30
0.0
  0
VERTEX
  5
200
  8
DV1_0
  6
CONTINUOUS
 62
     7
 10
107.7380430673
 20
219.3679194781
 30
0.0
  0
VERTEX
  5
201
  8
DV1_0
  6
CONTINUOUS
 62
     7
 10
107.6996299152
 20
219.7377844943
 30
0.0
  0
VERTEX
  5
202
  8
DV1_0
  6
CONTINUOUS
 62
     7
 10
107.6633927443
 20
220.1076495105
 30
0.0
  0
VERTEX
  5
203
  8
DV1_0
  6
CONTINUOUS
 62
     7
 10
107.6293665647
 20
220.4775145267
 30
0.0
  0
VERTEX
  5
204
  8
DV1_0
  6
CONTINUOUS
 62
     7
 10
107.5975688852
 20
220.8473795429
 30
0.0
  0
VERTEX
  5
205
  8
DV1_0
  6
CONTINUOUS
 62
     7
 10
107.5680172143
 20
221.2172445591
 30
0.0
  0
VERTEX
  5
206
  8
DV1_0
  6
CONTINUOUS
 62
     7
 10
107.5407290607
 20
221.5871095753
 30
0.0
  0
VERTEX
  5
207
  8
DV1_0
  6
CONTINUOUS
 62
     7
 10
107.5157219332
 20
221.9569745915
 30
0.0
  0
VERTEX
  5
208
  8
DV1_0
  6
CONTINUOUS
 62
     7
 10
107.4930133402
 20
222.3268396077
 30
0.0
  0
VERTEX
  5
209
  8
DV1_0
  6
CONTINUOUS
 62
     7
 10
107.4726207905
 20
222.6967046239
 30
0.0
  0
VERTEX
  5
20A
  8
DV1_0
  6
CONTINUOUS
 62
     7
 10
107.4545617927
 20
223.0665696401
 30
0.0
  0
VERTEX
  5
20B
  8
DV1_0
  6
CONTINUOUS
 62
     7
 10
107.4388538554
 20
223.4364346563
 30
0.0
  0
VERTEX
  5
20C
  8
DV1_0
  6
CONTINUOUS
 62
     7
 10
107.4255144873
 20
223.8062996725
 30
0.0
  0
VERTEX
  5
20D
  8
DV1_0
  6
CONTINUOUS
 62
     7
 10
107.4145611971
 20
224.1761646887
 30
0.0
  0
VERTEX
  5
20E
  8
DV1_0
  6
CONTINUOUS
 62
     7
 10
107.4060114933
 20
224.5460297049
 30
0.0
  0
VERTEX
  5
20F
  8
DV1_0
  6
CONTINUOUS
 62
     7
 10
107.3998828847
 20
224.9158947211
 30
0.0
  0
VERTEX
  5
210
  8
DV1_0
  6
CONTINUOUS
 62
     7
 10
107.3961928799
 20
225.2857597373
 30
0.0
  0
VERTEX
  5
211
  8
DV1_0
  6
CONTINUOUS
 62
     7
 10
107.3949589874
 20
225.6556247535
 30
0.0
  0
VERTEX
  5
212
  8
DV1_0
  6
CONTINUOUS
 62
     7
 10
107.3961928799
 20
226.0254897697
 30
0.0
  0
VERTEX
  5
213
  8
DV1_0
  6
CONTINUOUS
 62
     7
 10
107.3998828847
 20
226.3953547859
 30
0.0
  0
VERTEX
  5
214
  8
DV1_0
  6
CONTINUOUS
 62
     7
 10
107.4060114933
 20
226.7652198021
 30
0.0
  0
VERTEX
  5
215
  8
DV1_0
  6
CONTINUOUS
 62
     7
 10
107.4145611971
 20
227.1350848183
 30
0.0
  0
VERTEX
  5
216
  8
DV1_0
  6
CONTINUOUS
 62
     7
 10
107.4255144873
 20
227.5049498345
 30
0.0
  0
VERTEX
  5
217
  8
DV1_0
  6
CONTINUOUS
 62
     7
 10
107.4388538554
 20
227.8748148507
 30
0.0
  0
VERTEX
  5
218
  8
DV1_0
  6
CONTINUOUS
 62
     7
 10
107.4545617927
 20
228.2446798669
 30
0.0
  0
VERTEX
  5
219
  8
DV1_0
  6
CONTINUOUS
 62
     7
 10
107.4726207905
 20
228.6145448831
 30
0.0
  0
VERTEX
  5
21A
  8
DV1_0
  6
CONTINUOUS
 62
     7
 10
107.4930133402
 20
228.9844098993
 30
0.0
  0
VERTEX
  5
21B
  8
DV1_0
  6
CONTINUOUS
 62
     7
 10
107.5157219332
 20
229.3542749155
 30
0.0
  0
VERTEX
  5
21C
  8
DV1_0
  6
CONTINUOUS
 62
     7
 10
107.5407290607
 20
229.7241399317
 30
0.0
  0
VERTEX
  5
21D
  8
DV1_0
  6
CONTINUOUS
 62
     7
 10
107.5680172143
 20
230.0940049479
 30
0.0
  0
VERTEX
  5
21E
  8
DV1_0
  6
CONTINUOUS
 62
     7
 10
107.5975688852
 20
230.4638699641
 30
0.0
  0
VERTEX
  5
21F
  8
DV1_0
  6
CONTINUOUS
 62
     7
 10
107.6293665647
 20
230.8337349803
 30
0.0
  0
VERTEX
  5
220
  8
DV1_0
  6
CONTINUOUS
 62
     7
 10
107.6633927443
 20
231.2035999965
 30
0.0
  0
VERTEX
  5
221
  8
DV1_0
  6
CONTINUOUS
 62
     7
 10
107.6996299152
 20
231.5734650127
 30
0.0
  0
VERTEX
  5
222
  8
DV1_0
  6
CONTINUOUS
 62
     7
 10
107.7380430673
 20
231.9433300289
 30
0.0
  0
VERTEX
  5
223
  8
DV1_0
  6
CONTINUOUS
 62
     7
 10
107.7785845737
 20
232.3131950451
 30
0.0
  0
VERTEX
  5
224
  8
DV1_0
  6
CONTINUOUS
 62
     7
 10
107.8212180005
 20
232.6830600613
 30
0.0
  0
VERTEX
  5
225
  8
DV1_0
  6
CONTINUOUS
 62
     7
 10
107.8659069143
 20
233.0529250775
 30
0.0
  0
VERTEX
  5
226
  8
DV1_0
  6
CONTINUOUS
 62
     7
 10
107.9126148814
 20
233.4227900937
 30
0.0
  0
VERTEX
  5
227
  8
DV1_0
  6
CONTINUOUS
 62
     7
 10
107.961305468
 20
233.7926551099
 30
0.0
  0
VERTEX
  5
228
  8
DV1_0
  6
CONTINUOUS
 62
     7
 10
108.0119422405
 20
234.1625201261
 30
0.0
  0
VERTEX
  5
229
  8
DV1_0
  6
CONTINUOUS
 62
     7
 10
108.0644887654
 20
234.5323851423
 30
0.0
  0
VERTEX
  5
22A
  8
DV1_0
  6
CONTINUOUS
 62
     7
 10
108.1189086088
 20
234.9022501585
 30
0.0
  0
VERTEX
  5
22B
  8
DV1_0
  6
CONTINUOUS
 62
     7
 10
108.1751653372
 20
235.2721151747
 30
0.0
  0
VERTEX
  5
22C
  8
DV1_0
  6
CONTINUOUS
 62
     7
 10
108.2332225169
 20
235.6419801909
 30
0.0
  0
VERTEX
  5
22D
  8
DV1_0
  6
CONTINUOUS
 62
     7
 10
108.2930437143
 20
236.0118452071
 30
0.0
  0
VERTEX
  5
22E
  8
DV1_0
  6
CONTINUOUS
 62
     7
 10
108.3545924956
 20
236.3817102233
 30
0.0
  0
VERTEX
  5
22F
  8
DV1_0
  6
CONTINUOUS
 62
     7
 10
108.4178324273
 20
236.7515752395
 30
0.0
  0
VERTEX
  5
230
  8
DV1_0
  6
CONTINUOUS
 62
     7
 10
108.4827270756
 20
237.1214402557
 30
0.0
  0
VERTEX
  5
231
  8
DV1_0
  6
CONTINUOUS
 62
     7
 10
108.5492400069
 20
237.4913052719
 30
0.0
  0
SEQEND
  5
232
  8
DV1_0
  6
CONTINUOUS
 62
     7
  0
ARC
  5
46
  8
DV1_0
  6
CONTINUOUS
 62
     7
 10
123.3237181719
 20
243.409145531
 30
0.0
 40
15.91559104718671
 50
158.1716867869
 51
201.8283132131
  0
ARC
  5
47
  8
DV1_0
  6
CONTINUOUS
 62
     7
 10
163.7382593344
 20
243.409145531
 30
0.0
 40
15.91559104718667
 50
338.1716867869
 51
21.8283132131
  0
POLYLINE
  5
48
  8
DV1_0
  6
CONTINUOUS
 62
     7
 66
     1
 10
0.0
 20
0.0
 30
0.0
  0
VERTEX
  5
233
  8
DV1_0
  6
CONTINUOUS
 62
     7
 10
178.5127374994
 20
237.4913052719
 30
0.0
  0
VERTEX
  5
234
  8
DV1_0
  6
CONTINUOUS
 62
     7
 10
178.5792504307
 20
237.1214402557
 30
0.0
  0
VERTEX
  5
235
  8
DV1_0
  6
CONTINUOUS
 62
     7
 10
178.6441450791
 20
236.7515752395
 30
0.0
  0
VERTEX
  5
236
  8
DV1_0
  6
CONTINUOUS
 62
     7
 10
178.7073850107
 20
236.3817102233
 30
0.0
  0
VERTEX
  5
237
  8
DV1_0
  6
CONTINUOUS
 62
     7
 10
178.7689337921
 20
236.0118452071
 30
0.0
  0
VERTEX
  5
238
  8
DV1_0
  6
CONTINUOUS
 62
     7
 10
178.8287549894
 20
235.6419801909
 30
0.0
  0
VERTEX
  5
239
  8
DV1_0
  6
CONTINUOUS
 62
     7
 10
178.8868121691
 20
235.2721151747
 30
0.0
  0
VERTEX
  5
23A
  8
DV1_0
  6
CONTINUOUS
 62
     7
 10
178.9430688975
 20
234.9022501585
 30
0.0
  0
VERTEX
  5
23B
  8
DV1_0
  6
CONTINUOUS
 62
     7
 10
178.997488741
 20
234.5323851423
 30
0.0
  0
VERTEX
  5
23C
  8
DV1_0
  6
CONTINUOUS
 62
     7
 10
179.0500352658
 20
234.1625201261
 30
0.0
  0
VERTEX
  5
23D
  8
DV1_0
  6
CONTINUOUS
 62
     7
 10
179.1006720384
 20
233.7926551099
 30
0.0
  0
VERTEX
  5
23E
  8
DV1_0
  6
CONTINUOUS
 62
     7
 10
179.149362625
 20
233.4227900937
 30
0.0
  0
VERTEX
  5
23F
  8
DV1_0
  6
CONTINUOUS
 62
     7
 10
179.196070592
 20
233.0529250775
 30
0.0
  0
VERTEX
  5
240
  8
DV1_0
  6
CONTINUOUS
 62
     7
 10
179.2407595058
 20
232.6830600613
 30
0.0
  0
VERTEX
  5
241
  8
DV1_0
  6
CONTINUOUS
 62
     7
 10
179.2833929327
 20
232.3131950451
 30
0.0
  0
VERTEX
  5
242
  8
DV1_0
  6
CONTINUOUS
 62
     7
 10
179.323934439
 20
231.9433300289
 30
0.0
  0
VERTEX
  5
243
  8
DV1_0
  6
CONTINUOUS
 62
     7
 10
179.3623475911
 20
231.5734650127
 30
0.0
  0
VERTEX
  5
244
  8
DV1_0
  6
CONTINUOUS
 62
     7
 10
179.398584762
 20
231.2035999965
 30
0.0
  0
VERTEX
  5
245
  8
DV1_0
  6
CONTINUOUS
 62
     7
 10
179.4326109416
 20
230.8337349803
 30
0.0
  0
VERTEX
  5
246
  8
DV1_0
  6
CONTINUOUS
 62
     7
 10
179.4644086212
 20
230.4638699641
 30
0.0
  0
VERTEX
  5
247
  8
DV1_0
  6
CONTINUOUS
 62
     7
 10
179.493960292
 20
230.0940049479
 30
0.0
  0
VERTEX
  5
248
  8
DV1_0
  6
CONTINUOUS
 62
     7
 10
179.5212484456
 20
229.7241399317
 30
0.0
  0
VERTEX
  5
249
  8
DV1_0
  6
CONTINUOUS
 62
     7
 10
179.5462555732
 20
229.3542749155
 30
0.0
  0
VERTEX
  5
24A
  8
DV1_0
  6
CONTINUOUS
 62
     7
 10
179.5689641661
 20
228.9844098993
 30
0.0
  0
VERTEX
  5
24B
  8
DV1_0
  6
CONTINUOUS
 62
     7
 10
179.5893567159
 20
228.6145448831
 30
0.0
  0
VERTEX
  5
24C
  8
DV1_0
  6
CONTINUOUS
 62
     7
 10
179.6074157137
 20
228.2446798669
 30
0.0
  0
VERTEX
  5
24D
  8
DV1_0
  6
CONTINUOUS
 62
     7
 10
179.6231236509
 20
227.8748148507
 30
0.0
  0
VERTEX
  5
24E
  8
DV1_0
  6
CONTINUOUS
 62
     7
 10
179.636463019
 20
227.5049498345
 30
0.0
  0
VERTEX
  5
24F
  8
DV1_0
  6
CONTINUOUS
 62
     7
 10
179.6474163093
 20
227.1350848183
 30
0.0
  0
VERTEX
  5
250
  8
DV1_0
  6
CONTINUOUS
 62
     7
 10
179.655966013
 20
226.7652198021
 30
0.0
  0
VERTEX
  5
251
  8
DV1_0
  6
CONTINUOUS
 62
     7
 10
179.6620946216
 20
226.3953547859
 30
0.0
  0
VERTEX
  5
252
  8
DV1_0
  6
CONTINUOUS
 62
     7
 10
179.6657846265
 20
226.0254897697
 30
0.0
  0
VERTEX
  5
253
  8
DV1_0
  6
CONTINUOUS
 62
     7
 10
179.6670185189
 20
225.6556247535
 30
0.0
  0
VERTEX
  5
254
  8
DV1_0
  6
CONTINUOUS
 62
     7
 10
179.6657846265
 20
225.2857597373
 30
0.0
  0
VERTEX
  5
255
  8
DV1_0
  6
CONTINUOUS
 62
     7
 10
179.6620946216
 20
224.9158947211
 30
0.0
  0
VERTEX
  5
256
  8
DV1_0
  6
CONTINUOUS
 62
     7
 10
179.655966013
 20
224.5460297049
 30
0.0
  0
VERTEX
  5
257
  8
DV1_0
  6
CONTINUOUS
 62
     7
 10
179.6474163093
 20
224.1761646887
 30
0.0
  0
VERTEX
  5
258
  8
DV1_0
  6
CONTINUOUS
 62
     7
 10
179.636463019
 20
223.8062996725
 30
0.0
  0
VERTEX
  5
259
  8
DV1_0
  6
CONTINUOUS
 62
     7
 10
179.6231236509
 20
223.4364346563
 30
0.0
  0
VERTEX
  5
25A
  8
DV1_0
  6
CONTINUOUS
 62
     7
 10
179.6074157137
 20
223.0665696401
 30
0.0
  0
VERTEX
  5
25B
  8
DV1_0
  6
CONTINUOUS
 62
     7
 10
179.5893567159
 20
222.6967046239
 30
0.0
  0
VERTEX
  5
25C
  8
DV1_0
  6
CONTINUOUS
 62
     7
 10
179.5689641661
 20
222.3268396077
 30
0.0
  0
VERTEX
  5
25D
  8
DV1_0
  6
CONTINUOUS
 62
     7
 10
179.5462555732
 20
221.9569745915
 30
0.0
  0
VERTEX
  5
25E
  8
DV1_0
  6
CONTINUOUS
 62
     7
 10
179.5212484456
 20
221.5871095753
 30
0.0
  0
VERTEX
  5
25F
  8
DV1_0
  6
CONTINUOUS
 62
     7
 10
179.493960292
 20
221.2172445591
 30
0.0
  0
VERTEX
  5
260
  8
DV1_0
  6
CONTINUOUS
 62
     7
 10
179.4644086212
 20
220.8473795429
 30
0.0
  0
VERTEX
  5
261
  8
DV1_0
  6
CONTINUOUS
 62
     7
 10
179.4326109416
 20
220.4775145267
 30
0.0
  0
VERTEX
  5
262
  8
DV1_0
  6
CONTINUOUS
 62
     7
 10
179.398584762
 20
220.1076495105
 30
0.0
  0
VERTEX
  5
263
  8
DV1_0
  6
CONTINUOUS
 62
     7
 10
179.3623475911
 20
219.7377844943
 30
0.0
  0
VERTEX
  5
264
  8
DV1_0
  6
CONTINUOUS
 62
     7
 10
179.323934439
 20
219.3679194781
 30
0.0
  0
VERTEX
  5
265
  8
DV1_0
  6
CONTINUOUS
 62
     7
 10
179.2833929327
 20
218.9980544619
 30
0.0
  0
VERTEX
  5
266
  8
DV1_0
  6
CONTINUOUS
 62
     7
 10
179.2407595058
 20
218.6281894457
 30
0.0
  0
VERTEX
  5
267
  8
DV1_0
  6
CONTINUOUS
 62
     7
 10
179.196070592
 20
218.2583244295
 30
0.0
  0
VERTEX
  5
268
  8
DV1_0
  6
CONTINUOUS
 62
     7
 10
179.149362625
 20
217.8884594133
 30
0.0
  0
VERTEX
  5
269
  8
DV1_0
  6
CONTINUOUS
 62
     7
 10
179.1006720384
 20
217.5185943971
 30
0.0
  0
VERTEX
  5
26A
  8
DV1_0
  6
CONTINUOUS
 62
     7
 10
179.0500352658
 20
217.1487293809
 30
0.0
  0
VERTEX
  5
26B
  8
DV1_0
  6
CONTINUOUS
 62
     7
 10
178.997488741
 20
216.7788643647
 30
0.0
  0
VERTEX
  5
26C
  8
DV1_0
  6
CONTINUOUS
 62
     7
 10
178.9430688975
 20
216.4089993485
 30
0.0
  0
VERTEX
  5
26D
  8
DV1_0
  6
CONTINUOUS
 62
     7
 10
178.8868121691
 20
216.0391343323
 30
0.0
  0
VERTEX
  5
26E
  8
DV1_0
  6
CONTINUOUS
 62
     7
 10
178.8287549894
 20
215.6692693161
 30
0.0
  0
VERTEX
  5
26F
  8
DV1_0
  6
CONTINUOUS
 62
     7
 10
178.7689337921
 20
215.2994042999
 30
0.0
  0
VERTEX
  5
270
  8
DV1_0
  6
CONTINUOUS
 62
     7
 10
178.7073850107
 20
214.9295392837
 30
0.0
  0
VERTEX
  5
271
  8
DV1_0
  6
CONTINUOUS
 62
     7
 10
178.6441450791
 20
214.5596742675
 30
0.0
  0
VERTEX
  5
272
  8
DV1_0
  6
CONTINUOUS
 62
     7
 10
178.5792504307
 20
214.1898092513
 30
0.0
  0
VERTEX
  5
273
  8
DV1_0
  6
CONTINUOUS
 62
     7
 10
178.5127374994
 20
213.8199442351
 30
0.0
  0
SEQEND
  5
274
  8
DV1_0
  6
CONTINUOUS
 62
     7
  0
ARC
  5
49
  8
DV1_0
  6
CONTINUOUS
 62
     7
 10
163.7382593344
 20
207.9021039759
 30
0.0
 40
15.91559104718669
 50
338.1716867869
 51
21.8283132131
  0
LINE
  5
4A
  8
DV1_0
  6
CONTINUOUS
 62
     7
 10
180.0309887532
 20
245.1556247535
 30
0.0
 11
180.0309887532
 21
206.1556247535
 31
0.0
  0
LINE
  5
4B
  8
DV1_0
  6
CONTINUOUS
 62
     7
 10
178.5127374994
 20
201.9842637167
 30
0.0
 11
170.7312251241
 21
201.9842637167
 31
0.0
  0
ARC
  5
4C
  8
DV1_0
  6
CONTINUOUS
 62
     7
 10
119.2791401807
 20
324.9603383704
 30
0.0
 40
8.409861879956956
 50
149.5264505537
 51
183.4406447909
  0
POLYLINE
  5
4D
  8
DV1_0
  6
CONTINUOUS
 62
     7
 66
     1
 10
0.0
 20
0.0
 30
0.0
  0
VERTEX
  5
275
  8
DV1_0
  6
CONTINUOUS
 62
     7
 10
116.2805908824
 20
324.4556247535
 30
0.0
  0
VERTEX
  5
276
  8
DV1_0
  6
CONTINUOUS
 62
     7
 10
116.2864517074
 20
324.6335107683
 30
0.0
  0
VERTEX
  5
277
  8
DV1_0
  6
CONTINUOUS
 62
     7
 10
116.3037202573
 20
324.8095465569
 30
0.0
  0
VERTEX
  5
278
  8
DV1_0
  6
CONTINUOUS
 62
     7
 10
116.3319256451
 20
324.9833837189
 30
0.0
  0
VERTEX
  5
279
  8
DV1_0
  6
CONTINUOUS
 62
     7
 10
116.3705969833
 20
325.154673854
 30
0.0
  0
VERTEX
  5
27A
  8
DV1_0
  6
CONTINUOUS
 62
     7
 10
116.4192633848
 20
325.323068562
 30
0.0
  0
VERTEX
  5
27B
  8
DV1_0
  6
CONTINUOUS
 62
     7
 10
116.4774539623
 20
325.4882194426
 30
0.0
  0
VERTEX
  5
27C
  8
DV1_0
  6
CONTINUOUS
 62
     7
 10
116.5446978286
 20
325.6497780955
 30
0.0
  0
VERTEX
  5
27D
  8
DV1_0
  6
CONTINUOUS
 62
     7
 10
116.6205240963
 20
325.8073961204
 30
0.0
  0
VERTEX
  5
27E
  8
DV1_0
  6
CONTINUOUS
 62
     7
 10
116.7044618782
 20
325.960725117
 30
0.0
  0
VERTEX
  5
27F
  8
DV1_0
  6
CONTINUOUS
 62
     7
 10
116.7960402871
 20
326.1094166851
 30
0.0
  0
VERTEX
  5
280
  8
DV1_0
  6
CONTINUOUS
 62
     7
 10
116.894643061
 20
326.2530671622
 30
0.0
  0
VERTEX
  5
281
  8
DV1_0
  6
CONTINUOUS
 62
     7
 10
116.9989683497
 20
326.3911873245
 30
0.0
  0
VERTEX
  5
282
  8
DV1_0
  6
CONTINUOUS
 62
     7
 10
117.1085053982
 20
326.5238609793
 30
0.0
  0
VERTEX
  5
283
  8
DV1_0
  6
CONTINUOUS
 62
     7
 10
117.2228934131
 20
326.6512483902
 30
0.0
  0
VERTEX
  5
284
  8
DV1_0
  6
CONTINUOUS
 62
     7
 10
117.3417716014
 20
326.7735098209
 30
0.0
  0
VERTEX
  5
285
  8
DV1_0
  6
CONTINUOUS
 62
     7
 10
117.4647791696
 20
326.8908055353
 30
0.0
  0
VERTEX
  5
286
  8
DV1_0
  6
CONTINUOUS
 62
     7
 10
117.5915553247
 20
327.0032957968
 30
0.0
  0
VERTEX
  5
287
  8
DV1_0
  6
CONTINUOUS
 62
     7
 10
117.7217392735
 20
327.1111408694
 30
0.0
  0
VERTEX
  5
288
  8
DV1_0
  6
CONTINUOUS
 62
     7
 10
117.8549702226
 20
327.2145010166
 30
0.0
  0
VERTEX
  5
289
  8
DV1_0
  6
CONTINUOUS
 62
     7
 10
117.990887379
 20
327.3135365021
 30
0.0
  0
VERTEX
  5
28A
  8
DV1_0
  6
CONTINUOUS
 62
     7
 10
118.1291299493
 20
327.4084075898
 30
0.0
  0
VERTEX
  5
28B
  8
DV1_0
  6
CONTINUOUS
 62
     7
 10
118.269312303
 20
327.499319063
 30
0.0
  0
VERTEX
  5
28C
  8
DV1_0
  6
CONTINUOUS
 62
     7
 10
118.4112226574
 20
327.586441821
 30
0.0
  0
VERTEX
  5
28D
  8
DV1_0
  6
CONTINUOUS
 62
     7
 10
118.554760991
 20
327.6698853012
 30
0.0
  0
VERTEX
  5
28E
  8
DV1_0
  6
CONTINUOUS
 62
     7
 10
118.6998272822
 20
327.7497589408
 30
0.0
  0
VERTEX
  5
28F
  8
DV1_0
  6
CONTINUOUS
 62
     7
 10
118.8463215095
 20
327.8261721773
 30
0.0
  0
VERTEX
  5
290
  8
DV1_0
  6
CONTINUOUS
 62
     7
 10
118.9941436512
 20
327.899234448
 30
0.0
  0
VERTEX
  5
291
  8
DV1_0
  6
CONTINUOUS
 62
     7
 10
119.143193686
 20
327.9690551902
 30
0.0
  0
VERTEX
  5
292
  8
DV1_0
  6
CONTINUOUS
 62
     7
 10
119.2933715922
 20
328.0357438412
 30
0.0
  0
VERTEX
  5
293
  8
DV1_0
  6
CONTINUOUS
 62
     7
 10
119.4445773483
 20
328.0994098384
 30
0.0
  0
VERTEX
  5
294
  8
DV1_0
  6
CONTINUOUS
 62
     7
 10
119.5967109328
 20
328.1601626191
 30
0.0
  0
VERTEX
  5
295
  8
DV1_0
  6
CONTINUOUS
 62
     7
 10
119.7496723241
 20
328.2181116207
 30
0.0
  0
VERTEX
  5
296
  8
DV1_0
  6
CONTINUOUS
 62
     7
 10
119.9033615006
 20
328.2733662804
 30
0.0
  0
VERTEX
  5
297
  8
DV1_0
  6
CONTINUOUS
 62
     7
 10
120.0576784409
 20
328.3260360357
 30
0.0
  0
VERTEX
  5
298
  8
DV1_0
  6
CONTINUOUS
 62
     7
 10
120.2125231234
 20
328.3762303238
 30
0.0
  0
VERTEX
  5
299
  8
DV1_0
  6
CONTINUOUS
 62
     7
 10
120.3677955266
 20
328.4240585822
 30
0.0
  0
VERTEX
  5
29A
  8
DV1_0
  6
CONTINUOUS
 62
     7
 10
120.5233956289
 20
328.469630248
 30
0.0
  0
VERTEX
  5
29B
  8
DV1_0
  6
CONTINUOUS
 62
     7
 10
120.6792234087
 20
328.5130547587
 30
0.0
  0
VERTEX
  5
29C
  8
DV1_0
  6
CONTINUOUS
 62
     7
 10
120.8351788446
 20
328.5544415516
 30
0.0
  0
VERTEX
  5
29D
  8
DV1_0
  6
CONTINUOUS
 62
     7
 10
120.991161915
 20
328.5939000641
 30
0.0
  0
VERTEX
  5
29E
  8
DV1_0
  6
CONTINUOUS
 62
     7
 10
121.1470725984
 20
328.6315397334
 30
0.0
  0
VERTEX
  5
29F
  8
DV1_0
  6
CONTINUOUS
 62
     7
 10
121.3028108732
 20
328.667469997
 30
0.0
  0
VERTEX
  5
2A0
  8
DV1_0
  6
CONTINUOUS
 62
     7
 10
121.4584487731
 20
328.701776876
 30
0.0
  0
VERTEX
  5
2A1
  8
DV1_0
  6
CONTINUOUS
 62
     7
 10
121.6141205313
 20
328.7345044317
 30
0.0
  0
VERTEX
  5
2A2
  8
DV1_0
  6
CONTINUOUS
 62
     7
 10
121.7698194248
 20
328.7656991611
 30
0.0
  0
VERTEX
  5
2A3
  8
DV1_0
  6
CONTINUOUS
 62
     7
 10
121.925538731
 20
328.7954075614
 30
0.0
  0
VERTEX
  5
2A4
  8
DV1_0
  6
CONTINUOUS
 62
     7
 10
122.0812717269
 20
328.8236761297
 30
0.0
  0
VERTEX
  5
2A5
  8
DV1_0
  6
CONTINUOUS
 62
     7
 10
122.23701169
 20
328.8505513633
 30
0.0
  0
VERTEX
  5
2A6
  8
DV1_0
  6
CONTINUOUS
 62
     7
 10
122.3927518973
 20
328.8760797591
 30
0.0
  0
VERTEX
  5
2A7
  8
DV1_0
  6
CONTINUOUS
 62
     7
 10
122.5484856261
 20
328.9003078143
 30
0.0
  0
VERTEX
  5
2A8
  8
DV1_0
  6
CONTINUOUS
 62
     7
 10
122.7042061536
 20
328.9232820262
 30
0.0
  0
VERTEX
  5
2A9
  8
DV1_0
  6
CONTINUOUS
 62
     7
 10
122.8599067571
 20
328.9450488917
 30
0.0
  0
VERTEX
  5
2AA
  8
DV1_0
  6
CONTINUOUS
 62
     7
 10
123.0155807137
 20
328.9656549081
 30
0.0
  0
VERTEX
  5
2AB
  8
DV1_0
  6
CONTINUOUS
 62
     7
 10
123.1712213007
 20
328.9851465725
 30
0.0
  0
VERTEX
  5
2AC
  8
DV1_0
  6
CONTINUOUS
 62
     7
 10
123.3268217952
 20
329.003570382
 30
0.0
  0
VERTEX
  5
2AD
  8
DV1_0
  6
CONTINUOUS
 62
     7
 10
123.4823754746
 20
329.0209728337
 30
0.0
  0
VERTEX
  5
2AE
  8
DV1_0
  6
CONTINUOUS
 62
     7
 10
123.6378756161
 20
329.0374004248
 30
0.0
  0
VERTEX
  5
2AF
  8
DV1_0
  6
CONTINUOUS
 62
     7
 10
123.7933154967
 20
329.0528996525
 30
0.0
  0
VERTEX
  5
2B0
  8
DV1_0
  6
CONTINUOUS
 62
     7
 10
123.9486883939
 20
329.0675170138
 30
0.0
  0
VERTEX
  5
2B1
  8
DV1_0
  6
CONTINUOUS
 62
     7
 10
124.1039875847
 20
329.0812990059
 30
0.0
  0
VERTEX
  5
2B2
  8
DV1_0
  6
CONTINUOUS
 62
     7
 10
124.2592063465
 20
329.0942921259
 30
0.0
  0
VERTEX
  5
2B3
  8
DV1_0
  6
CONTINUOUS
 62
     7
 10
124.4143379564
 20
329.106542871
 30
0.0
  0
VERTEX
  5
2B4
  8
DV1_0
  6
CONTINUOUS
 62
     7
 10
124.5693756917
 20
329.1180977383
 30
0.0
  0
VERTEX
  5
2B5
  8
DV1_0
  6
CONTINUOUS
 62
     7
 10
124.724310769
 20
329.1289842346
 30
0.0
  0
VERTEX
  5
2B6
  8
DV1_0
  6
CONTINUOUS
 62
     7
 10
124.8791340457
 20
329.1392078014
 30
0.0
  0
VERTEX
  5
2B7
  8
DV1_0
  6
CONTINUOUS
 62
     7
 10
125.0338382596
 20
329.148781838
 30
0.0
  0
VERTEX
  5
2B8
  8
DV1_0
  6
CONTINUOUS
 62
     7
 10
125.1884161484
 20
329.1577197436
 30
0.0
  0
VERTEX
  5
2B9
  8
DV1_0
  6
CONTINUOUS
 62
     7
 10
125.3428604501
 20
329.1660349176
 30
0.0
  0
VERTEX
  5
2BA
  8
DV1_0
  6
CONTINUOUS
 62
     7
 10
125.4971639026
 20
329.1737407592
 30
0.0
  0
VERTEX
  5
2BB
  8
DV1_0
  6
CONTINUOUS
 62
     7
 10
125.6513192436
 20
329.1808506676
 30
0.0
  0
VERTEX
  5
2BC
  8
DV1_0
  6
CONTINUOUS
 62
     7
 10
125.805319211
 20
329.1873780422
 30
0.0
  0
VERTEX
  5
2BD
  8
DV1_0
  6
CONTINUOUS
 62
     7
 10
125.9591565428
 20
329.1933362822
 30
0.0
  0
VERTEX
  5
2BE
  8
DV1_0
  6
CONTINUOUS
 62
     7
 10
126.1128239766
 20
329.1987387869
 30
0.0
  0
VERTEX
  5
2BF
  8
DV1_0
  6
CONTINUOUS
 62
     7
 10
126.2663142505
 20
329.2035989555
 30
0.0
  0
VERTEX
  5
2C0
  8
DV1_0
  6
CONTINUOUS
 62
     7
 10
126.4196201022
 20
329.2079301874
 30
0.0
  0
VERTEX
  5
2C1
  8
DV1_0
  6
CONTINUOUS
 62
     7
 10
126.5727342696
 20
329.2117458817
 30
0.0
  0
VERTEX
  5
2C2
  8
DV1_0
  6
CONTINUOUS
 62
     7
 10
126.7256494905
 20
329.2150594378
 30
0.0
  0
VERTEX
  5
2C3
  8
DV1_0
  6
CONTINUOUS
 62
     7
 10
126.8783585028
 20
329.2178842549
 30
0.0
  0
VERTEX
  5
2C4
  8
DV1_0
  6
CONTINUOUS
 62
     7
 10
127.0308540444
 20
329.2202337323
 30
0.0
  0
VERTEX
  5
2C5
  8
DV1_0
  6
CONTINUOUS
 62
     7
 10
127.1831288531
 20
329.2221212693
 30
0.0
  0
VERTEX
  5
2C6
  8
DV1_0
  6
CONTINUOUS
 62
     7
 10
127.3351756668
 20
329.2235602651
 30
0.0
  0
VERTEX
  5
2C7
  8
DV1_0
  6
CONTINUOUS
 62
     7
 10
127.4869872233
 20
329.2245641191
 30
0.0
  0
VERTEX
  5
2C8
  8
DV1_0
  6
CONTINUOUS
 62
     7
 10
127.6385562604
 20
329.2251462304
 30
0.0
  0
VERTEX
  5
2C9
  8
DV1_0
  6
CONTINUOUS
 62
     7
 10
127.7898755161
 20
329.2253199983
 30
0.0
  0
VERTEX
  5
2CA
  8
DV1_0
  6
CONTINUOUS
 62
     7
 10
127.9409719248
 20
329.2250947513
 30
0.0
  0
VERTEX
  5
2CB
  8
DV1_0
  6
CONTINUOUS
 62
     7
 10
128.091873696
 20
329.2244617467
 30
0.0
  0
VERTEX
  5
2CC
  8
DV1_0
  6
CONTINUOUS
 62
     7
 10
128.2425754802
 20
329.2234072771
 30
0.0
  0
VERTEX
  5
2CD
  8
DV1_0
  6
CONTINUOUS
 62
     7
 10
128.3930719277
 20
329.2219176354
 30
0.0
  0
VERTEX
  5
2CE
  8
DV1_0
  6
CONTINUOUS
 62
     7
 10
128.5433576891
 20
329.2199791141
 30
0.0
  0
VERTEX
  5
2CF
  8
DV1_0
  6
CONTINUOUS
 62
     7
 10
128.6934274146
 20
329.2175780059
 30
0.0
  0
VERTEX
  5
2D0
  8
DV1_0
  6
CONTINUOUS
 62
     7
 10
128.8432757548
 20
329.2147006036
 30
0.0
  0
VERTEX
  5
2D1
  8
DV1_0
  6
CONTINUOUS
 62
     7
 10
128.99289736
 20
329.2113331998
 30
0.0
  0
VERTEX
  5
2D2
  8
DV1_0
  6
CONTINUOUS
 62
     7
 10
129.1422868807
 20
329.2074620872
 30
0.0
  0
VERTEX
  5
2D3
  8
DV1_0
  6
CONTINUOUS
 62
     7
 10
129.2914389672
 20
329.2030735586
 30
0.0
  0
VERTEX
  5
2D4
  8
DV1_0
  6
CONTINUOUS
 62
     7
 10
129.44034827
 20
329.1981539065
 30
0.0
  0
VERTEX
  5
2D5
  8
DV1_0
  6
CONTINUOUS
 62
     7
 10
129.5890094396
 20
329.1926894237
 30
0.0
  0
VERTEX
  5
2D6
  8
DV1_0
  6
CONTINUOUS
 62
     7
 10
129.7374171262
 20
329.1866664029
 30
0.0
  0
VERTEX
  5
2D7
  8
DV1_0
  6
CONTINUOUS
 62
     7
 10
129.8855659804
 20
329.1800711368
 30
0.0
  0
VERTEX
  5
2D8
  8
DV1_0
  6
CONTINUOUS
 62
     7
 10
130.0334506526
 20
329.1728899181
 30
0.0
  0
VERTEX
  5
2D9
  8
DV1_0
  6
CONTINUOUS
 62
     7
 10
130.1810657931
 20
329.1651090394
 30
0.0
  0
VERTEX
  5
2DA
  8
DV1_0
  6
CONTINUOUS
 62
     7
 10
130.3284060524
 20
329.1567147934
 30
0.0
  0
VERTEX
  5
2DB
  8
DV1_0
  6
CONTINUOUS
 62
     7
 10
130.475466081
 20
329.1476934729
 30
0.0
  0
VERTEX
  5
2DC
  8
DV1_0
  6
CONTINUOUS
 62
     7
 10
130.6222405291
 20
329.1380313705
 30
0.0
  0
VERTEX
  5
2DD
  8
DV1_0
  6
CONTINUOUS
 62
     7
 10
130.7687240473
 20
329.1277147789
 30
0.0
  0
VERTEX
  5
2DE
  8
DV1_0
  6
CONTINUOUS
 62
     7
 10
130.9149112859
 20
329.1167299908
 30
0.0
  0
VERTEX
  5
2DF
  8
DV1_0
  6
CONTINUOUS
 62
     7
 10
131.0608029724
 20
329.1050718719
 30
0.0
  0
VERTEX
  5
2E0
  8
DV1_0
  6
CONTINUOUS
 62
     7
 10
131.2063998593
 20
329.0927121784
 30
0.0
  0
VERTEX
  5
2E1
  8
DV1_0
  6
CONTINUOUS
 62
     7
 10
131.3516966348
 20
329.0796025385
 30
0.0
  0
VERTEX
  5
2E2
  8
DV1_0
  6
CONTINUOUS
 62
     7
 10
131.4966879873
 20
329.0656945805
 30
0.0
  0
VERTEX
  5
2E3
  8
DV1_0
  6
CONTINUOUS
 62
     7
 10
131.6413686048
 20
329.0509399328
 30
0.0
  0
VERTEX
  5
2E4
  8
DV1_0
  6
CONTINUOUS
 62
     7
 10
131.7857331755
 20
329.0352902235
 30
0.0
  0
VERTEX
  5
2E5
  8
DV1_0
  6
CONTINUOUS
 62
     7
 10
131.9297763878
 20
329.018697081
 30
0.0
  0
VERTEX
  5
2E6
  8
DV1_0
  6
CONTINUOUS
 62
     7
 10
132.0734929299
 20
329.0011121335
 30
0.0
  0
VERTEX
  5
2E7
  8
DV1_0
  6
CONTINUOUS
 62
     7
 10
132.2168774898
 20
328.9824870094
 30
0.0
  0
VERTEX
  5
2E8
  8
DV1_0
  6
CONTINUOUS
 62
     7
 10
132.359924756
 20
328.9627733369
 30
0.0
  0
VERTEX
  5
2E9
  8
DV1_0
  6
CONTINUOUS
 62
     7
 10
132.5026294165
 20
328.9419227443
 30
0.0
  0
VERTEX
  5
2EA
  8
DV1_0
  6
CONTINUOUS
 62
     7
 10
132.6449861595
 20
328.9198868598
 30
0.0
  0
VERTEX
  5
2EB
  8
DV1_0
  6
CONTINUOUS
 62
     7
 10
132.7869896734
 20
328.8966173119
 30
0.0
  0
VERTEX
  5
2EC
  8
DV1_0
  6
CONTINUOUS
 62
     7
 10
132.9286346464
 20
328.8720657286
 30
0.0
  0
VERTEX
  5
2ED
  8
DV1_0
  6
CONTINUOUS
 62
     7
 10
133.0699157665
 20
328.8461837385
 30
0.0
  0
VERTEX
  5
2EE
  8
DV1_0
  6
CONTINUOUS
 62
     7
 10
133.2108277221
 20
328.8189229696
 30
0.0
  0
VERTEX
  5
2EF
  8
DV1_0
  6
CONTINUOUS
 62
     7
 10
133.3513652014
 20
328.7902350503
 30
0.0
  0
VERTEX
  5
2F0
  8
DV1_0
  6
CONTINUOUS
 62
     7
 10
133.4915228925
 20
328.7600716089
 30
0.0
  0
VERTEX
  5
2F1
  8
DV1_0
  6
CONTINUOUS
 62
     7
 10
133.6312954838
 20
328.7283842737
 30
0.0
  0
VERTEX
  5
2F2
  8
DV1_0
  6
CONTINUOUS
 62
     7
 10
133.7706776634
 20
328.6951246729
 30
0.0
  0
VERTEX
  5
2F3
  8
DV1_0
  6
CONTINUOUS
 62
     7
 10
133.9096641195
 20
328.6602444348
 30
0.0
  0
VERTEX
  5
2F4
  8
DV1_0
  6
CONTINUOUS
 62
     7
 10
134.0482463107
 20
328.6237261544
 30
0.0
  0
VERTEX
  5
2F5
  8
DV1_0
  6
CONTINUOUS
 62
     7
 10
134.1863724852
 20
328.5855133842
 30
0.0
  0
VERTEX
  5
2F6
  8
DV1_0
  6
CONTINUOUS
 62
     7
 10
134.3239725157
 20
328.5454991891
 30
0.0
  0
VERTEX
  5
2F7
  8
DV1_0
  6
CONTINUOUS
 62
     7
 10
134.4609762749
 20
328.5035766341
 30
0.0
  0
VERTEX
  5
2F8
  8
DV1_0
  6
CONTINUOUS
 62
     7
 10
134.5973136355
 20
328.4596387842
 30
0.0
  0
VERTEX
  5
2F9
  8
DV1_0
  6
CONTINUOUS
 62
     7
 10
134.7329144702
 20
328.4135787042
 30
0.0
  0
VERTEX
  5
2FA
  8
DV1_0
  6
CONTINUOUS
 62
     7
 10
134.8677086516
 20
328.3652894591
 30
0.0
  0
VERTEX
  5
2FB
  8
DV1_0
  6
CONTINUOUS
 62
     7
 10
135.0016260525
 20
328.3146641139
 30
0.0
  0
VERTEX
  5
2FC
  8
DV1_0
  6
CONTINUOUS
 62
     7
 10
135.1345965456
 20
328.2615957334
 30
0.0
  0
VERTEX
  5
2FD
  8
DV1_0
  6
CONTINUOUS
 62
     7
 10
135.2665500036
 20
328.2059773826
 30
0.0
  0
VERTEX
  5
2FE
  8
DV1_0
  6
CONTINUOUS
 62
     7
 10
135.3974162991
 20
328.1477021264
 30
0.0
  0
VERTEX
  5
2FF
  8
DV1_0
  6
CONTINUOUS
 62
     7
 10
135.5271253048
 20
328.0866630298
 30
0.0
  0
VERTEX
  5
300
  8
DV1_0
  6
CONTINUOUS
 62
     7
 10
135.6556068935
 20
328.0227531576
 30
0.0
  0
VERTEX
  5
301
  8
DV1_0
  6
CONTINUOUS
 62
     7
 10
135.7827909378
 20
327.9558655749
 30
0.0
  0
VERTEX
  5
302
  8
DV1_0
  6
CONTINUOUS
 62
     7
 10
135.9086073105
 20
327.8858933465
 30
0.0
  0
VERTEX
  5
303
  8
DV1_0
  6
CONTINUOUS
 62
     7
 10
136.0329858842
 20
327.8127295375
 30
0.0
  0
VERTEX
  5
304
  8
DV1_0
  6
CONTINUOUS
 62
     7
 10
136.1558565316
 20
327.7362672126
 30
0.0
  0
VERTEX
  5
305
  8
DV1_0
  6
CONTINUOUS
 62
     7
 10
136.2771491254
 20
327.6563994369
 30
0.0
  0
VERTEX
  5
306
  8
DV1_0
  6
CONTINUOUS
 62
     7
 10
136.3967935383
 20
327.5730192753
 30
0.0
  0
VERTEX
  5
307
  8
DV1_0
  6
CONTINUOUS
 62
     7
 10
136.514719643
 20
327.4860197927
 30
0.0
  0
VERTEX
  5
308
  8
DV1_0
  6
CONTINUOUS
 62
     7
 10
136.6308573122
 20
327.3952940541
 30
0.0
  0
VERTEX
  5
309
  8
DV1_0
  6
CONTINUOUS
 62
     7
 10
136.7451328455
 20
327.3005381979
 30
0.0
  0
VERTEX
  5
30A
  8
DV1_0
  6
CONTINUOUS
 62
     7
 10
136.8573086222
 20
327.2014636665
 30
0.0
  0
VERTEX
  5
30B
  8
DV1_0
  6
CONTINUOUS
 62
     7
 10
136.9670686344
 20
327.0979864806
 30
0.0
  0
VERTEX
  5
30C
  8
DV1_0
  6
CONTINUOUS
 62
     7
 10
137.0740968743
 20
326.9900226608
 30
0.0
  0
VERTEX
  5
30D
  8
DV1_0
  6
CONTINUOUS
 62
     7
 10
137.1780773343
 20
326.8774882277
 30
0.0
  0
VERTEX
  5
30E
  8
DV1_0
  6
CONTINUOUS
 62
     7
 10
137.2786940065
 20
326.7602992022
 30
0.0
  0
VERTEX
  5
30F
  8
DV1_0
  6
CONTINUOUS
 62
     7
 10
137.3756308831
 20
326.6383716047
 30
0.0
  0
VERTEX
  5
310
  8
DV1_0
  6
CONTINUOUS
 62
     7
 10
137.4685719563
 20
326.511621456
 30
0.0
  0
VERTEX
  5
311
  8
DV1_0
  6
CONTINUOUS
 62
     7
 10
137.5572012184
 20
326.3799647768
 30
0.0
  0
VERTEX
  5
312
  8
DV1_0
  6
CONTINUOUS
 62
     7
 10
137.6412026617
 20
326.2433175876
 30
0.0
  0
VERTEX
  5
313
  8
DV1_0
  6
CONTINUOUS
 62
     7
 10
137.720215835
 20
326.1015347345
 30
0.0
  0
VERTEX
  5
314
  8
DV1_0
  6
CONTINUOUS
 62
     7
 10
137.7936275208
 20
325.9543606916
 30
0.0
  0
VERTEX
  5
315
  8
DV1_0
  6
CONTINUOUS
 62
     7
 10
137.8609991938
 20
325.8021499216
 30
0.0
  0
VERTEX
  5
316
  8
DV1_0
  6
CONTINUOUS
 62
     7
 10
137.921933377
 20
325.6453397841
 30
0.0
  0
VERTEX
  5
317
  8
DV1_0
  6
CONTINUOUS
 62
     7
 10
137.9760325939
 20
325.484367639
 30
0.0
  0
VERTEX
  5
318
  8
DV1_0
  6
CONTINUOUS
 62
     7
 10
138.0228993674
 20
325.3196708459
 30
0.0
  0
VERTEX
  5
319
  8
DV1_0
  6
CONTINUOUS
 62
     7
 10
138.062136221
 20
325.1516867647
 30
0.0
  0
VERTEX
  5
31A
  8
DV1_0
  6
CONTINUOUS
 62
     7
 10
138.0933456778
 20
324.9808527551
 30
0.0
  0
VERTEX
  5
31B
  8
DV1_0
  6
CONTINUOUS
 62
     7
 10
138.116130261
 20
324.8076061769
 30
0.0
  0
VERTEX
  5
31C
  8
DV1_0
  6
CONTINUOUS
 62
     7
 10
138.130092494
 20
324.6323843897
 30
0.0
  0
VERTEX
  5
31D
  8
DV1_0
  6
CONTINUOUS
 62
     7
 10
138.1348348998
 20
324.4556247535
 30
0.0
  0
SEQEND
  5
31E
  8
DV1_0
  6
CONTINUOUS
 62
     7
  0
POLYLINE
  5
4E
  8
DV1_0
  6
CONTINUOUS
 62
     7
 66
     1
 10
0.0
 20
0.0
 30
0.0
  0
VERTEX
  5
31F
  8
DV1_0
  6
CONTINUOUS
 62
     7
 10
148.9271426066
 20
324.4556247535
 30
0.0
  0
VERTEX
  5
320
  8
DV1_0
  6
CONTINUOUS
 62
     7
 10
148.9318707235
 20
324.6335107683
 30
0.0
  0
VERTEX
  5
321
  8
DV1_0
  6
CONTINUOUS
 62
     7
 10
148.9458149557
 20
324.8095465569
 30
0.0
  0
VERTEX
  5
322
  8
DV1_0
  6
CONTINUOUS
 62
     7
 10
148.9686151256
 20
324.9833837189
 30
0.0
  0
VERTEX
  5
323
  8
DV1_0
  6
CONTINUOUS
 62
     7
 10
148.9999110557
 20
325.154673854
 30
0.0
  0
VERTEX
  5
324
  8
DV1_0
  6
CONTINUOUS
 62
     7
 10
149.0393425682
 20
325.323068562
 30
0.0
  0
VERTEX
  5
325
  8
DV1_0
  6
CONTINUOUS
 62
     7
 10
149.0865494855
 20
325.4882194426
 30
0.0
  0
VERTEX
  5
326
  8
DV1_0
  6
CONTINUOUS
 62
     7
 10
149.14117163
 20
325.6497780955
 30
0.0
  0
VERTEX
  5
327
  8
DV1_0
  6
CONTINUOUS
 62
     7
 10
149.2028488241
 20
325.8073961204
 30
0.0
  0
VERTEX
  5
328
  8
DV1_0
  6
CONTINUOUS
 62
     7
 10
149.2712208902
 20
325.960725117
 30
0.0
  0
VERTEX
  5
329
  8
DV1_0
  6
CONTINUOUS
 62
     7
 10
149.3459276505
 20
326.1094166851
 30
0.0
  0
VERTEX
  5
32A
  8
DV1_0
  6
CONTINUOUS
 62
     7
 10
149.4264940304
 20
326.2530671622
 30
0.0
  0
VERTEX
  5
32B
  8
DV1_0
  6
CONTINUOUS
 62
     7
 10
149.5119018838
 20
326.3911873245
 30
0.0
  0
VERTEX
  5
32C
  8
DV1_0
  6
CONTINUOUS
 62
     7
 10
149.6017564148
 20
326.5238609793
 30
0.0
  0
VERTEX
  5
32D
  8
DV1_0
  6
CONTINUOUS
 62
     7
 10
149.6957812153
 20
326.6512483902
 30
0.0
  0
VERTEX
  5
32E
  8
DV1_0
  6
CONTINUOUS
 62
     7
 10
149.7936998771
 20
326.7735098209
 30
0.0
  0
VERTEX
  5
32F
  8
DV1_0
  6
CONTINUOUS
 62
     7
 10
149.8952359919
 20
326.8908055353
 30
0.0
  0
VERTEX
  5
330
  8
DV1_0
  6
CONTINUOUS
 62
     7
 10
150.0001131516
 20
327.0032957968
 30
0.0
  0
VERTEX
  5
331
  8
DV1_0
  6
CONTINUOUS
 62
     7
 10
150.1080549478
 20
327.1111408694
 30
0.0
  0
VERTEX
  5
332
  8
DV1_0
  6
CONTINUOUS
 62
     7
 10
150.2187849724
 20
327.2145010166
 30
0.0
  0
VERTEX
  5
333
  8
DV1_0
  6
CONTINUOUS
 62
     7
 10
150.3320268172
 20
327.3135365021
 30
0.0
  0
VERTEX
  5
334
  8
DV1_0
  6
CONTINUOUS
 62
     7
 10
150.4475040738
 20
327.4084075898
 30
0.0
  0
VERTEX
  5
335
  8
DV1_0
  6
CONTINUOUS
 62
     7
 10
150.5649217132
 20
327.499319063
 30
0.0
  0
VERTEX
  5
336
  8
DV1_0
  6
CONTINUOUS
 62
     7
 10
150.6841159409
 20
327.586441821
 30
0.0
  0
VERTEX
  5
337
  8
DV1_0
  6
CONTINUOUS
 62
     7
 10
150.8050072004
 20
327.6698853012
 30
0.0
  0
VERTEX
  5
338
  8
DV1_0
  6
CONTINUOUS
 62
     7
 10
150.9275159358
 20
327.7497589408
 30
0.0
  0
VERTEX
  5
339
  8
DV1_0
  6
CONTINUOUS
 62
     7
 10
151.0515625906
 20
327.8261721773
 30
0.0
  0
VERTEX
  5
33A
  8
DV1_0
  6
CONTINUOUS
 62
     7
 10
151.1770676088
 20
327.899234448
 30
0.0
  0
VERTEX
  5
33B
  8
DV1_0
  6
CONTINUOUS
 62
     7
 10
151.3039514341
 20
327.9690551902
 30
0.0
  0
VERTEX
  5
33C
  8
DV1_0
  6
CONTINUOUS
 62
     7
 10
151.4321345102
 20
328.0357438412
 30
0.0
  0
VERTEX
  5
33D
  8
DV1_0
  6
CONTINUOUS
 62
     7
 10
151.5615372809
 20
328.0994098384
 30
0.0
  0
VERTEX
  5
33E
  8
DV1_0
  6
CONTINUOUS
 62
     7
 10
151.6920801901
 20
328.1601626191
 30
0.0
  0
VERTEX
  5
33F
  8
DV1_0
  6
CONTINUOUS
 62
     7
 10
151.8236836815
 20
328.2181116207
 30
0.0
  0
VERTEX
  5
340
  8
DV1_0
  6
CONTINUOUS
 62
     7
 10
151.9562681989
 20
328.2733662804
 30
0.0
  0
VERTEX
  5
341
  8
DV1_0
  6
CONTINUOUS
 62
     7
 10
152.089754186
 20
328.3260360357
 30
0.0
  0
VERTEX
  5
342
  8
DV1_0
  6
CONTINUOUS
 62
     7
 10
152.2240620866
 20
328.3762303238
 30
0.0
  0
VERTEX
  5
343
  8
DV1_0
  6
CONTINUOUS
 62
     7
 10
152.3591123445
 20
328.4240585822
 30
0.0
  0
VERTEX
  5
344
  8
DV1_0
  6
CONTINUOUS
 62
     7
 10
152.4948254035
 20
328.469630248
 30
0.0
  0
VERTEX
  5
345
  8
DV1_0
  6
CONTINUOUS
 62
     7
 10
152.6311217074
 20
328.5130547587
 30
0.0
  0
VERTEX
  5
346
  8
DV1_0
  6
CONTINUOUS
 62
     7
 10
152.7679217
 20
328.5544415516
 30
0.0
  0
VERTEX
  5
347
  8
DV1_0
  6
CONTINUOUS
 62
     7
 10
152.9051458249
 20
328.5939000641
 30
0.0
  0
VERTEX
  5
348
  8
DV1_0
  6
CONTINUOUS
 62
     7
 10
153.042714526
 20
328.6315397334
 30
0.0
  0
VERTEX
  5
349
  8
DV1_0
  6
CONTINUOUS
 62
     7
 10
153.1805482471
 20
328.667469997
 30
0.0
  0
VERTEX
  5
34A
  8
DV1_0
  6
CONTINUOUS
 62
     7
 10
153.3187028327
 20
328.701776876
 30
0.0
  0
VERTEX
  5
34B
  8
DV1_0
  6
CONTINUOUS
 62
     7
 10
153.4572838702
 20
328.7345044317
 30
0.0
  0
VERTEX
  5
34C
  8
DV1_0
  6
CONTINUOUS
 62
     7
 10
153.5962864183
 20
328.7656991611
 30
0.0
  0
VERTEX
  5
34D
  8
DV1_0
  6
CONTINUOUS
 62
     7
 10
153.7357055354
 20
328.7954075614
 30
0.0
  0
VERTEX
  5
34E
  8
DV1_0
  6
CONTINUOUS
 62
     7
 10
153.8755362801
 20
328.8236761297
 30
0.0
  0
VERTEX
  5
34F
  8
DV1_0
  6
CONTINUOUS
 62
     7
 10
154.0157737108
 20
328.8505513633
 30
0.0
  0
VERTEX
  5
350
  8
DV1_0
  6
CONTINUOUS
 62
     7
 10
154.156412886
 20
328.8760797591
 30
0.0
  0
VERTEX
  5
351
  8
DV1_0
  6
CONTINUOUS
 62
     7
 10
154.2974488644
 20
328.9003078143
 30
0.0
  0
VERTEX
  5
352
  8
DV1_0
  6
CONTINUOUS
 62
     7
 10
154.4388767042
 20
328.9232820262
 30
0.0
  0
VERTEX
  5
353
  8
DV1_0
  6
CONTINUOUS
 62
     7
 10
154.5806914642
 20
328.9450488917
 30
0.0
  0
VERTEX
  5
354
  8
DV1_0
  6
CONTINUOUS
 62
     7
 10
154.7228882027
 20
328.9656549081
 30
0.0
  0
VERTEX
  5
355
  8
DV1_0
  6
CONTINUOUS
 62
     7
 10
154.8654619784
 20
328.9851465725
 30
0.0
  0
VERTEX
  5
356
  8
DV1_0
  6
CONTINUOUS
 62
     7
 10
155.0084078496
 20
329.003570382
 30
0.0
  0
VERTEX
  5
357
  8
DV1_0
  6
CONTINUOUS
 62
     7
 10
155.1517208749
 20
329.0209728337
 30
0.0
  0
VERTEX
  5
358
  8
DV1_0
  6
CONTINUOUS
 62
     7
 10
155.2953961128
 20
329.0374004248
 30
0.0
  0
VERTEX
  5
359
  8
DV1_0
  6
CONTINUOUS
 62
     7
 10
155.4394286219
 20
329.0528996525
 30
0.0
  0
VERTEX
  5
35A
  8
DV1_0
  6
CONTINUOUS
 62
     7
 10
155.5838134605
 20
329.0675170138
 30
0.0
  0
VERTEX
  5
35B
  8
DV1_0
  6
CONTINUOUS
 62
     7
 10
155.7285456873
 20
329.0812990059
 30
0.0
  0
VERTEX
  5
35C
  8
DV1_0
  6
CONTINUOUS
 62
     7
 10
155.8736203607
 20
329.0942921259
 30
0.0
  0
VERTEX
  5
35D
  8
DV1_0
  6
CONTINUOUS
 62
     7
 10
156.0190325393
 20
329.106542871
 30
0.0
  0
VERTEX
  5
35E
  8
DV1_0
  6
CONTINUOUS
 62
     7
 10
156.1647772815
 20
329.1180977383
 30
0.0
  0
VERTEX
  5
35F
  8
DV1_0
  6
CONTINUOUS
 62
     7
 10
156.3108477314
 20
329.1289842346
 30
0.0
  0
VERTEX
  5
360
  8
DV1_0
  6
CONTINUOUS
 62
     7
 10
156.4572357783
 20
329.1392078014
 30
0.0
  0
VERTEX
  5
361
  8
DV1_0
  6
CONTINUOUS
 62
     7
 10
156.6039345981
 20
329.148781838
 30
0.0
  0
VERTEX
  5
362
  8
DV1_0
  6
CONTINUOUS
 62
     7
 10
156.750937367
 20
329.1577197436
 30
0.0
  0
VERTEX
  5
363
  8
DV1_0
  6
CONTINUOUS
 62
     7
 10
156.8982372611
 20
329.1660349176
 30
0.0
  0
VERTEX
  5
364
  8
DV1_0
  6
CONTINUOUS
 62
     7
 10
157.0458274564
 20
329.1737407592
 30
0.0
  0
VERTEX
  5
365
  8
DV1_0
  6
CONTINUOUS
 62
     7
 10
157.193701129
 20
329.1808506676
 30
0.0
  0
VERTEX
  5
366
  8
DV1_0
  6
CONTINUOUS
 62
     7
 10
157.341851455
 20
329.1873780422
 30
0.0
  0
VERTEX
  5
367
  8
DV1_0
  6
CONTINUOUS
 62
     7
 10
157.4902716105
 20
329.1933362822
 30
0.0
  0
VERTEX
  5
368
  8
DV1_0
  6
CONTINUOUS
 62
     7
 10
157.6389547715
 20
329.1987387869
 30
0.0
  0
VERTEX
  5
369
  8
DV1_0
  6
CONTINUOUS
 62
     7
 10
157.7878941142
 20
329.2035989555
 30
0.0
  0
VERTEX
  5
36A
  8
DV1_0
  6
CONTINUOUS
 62
     7
 10
157.9370828146
 20
329.2079301874
 30
0.0
  0
VERTEX
  5
36B
  8
DV1_0
  6
CONTINUOUS
 62
     7
 10
158.0865140488
 20
329.2117458817
 30
0.0
  0
VERTEX
  5
36C
  8
DV1_0
  6
CONTINUOUS
 62
     7
 10
158.2361809928
 20
329.2150594378
 30
0.0
  0
VERTEX
  5
36D
  8
DV1_0
  6
CONTINUOUS
 62
     7
 10
158.3860768228
 20
329.2178842549
 30
0.0
  0
VERTEX
  5
36E
  8
DV1_0
  6
CONTINUOUS
 62
     7
 10
158.5361947148
 20
329.2202337323
 30
0.0
  0
VERTEX
  5
36F
  8
DV1_0
  6
CONTINUOUS
 62
     7
 10
158.686527845
 20
329.2221212693
 30
0.0
  0
VERTEX
  5
370
  8
DV1_0
  6
CONTINUOUS
 62
     7
 10
158.8370693893
 20
329.2235602651
 30
0.0
  0
VERTEX
  5
371
  8
DV1_0
  6
CONTINUOUS
 62
     7
 10
158.9878125239
 20
329.2245641191
 30
0.0
  0
VERTEX
  5
372
  8
DV1_0
  6
CONTINUOUS
 62
     7
 10
159.1387504249
 20
329.2251462304
 30
0.0
  0
VERTEX
  5
373
  8
DV1_0
  6
CONTINUOUS
 62
     7
 10
159.2898762683
 20
329.2253199983
 30
0.0
  0
VERTEX
  5
374
  8
DV1_0
  6
CONTINUOUS
 62
     7
 10
159.441216981
 20
329.2250947513
 30
0.0
  0
VERTEX
  5
375
  8
DV1_0
  6
CONTINUOUS
 62
     7
 10
159.5928002543
 20
329.2244617467
 30
0.0
  0
VERTEX
  5
376
  8
DV1_0
  6
CONTINUOUS
 62
     7
 10
159.7446204109
 20
329.2234072771
 30
0.0
  0
VERTEX
  5
377
  8
DV1_0
  6
CONTINUOUS
 62
     7
 10
159.8966717737
 20
329.2219176354
 30
0.0
  0
VERTEX
  5
378
  8
DV1_0
  6
CONTINUOUS
 62
     7
 10
160.0489486653
 20
329.2199791141
 30
0.0
  0
VERTEX
  5
379
  8
DV1_0
  6
CONTINUOUS
 62
     7
 10
160.2014454086
 20
329.2175780059
 30
0.0
  0
VERTEX
  5
37A
  8
DV1_0
  6
CONTINUOUS
 62
     7
 10
160.3541563263
 20
329.2147006036
 30
0.0
  0
VERTEX
  5
37B
  8
DV1_0
  6
CONTINUOUS
 62
     7
 10
160.5070757411
 20
329.2113331998
 30
0.0
  0
VERTEX
  5
37C
  8
DV1_0
  6
CONTINUOUS
 62
     7
 10
160.6601979759
 20
329.2074620872
 30
0.0
  0
VERTEX
  5
37D
  8
DV1_0
  6
CONTINUOUS
 62
     7
 10
160.8135173533
 20
329.2030735586
 30
0.0
  0
VERTEX
  5
37E
  8
DV1_0
  6
CONTINUOUS
 62
     7
 10
160.9670281962
 20
329.1981539065
 30
0.0
  0
VERTEX
  5
37F
  8
DV1_0
  6
CONTINUOUS
 62
     7
 10
161.1207248273
 20
329.1926894237
 30
0.0
  0
VERTEX
  5
380
  8
DV1_0
  6
CONTINUOUS
 62
     7
 10
161.2746015694
 20
329.1866664029
 30
0.0
  0
VERTEX
  5
381
  8
DV1_0
  6
CONTINUOUS
 62
     7
 10
161.4286527452
 20
329.1800711368
 30
0.0
  0
VERTEX
  5
382
  8
DV1_0
  6
CONTINUOUS
 62
     7
 10
161.5828726774
 20
329.1728899181
 30
0.0
  0
VERTEX
  5
383
  8
DV1_0
  6
CONTINUOUS
 62
     7
 10
161.7372556889
 20
329.1651090394
 30
0.0
  0
VERTEX
  5
384
  8
DV1_0
  6
CONTINUOUS
 62
     7
 10
161.8917961025
 20
329.1567147934
 30
0.0
  0
VERTEX
  5
385
  8
DV1_0
  6
CONTINUOUS
 62
     7
 10
162.0464882408
 20
329.1476934729
 30
0.0
  0
VERTEX
  5
386
  8
DV1_0
  6
CONTINUOUS
 62
     7
 10
162.2013264266
 20
329.1380313705
 30
0.0
  0
VERTEX
  5
387
  8
DV1_0
  6
CONTINUOUS
 62
     7
 10
162.3563049827
 20
329.1277147789
 30
0.0
  0
VERTEX
  5
388
  8
DV1_0
  6
CONTINUOUS
 62
     7
 10
162.5114182319
 20
329.1167299908
 30
0.0
  0
VERTEX
  5
389
  8
DV1_0
  6
CONTINUOUS
 62
     7
 10
162.6666668803
 20
329.1050718719
 30
0.0
  0
VERTEX
  5
38A
  8
DV1_0
  6
CONTINUOUS
 62
     7
 10
162.8220508898
 20
329.0927121784
 30
0.0
  0
VERTEX
  5
38B
  8
DV1_0
  6
CONTINUOUS
 62
     7
 10
162.9775634662
 20
329.0796025385
 30
0.0
  0
VERTEX
  5
38C
  8
DV1_0
  6
CONTINUOUS
 62
     7
 10
163.1331978154
 20
329.0656945805
 30
0.0
  0
VERTEX
  5
38D
  8
DV1_0
  6
CONTINUOUS
 62
     7
 10
163.2889471433
 20
329.0509399328
 30
0.0
  0
VERTEX
  5
38E
  8
DV1_0
  6
CONTINUOUS
 62
     7
 10
163.4448046559
 20
329.0352902235
 30
0.0
  0
VERTEX
  5
38F
  8
DV1_0
  6
CONTINUOUS
 62
     7
 10
163.6007635589
 20
329.018697081
 30
0.0
  0
VERTEX
  5
390
  8
DV1_0
  6
CONTINUOUS
 62
     7
 10
163.7568170584
 20
329.0011121335
 30
0.0
  0
VERTEX
  5
391
  8
DV1_0
  6
CONTINUOUS
 62
     7
 10
163.9129583601
 20
328.9824870094
 30
0.0
  0
VERTEX
  5
392
  8
DV1_0
  6
CONTINUOUS
 62
     7
 10
164.0691806701
 20
328.9627733369
 30
0.0
  0
VERTEX
  5
393
  8
DV1_0
  6
CONTINUOUS
 62
     7
 10
164.2254771942
 20
328.9419227443
 30
0.0
  0
VERTEX
  5
394
  8
DV1_0
  6
CONTINUOUS
 62
     7
 10
164.3818411383
 20
328.9198868598
 30
0.0
  0
VERTEX
  5
395
  8
DV1_0
  6
CONTINUOUS
 62
     7
 10
164.5382657083
 20
328.8966173119
 30
0.0
  0
VERTEX
  5
396
  8
DV1_0
  6
CONTINUOUS
 62
     7
 10
164.6947441102
 20
328.8720657286
 30
0.0
  0
VERTEX
  5
397
  8
DV1_0
  6
CONTINUOUS
 62
     7
 10
164.8512695498
 20
328.8461837385
 30
0.0
  0
VERTEX
  5
398
  8
DV1_0
  6
CONTINUOUS
 62
     7
 10
165.007835233
 20
328.8189229696
 30
0.0
  0
VERTEX
  5
399
  8
DV1_0
  6
CONTINUOUS
 62
     7
 10
165.1644343657
 20
328.7902350503
 30
0.0
  0
VERTEX
  5
39A
  8
DV1_0
  6
CONTINUOUS
 62
     7
 10
165.3210601538
 20
328.7600716089
 30
0.0
  0
VERTEX
  5
39B
  8
DV1_0
  6
CONTINUOUS
 62
     7
 10
165.4777058033
 20
328.7283842737
 30
0.0
  0
VERTEX
  5
39C
  8
DV1_0
  6
CONTINUOUS
 62
     7
 10
165.63436452
 20
328.6951246729
 30
0.0
  0
VERTEX
  5
39D
  8
DV1_0
  6
CONTINUOUS
 62
     7
 10
165.7910295098
 20
328.6602444348
 30
0.0
  0
VERTEX
  5
39E
  8
DV1_0
  6
CONTINUOUS
 62
     7
 10
165.9477040488
 20
328.6237261544
 30
0.0
  0
VERTEX
  5
39F
  8
DV1_0
  6
CONTINUOUS
 62
     7
 10
166.1043358968
 20
328.5855133842
 30
0.0
  0
VERTEX
  5
3A0
  8
DV1_0
  6
CONTINUOUS
 62
     7
 10
166.2608349856
 20
328.5454991891
 30
0.0
  0
VERTEX
  5
3A1
  8
DV1_0
  6
CONTINUOUS
 62
     7
 10
166.4171112468
 20
328.5035766341
 30
0.0
  0
VERTEX
  5
3A2
  8
DV1_0
  6
CONTINUOUS
 62
     7
 10
166.5730746119
 20
328.4596387842
 30
0.0
  0
VERTEX
  5
3A3
  8
DV1_0
  6
CONTINUOUS
 62
     7
 10
166.7286350127
 20
328.4135787042
 30
0.0
  0
VERTEX
  5
3A4
  8
DV1_0
  6
CONTINUOUS
 62
     7
 10
166.8837023808
 20
328.3652894591
 30
0.0
  0
VERTEX
  5
3A5
  8
DV1_0
  6
CONTINUOUS
 62
     7
 10
167.0381866477
 20
328.3146641139
 30
0.0
  0
VERTEX
  5
3A6
  8
DV1_0
  6
CONTINUOUS
 62
     7
 10
167.1919977453
 20
328.2615957334
 30
0.0
  0
VERTEX
  5
3A7
  8
DV1_0
  6
CONTINUOUS
 62
     7
 10
167.345045605
 20
328.2059773826
 30
0.0
  0
VERTEX
  5
3A8
  8
DV1_0
  6
CONTINUOUS
 62
     7
 10
167.4972401586
 20
328.1477021264
 30
0.0
  0
VERTEX
  5
3A9
  8
DV1_0
  6
CONTINUOUS
 62
     7
 10
167.6484913377
 20
328.0866630298
 30
0.0
  0
VERTEX
  5
3AA
  8
DV1_0
  6
CONTINUOUS
 62
     7
 10
167.7987090739
 20
328.0227531576
 30
0.0
  0
VERTEX
  5
3AB
  8
DV1_0
  6
CONTINUOUS
 62
     7
 10
167.9478032989
 20
327.9558655749
 30
0.0
  0
VERTEX
  5
3AC
  8
DV1_0
  6
CONTINUOUS
 62
     7
 10
168.0956839443
 20
327.8858933465
 30
0.0
  0
VERTEX
  5
3AD
  8
DV1_0
  6
CONTINUOUS
 62
     7
 10
168.2422609417
 20
327.8127295375
 30
0.0
  0
VERTEX
  5
3AE
  8
DV1_0
  6
CONTINUOUS
 62
     7
 10
168.3874442228
 20
327.7362672126
 30
0.0
  0
VERTEX
  5
3AF
  8
DV1_0
  6
CONTINUOUS
 62
     7
 10
168.5311437193
 20
327.6563994369
 30
0.0
  0
VERTEX
  5
3B0
  8
DV1_0
  6
CONTINUOUS
 62
     7
 10
168.6732693627
 20
327.5730192753
 30
0.0
  0
VERTEX
  5
3B1
  8
DV1_0
  6
CONTINUOUS
 62
     7
 10
168.8137310848
 20
327.4860197927
 30
0.0
  0
VERTEX
  5
3B2
  8
DV1_0
  6
CONTINUOUS
 62
     7
 10
168.9524388171
 20
327.3952940541
 30
0.0
  0
VERTEX
  5
3B3
  8
DV1_0
  6
CONTINUOUS
 62
     7
 10
169.0892915654
 20
327.3005381979
 30
0.0
  0
VERTEX
  5
3B4
  8
DV1_0
  6
CONTINUOUS
 62
     7
 10
169.2239758453
 20
327.2014636665
 30
0.0
  0
VERTEX
  5
3B5
  8
DV1_0
  6
CONTINUOUS
 62
     7
 10
169.3560828533
 20
327.0979864806
 30
0.0
  0
VERTEX
  5
3B6
  8
DV1_0
  6
CONTINUOUS
 62
     7
 10
169.4852037857
 20
326.9900226608
 30
0.0
  0
VERTEX
  5
3B7
  8
DV1_0
  6
CONTINUOUS
 62
     7
 10
169.6109298391
 20
326.8774882277
 30
0.0
  0
VERTEX
  5
3B8
  8
DV1_0
  6
CONTINUOUS
 62
     7
 10
169.7328522099
 20
326.7602992022
 30
0.0
  0
VERTEX
  5
3B9
  8
DV1_0
  6
CONTINUOUS
 62
     7
 10
169.8505620946
 20
326.6383716047
 30
0.0
  0
VERTEX
  5
3BA
  8
DV1_0
  6
CONTINUOUS
 62
     7
 10
169.9636506895
 20
326.511621456
 30
0.0
  0
VERTEX
  5
3BB
  8
DV1_0
  6
CONTINUOUS
 62
     7
 10
170.0717091912
 20
326.3799647768
 30
0.0
  0
VERTEX
  5
3BC
  8
DV1_0
  6
CONTINUOUS
 62
     7
 10
170.1743287961
 20
326.2433175876
 30
0.0
  0
VERTEX
  5
3BD
  8
DV1_0
  6
CONTINUOUS
 62
     7
 10
170.2710413267
 20
326.1015347345
 30
0.0
  0
VERTEX
  5
3BE
  8
DV1_0
  6
CONTINUOUS
 62
     7
 10
170.3610415541
 20
325.9543606916
 30
0.0
  0
VERTEX
  5
3BF
  8
DV1_0
  6
CONTINUOUS
 62
     7
 10
170.4437586149
 20
325.8021499216
 30
0.0
  0
VERTEX
  5
3C0
  8
DV1_0
  6
CONTINUOUS
 62
     7
 10
170.5186765551
 20
325.6453397841
 30
0.0
  0
VERTEX
  5
3C1
  8
DV1_0
  6
CONTINUOUS
 62
     7
 10
170.5852794208
 20
325.484367639
 30
0.0
  0
VERTEX
  5
3C2
  8
DV1_0
  6
CONTINUOUS
 62
     7
 10
170.6430512578
 20
325.3196708459
 30
0.0
  0
VERTEX
  5
3C3
  8
DV1_0
  6
CONTINUOUS
 62
     7
 10
170.6914761123
 20
325.1516867647
 30
0.0
  0
VERTEX
  5
3C4
  8
DV1_0
  6
CONTINUOUS
 62
     7
 10
170.7300380301
 20
324.9808527551
 30
0.0
  0
VERTEX
  5
3C5
  8
DV1_0
  6
CONTINUOUS
 62
     7
 10
170.7582210573
 20
324.8076061769
 30
0.0
  0
VERTEX
  5
3C6
  8
DV1_0
  6
CONTINUOUS
 62
     7
 10
170.7755092399
 20
324.6323843897
 30
0.0
  0
VERTEX
  5
3C7
  8
DV1_0
  6
CONTINUOUS
 62
     7
 10
170.7813866239
 20
324.4556247535
 30
0.0
  0
SEQEND
  5
3C8
  8
DV1_0
  6
CONTINUOUS
 62
     7
  0
ARC
  5
4F
  8
DV1_0
  6
CONTINUOUS
 62
     7
 10
167.7828373256
 20
324.9603383704
 30
0.0
 40
8.409861879956745
 50
356.5593552091
 51
30.4735494463
  0
ARC
  5
50
  8
DV1_0
  6
CONTINUOUS
 62
     7
 10
101.5562742173
 20
243.409145531
 30
0.0
 40
15.91559104718668
 50
338.1716867869
 51
21.8283132131
  0
POLYLINE
  5
51
  8
DV1_0
  6
CONTINUOUS
 62
     7
 66
     1
 10
0.0
 20
0.0
 30
0.0
  0
VERTEX
  5
3C9
  8
DV1_0
  6
CONTINUOUS
 62
     7
 10
116.3307523823
 20
237.4913052719
 30
0.0
  0
VERTEX
  5
3CA
  8
DV1_0
  6
CONTINUOUS
 62
     7
 10
116.3972653136
 20
237.1214402557
 30
0.0
  0
VERTEX
  5
3CB
  8
DV1_0
  6
CONTINUOUS
 62
     7
 10
116.4621599619
 20
236.7515752395
 30
0.0
  0
VERTEX
  5
3CC
  8
DV1_0
  6
CONTINUOUS
 62
     7
 10
116.5253998936
 20
236.3817102233
 30
0.0
  0
VERTEX
  5
3CD
  8
DV1_0
  6
CONTINUOUS
 62
     7
 10
116.5869486749
 20
236.0118452071
 30
0.0
  0
VERTEX
  5
3CE
  8
DV1_0
  6
CONTINUOUS
 62
     7
 10
116.6467698723
 20
235.6419801909
 30
0.0
  0
VERTEX
  5
3CF
  8
DV1_0
  6
CONTINUOUS
 62
     7
 10
116.704827052
 20
235.2721151747
 30
0.0
  0
VERTEX
  5
3D0
  8
DV1_0
  6
CONTINUOUS
 62
     7
 10
116.7610837804
 20
234.9022501585
 30
0.0
  0
VERTEX
  5
3D1
  8
DV1_0
  6
CONTINUOUS
 62
     7
 10
116.8155036238
 20
234.5323851423
 30
0.0
  0
VERTEX
  5
3D2
  8
DV1_0
  6
CONTINUOUS
 62
     7
 10
116.8680501487
 20
234.1625201261
 30
0.0
  0
VERTEX
  5
3D3
  8
DV1_0
  6
CONTINUOUS
 62
     7
 10
116.9186869212
 20
233.7926551099
 30
0.0
  0
VERTEX
  5
3D4
  8
DV1_0
  6
CONTINUOUS
 62
     7
 10
116.9673775078
 20
233.4227900937
 30
0.0
  0
VERTEX
  5
3D5
  8
DV1_0
  6
CONTINUOUS
 62
     7
 10
117.0140854749
 20
233.0529250775
 30
0.0
  0
VERTEX
  5
3D6
  8
DV1_0
  6
CONTINUOUS
 62
     7
 10
117.0587743887
 20
232.6830600613
 30
0.0
  0
VERTEX
  5
3D7
  8
DV1_0
  6
CONTINUOUS
 62
     7
 10
117.1014078155
 20
232.3131950451
 30
0.0
  0
VERTEX
  5
3D8
  8
DV1_0
  6
CONTINUOUS
 62
     7
 10
117.1419493219
 20
231.9433300289
 30
0.0
  0
VERTEX
  5
3D9
  8
DV1_0
  6
CONTINUOUS
 62
     7
 10
117.180362474
 20
231.5734650127
 30
0.0
  0
VERTEX
  5
3DA
  8
DV1_0
  6
CONTINUOUS
 62
     7
 10
117.2165996449
 20
231.2035999965
 30
0.0
  0
VERTEX
  5
3DB
  8
DV1_0
  6
CONTINUOUS
 62
     7
 10
117.2506258245
 20
230.8337349803
 30
0.0
  0
VERTEX
  5
3DC
  8
DV1_0
  6
CONTINUOUS
 62
     7
 10
117.282423504
 20
230.4638699641
 30
0.0
  0
VERTEX
  5
3DD
  8
DV1_0
  6
CONTINUOUS
 62
     7
 10
117.3119751749
 20
230.0940049479
 30
0.0
  0
VERTEX
  5
3DE
  8
DV1_0
  6
CONTINUOUS
 62
     7
 10
117.3392633285
 20
229.7241399317
 30
0.0
  0
VERTEX
  5
3DF
  8
DV1_0
  6
CONTINUOUS
 62
     7
 10
117.364270456
 20
229.3542749155
 30
0.0
  0
VERTEX
  5
3E0
  8
DV1_0
  6
CONTINUOUS
 62
     7
 10
117.386979049
 20
228.9844098993
 30
0.0
  0
VERTEX
  5
3E1
  8
DV1_0
  6
CONTINUOUS
 62
     7
 10
117.4073715987
 20
228.6145448831
 30
0.0
  0
VERTEX
  5
3E2
  8
DV1_0
  6
CONTINUOUS
 62
     7
 10
117.4254305965
 20
228.2446798669
 30
0.0
  0
VERTEX
  5
3E3
  8
DV1_0
  6
CONTINUOUS
 62
     7
 10
117.4411385338
 20
227.8748148507
 30
0.0
  0
VERTEX
  5
3E4
  8
DV1_0
  6
CONTINUOUS
 62
     7
 10
117.4544779019
 20
227.5049498345
 30
0.0
  0
VERTEX
  5
3E5
  8
DV1_0
  6
CONTINUOUS
 62
     7
 10
117.4654311921
 20
227.1350848183
 30
0.0
  0
VERTEX
  5
3E6
  8
DV1_0
  6
CONTINUOUS
 62
     7
 10
117.4739808959
 20
226.7652198021
 30
0.0
  0
VERTEX
  5
3E7
  8
DV1_0
  6
CONTINUOUS
 62
     7
 10
117.4801095045
 20
226.3953547859
 30
0.0
  0
VERTEX
  5
3E8
  8
DV1_0
  6
CONTINUOUS
 62
     7
 10
117.4837995093
 20
226.0254897697
 30
0.0
  0
VERTEX
  5
3E9
  8
DV1_0
  6
CONTINUOUS
 62
     7
 10
117.4850334018
 20
225.6556247535
 30
0.0
  0
VERTEX
  5
3EA
  8
DV1_0
  6
CONTINUOUS
 62
     7
 10
117.4837995093
 20
225.2857597373
 30
0.0
  0
VERTEX
  5
3EB
  8
DV1_0
  6
CONTINUOUS
 62
     7
 10
117.4801095045
 20
224.9158947211
 30
0.0
  0
VERTEX
  5
3EC
  8
DV1_0
  6
CONTINUOUS
 62
     7
 10
117.4739808959
 20
224.5460297049
 30
0.0
  0
VERTEX
  5
3ED
  8
DV1_0
  6
CONTINUOUS
 62
     7
 10
117.4654311921
 20
224.1761646887
 30
0.0
  0
VERTEX
  5
3EE
  8
DV1_0
  6
CONTINUOUS
 62
     7
 10
117.4544779019
 20
223.8062996725
 30
0.0
  0
VERTEX
  5
3EF
  8
DV1_0
  6
CONTINUOUS
 62
     7
 10
117.4411385338
 20
223.4364346563
 30
0.0
  0
VERTEX
  5
3F0
  8
DV1_0
  6
CONTINUOUS
 62
     7
 10
117.4254305965
 20
223.0665696401
 30
0.0
  0
VERTEX
  5
3F1
  8
DV1_0
  6
CONTINUOUS
 62
     7
 10
117.4073715987
 20
222.6967046239
 30
0.0
  0
VERTEX
  5
3F2
  8
DV1_0
  6
CONTINUOUS
 62
     7
 10
117.386979049
 20
222.3268396077
 30
0.0
  0
VERTEX
  5
3F3
  8
DV1_0
  6
CONTINUOUS
 62
     7
 10
117.364270456
 20
221.9569745915
 30
0.0
  0
VERTEX
  5
3F4
  8
DV1_0
  6
CONTINUOUS
 62
     7
 10
117.3392633285
 20
221.5871095753
 30
0.0
  0
VERTEX
  5
3F5
  8
DV1_0
  6
CONTINUOUS
 62
     7
 10
117.3119751749
 20
221.2172445591
 30
0.0
  0
VERTEX
  5
3F6
  8
DV1_0
  6
CONTINUOUS
 62
     7
 10
117.282423504
 20
220.8473795429
 30
0.0
  0
VERTEX
  5
3F7
  8
DV1_0
  6
CONTINUOUS
 62
     7
 10
117.2506258245
 20
220.4775145267
 30
0.0
  0
VERTEX
  5
3F8
  8
DV1_0
  6
CONTINUOUS
 62
     7
 10
117.2165996449
 20
220.1076495105
 30
0.0
  0
VERTEX
  5
3F9
  8
DV1_0
  6
CONTINUOUS
 62
     7
 10
117.180362474
 20
219.7377844943
 30
0.0
  0
VERTEX
  5
3FA
  8
DV1_0
  6
CONTINUOUS
 62
     7
 10
117.1419493219
 20
219.3679194781
 30
0.0
  0
VERTEX
  5
3FB
  8
DV1_0
  6
CONTINUOUS
 62
     7
 10
117.1014078155
 20
218.9980544619
 30
0.0
  0
VERTEX
  5
3FC
  8
DV1_0
  6
CONTINUOUS
 62
     7
 10
117.0587743887
 20
218.6281894457
 30
0.0
  0
VERTEX
  5
3FD
  8
DV1_0
  6
CONTINUOUS
 62
     7
 10
117.0140854749
 20
218.2583244295
 30
0.0
  0
VERTEX
  5
3FE
  8
DV1_0
  6
CONTINUOUS
 62
     7
 10
116.9673775078
 20
217.8884594133
 30
0.0
  0
VERTEX
  5
3FF
  8
DV1_0
  6
CONTINUOUS
 62
     7
 10
116.9186869212
 20
217.5185943971
 30
0.0
  0
VERTEX
  5
400
  8
DV1_0
  6
CONTINUOUS
 62
     7
 10
116.8680501487
 20
217.1487293809
 30
0.0
  0
VERTEX
  5
401
  8
DV1_0
  6
CONTINUOUS
 62
     7
 10
116.8155036238
 20
216.7788643647
 30
0.0
  0
VERTEX
  5
402
  8
DV1_0
  6
CONTINUOUS
 62
     7
 10
116.7610837804
 20
216.4089993485
 30
0.0
  0
VERTEX
  5
403
  8
DV1_0
  6
CONTINUOUS
 62
     7
 10
116.704827052
 20
216.0391343323
 30
0.0
  0
VERTEX
  5
404
  8
DV1_0
  6
CONTINUOUS
 62
     7
 10
116.6467698723
 20
215.6692693161
 30
0.0
  0
VERTEX
  5
405
  8
DV1_0
  6
CONTINUOUS
 62
     7
 10
116.5869486749
 20
215.2994042999
 30
0.0
  0
VERTEX
  5
406
  8
DV1_0
  6
CONTINUOUS
 62
     7
 10
116.5253998936
 20
214.9295392837
 30
0.0
  0
VERTEX
  5
407
  8
DV1_0
  6
CONTINUOUS
 62
     7
 10
116.4621599619
 20
214.5596742675
 30
0.0
  0
VERTEX
  5
408
  8
DV1_0
  6
CONTINUOUS
 62
     7
 10
116.3972653136
 20
214.1898092513
 30
0.0
  0
VERTEX
  5
409
  8
DV1_0
  6
CONTINUOUS
 62
     7
 10
116.3307523823
 20
213.8199442351
 30
0.0
  0
SEQEND
  5
40A
  8
DV1_0
  6
CONTINUOUS
 62
     7
  0
ARC
  5
52
  8
DV1_0
  6
CONTINUOUS
 62
     7
 10
101.5562742173
 20
207.9021039759
 30
0.0
 40
15.91559104718659
 50
338.1716867869
 51
21.8283132131
  0
LINE
  5
53
  8
DV1_0
  6
CONTINUOUS
 62
     7
 10
118.0309887532
 20
244.6556247535
 30
0.0
 11
118.0309887532
 21
206.6556247535
 31
0.0
  0
ARC
  5
54
  8
DV1_0
  6
CONTINUOUS
 62
     7
 10
185.5057032891
 20
207.9021039759
 30
0.0
 40
15.91559104718666
 50
158.1716867869
 51
201.8283132131
  0
POLYLINE
  5
55
  8
DV1_0
  6
CONTINUOUS
 62
     7
 66
     1
 10
0.0
 20
0.0
 30
0.0
  0
VERTEX
  5
40B
  8
DV1_0
  6
CONTINUOUS
 62
     7
 10
170.7312251241
 20
213.8199442351
 30
0.0
  0
VERTEX
  5
40C
  8
DV1_0
  6
CONTINUOUS
 62
     7
 10
170.6647121927
 20
214.1898092513
 30
0.0
  0
VERTEX
  5
40D
  8
DV1_0
  6
CONTINUOUS
 62
     7
 10
170.5998175444
 20
214.5596742675
 30
0.0
  0
VERTEX
  5
40E
  8
DV1_0
  6
CONTINUOUS
 62
     7
 10
170.5365776127
 20
214.9295392837
 30
0.0
  0
VERTEX
  5
40F
  8
DV1_0
  6
CONTINUOUS
 62
     7
 10
170.4750288314
 20
215.2994042999
 30
0.0
  0
VERTEX
  5
410
  8
DV1_0
  6
CONTINUOUS
 62
     7
 10
170.4152076341
 20
215.6692693161
 30
0.0
  0
VERTEX
  5
411
  8
DV1_0
  6
CONTINUOUS
 62
     7
 10
170.3571504543
 20
216.0391343323
 30
0.0
  0
VERTEX
  5
412
  8
DV1_0
  6
CONTINUOUS
 62
     7
 10
170.3008937259
 20
216.4089993485
 30
0.0
  0
VERTEX
  5
413
  8
DV1_0
  6
CONTINUOUS
 62
     7
 10
170.2464738825
 20
216.7788643647
 30
0.0
  0
VERTEX
  5
414
  8
DV1_0
  6
CONTINUOUS
 62
     7
 10
170.1939273577
 20
217.1487293809
 30
0.0
  0
VERTEX
  5
415
  8
DV1_0
  6
CONTINUOUS
 62
     7
 10
170.1432905851
 20
217.5185943971
 30
0.0
  0
VERTEX
  5
416
  8
DV1_0
  6
CONTINUOUS
 62
     7
 10
170.0945999985
 20
217.8884594133
 30
0.0
  0
VERTEX
  5
417
  8
DV1_0
  6
CONTINUOUS
 62
     7
 10
170.0478920315
 20
218.2583244295
 30
0.0
  0
VERTEX
  5
418
  8
DV1_0
  6
CONTINUOUS
 62
     7
 10
170.0032031177
 20
218.6281894457
 30
0.0
  0
VERTEX
  5
419
  8
DV1_0
  6
CONTINUOUS
 62
     7
 10
169.9605696908
 20
218.9980544619
 30
0.0
  0
VERTEX
  5
41A
  8
DV1_0
  6
CONTINUOUS
 62
     7
 10
169.9200281845
 20
219.3679194781
 30
0.0
  0
VERTEX
  5
41B
  8
DV1_0
  6
CONTINUOUS
 62
     7
 10
169.8816150324
 20
219.7377844943
 30
0.0
  0
VERTEX
  5
41C
  8
DV1_0
  6
CONTINUOUS
 62
     7
 10
169.8453778614
 20
220.1076495105
 30
0.0
  0
VERTEX
  5
41D
  8
DV1_0
  6
CONTINUOUS
 62
     7
 10
169.8113516818
 20
220.4775145267
 30
0.0
  0
VERTEX
  5
41E
  8
DV1_0
  6
CONTINUOUS
 62
     7
 10
169.7795540023
 20
220.8473795429
 30
0.0
  0
VERTEX
  5
41F
  8
DV1_0
  6
CONTINUOUS
 62
     7
 10
169.7500023314
 20
221.2172445591
 30
0.0
  0
VERTEX
  5
420
  8
DV1_0
  6
CONTINUOUS
 62
     7
 10
169.7227141779
 20
221.5871095753
 30
0.0
  0
VERTEX
  5
421
  8
DV1_0
  6
CONTINUOUS
 62
     7
 10
169.6977070503
 20
221.9569745915
 30
0.0
  0
VERTEX
  5
422
  8
DV1_0
  6
CONTINUOUS
 62
     7
 10
169.6749984573
 20
222.3268396077
 30
0.0
  0
VERTEX
  5
423
  8
DV1_0
  6
CONTINUOUS
 62
     7
 10
169.6546059076
 20
222.6967046239
 30
0.0
  0
VERTEX
  5
424
  8
DV1_0
  6
CONTINUOUS
 62
     7
 10
169.6365469098
 20
223.0665696401
 30
0.0
  0
VERTEX
  5
425
  8
DV1_0
  6
CONTINUOUS
 62
     7
 10
169.6208389725
 20
223.4364346563
 30
0.0
  0
VERTEX
  5
426
  8
DV1_0
  6
CONTINUOUS
 62
     7
 10
169.6074996044
 20
223.8062996725
 30
0.0
  0
VERTEX
  5
427
  8
DV1_0
  6
CONTINUOUS
 62
     7
 10
169.5965463142
 20
224.1761646887
 30
0.0
  0
VERTEX
  5
428
  8
DV1_0
  6
CONTINUOUS
 62
     7
 10
169.5879966105
 20
224.5460297049
 30
0.0
  0
VERTEX
  5
429
  8
DV1_0
  6
CONTINUOUS
 62
     7
 10
169.5818680018
 20
224.9158947211
 30
0.0
  0
VERTEX
  5
42A
  8
DV1_0
  6
CONTINUOUS
 62
     7
 10
169.578177997
 20
225.2857597373
 30
0.0
  0
VERTEX
  5
42B
  8
DV1_0
  6
CONTINUOUS
 62
     7
 10
169.5769441046
 20
225.6556247535
 30
0.0
  0
VERTEX
  5
42C
  8
DV1_0
  6
CONTINUOUS
 62
     7
 10
169.578177997
 20
226.0254897697
 30
0.0
  0
VERTEX
  5
42D
  8
DV1_0
  6
CONTINUOUS
 62
     7
 10
169.5818680018
 20
226.3953547859
 30
0.0
  0
VERTEX
  5
42E
  8
DV1_0
  6
CONTINUOUS
 62
     7
 10
169.5879966105
 20
226.7652198021
 30
0.0
  0
VERTEX
  5
42F
  8
DV1_0
  6
CONTINUOUS
 62
     7
 10
169.5965463142
 20
227.1350848183
 30
0.0
  0
VERTEX
  5
430
  8
DV1_0
  6
CONTINUOUS
 62
     7
 10
169.6074996044
 20
227.5049498345
 30
0.0
  0
VERTEX
  5
431
  8
DV1_0
  6
CONTINUOUS
 62
     7
 10
169.6208389725
 20
227.8748148507
 30
0.0
  0
VERTEX
  5
432
  8
DV1_0
  6
CONTINUOUS
 62
     7
 10
169.6365469098
 20
228.2446798669
 30
0.0
  0
VERTEX
  5
433
  8
DV1_0
  6
CONTINUOUS
 62
     7
 10
169.6546059076
 20
228.6145448831
 30
0.0
  0
VERTEX
  5
434
  8
DV1_0
  6
CONTINUOUS
 62
     7
 10
169.6749984573
 20
228.9844098993
 30
0.0
  0
VERTEX
  5
435
  8
DV1_0
  6
CONTINUOUS
 62
     7
 10
169.6977070503
 20
229.3542749155
 30
0.0
  0
VERTEX
  5
436
  8
DV1_0
  6
CONTINUOUS
 62
     7
 10
169.7227141779
 20
229.7241399317
 30
0.0
  0
VERTEX
  5
437
  8
DV1_0
  6
CONTINUOUS
 62
     7
 10
169.7500023314
 20
230.0940049479
 30
0.0
  0
VERTEX
  5
438
  8
DV1_0
  6
CONTINUOUS
 62
     7
 10
169.7795540023
 20
230.4638699641
 30
0.0
  0
VERTEX
  5
439
  8
DV1_0
  6
CONTINUOUS
 62
     7
 10
169.8113516818
 20
230.8337349803
 30
0.0
  0
VERTEX
  5
43A
  8
DV1_0
  6
CONTINUOUS
 62
     7
 10
169.8453778614
 20
231.2035999965
 30
0.0
  0
VERTEX
  5
43B
  8
DV1_0
  6
CONTINUOUS
 62
     7
 10
169.8816150324
 20
231.5734650127
 30
0.0
  0
VERTEX
  5
43C
  8
DV1_0
  6
CONTINUOUS
 62
     7
 10
169.9200281845
 20
231.9433300289
 30
0.0
  0
VERTEX
  5
43D
  8
DV1_0
  6
CONTINUOUS
 62
     7
 10
169.9605696908
 20
232.3131950451
 30
0.0
  0
VERTEX
  5
43E
  8
DV1_0
  6
CONTINUOUS
 62
     7
 10
170.0032031177
 20
232.6830600613
 30
0.0
  0
VERTEX
  5
43F
  8
DV1_0
  6
CONTINUOUS
 62
     7
 10
170.0478920315
 20
233.0529250775
 30
0.0
  0
VERTEX
  5
440
  8
DV1_0
  6
CONTINUOUS
 62
     7
 10
170.0945999985
 20
233.4227900937
 30
0.0
  0
VERTEX
  5
441
  8
DV1_0
  6
CONTINUOUS
 62
     7
 10
170.1432905851
 20
233.7926551099
 30
0.0
  0
VERTEX
  5
442
  8
DV1_0
  6
CONTINUOUS
 62
     7
 10
170.1939273577
 20
234.1625201261
 30
0.0
  0
VERTEX
  5
443
  8
DV1_0
  6
CONTINUOUS
 62
     7
 10
170.2464738825
 20
234.5323851423
 30
0.0
  0
VERTEX
  5
444
  8
DV1_0
  6
CONTINUOUS
 62
     7
 10
170.3008937259
 20
234.9022501585
 30
0.0
  0
VERTEX
  5
445
  8
DV1_0
  6
CONTINUOUS
 62
     7
 10
170.3571504543
 20
235.2721151747
 30
0.0
  0
VERTEX
  5
446
  8
DV1_0
  6
CONTINUOUS
 62
     7
 10
170.4152076341
 20
235.6419801909
 30
0.0
  0
VERTEX
  5
447
  8
DV1_0
  6
CONTINUOUS
 62
     7
 10
170.4750288314
 20
236.0118452071
 30
0.0
  0
VERTEX
  5
448
  8
DV1_0
  6
CONTINUOUS
 62
     7
 10
170.5365776127
 20
236.3817102233
 30
0.0
  0
VERTEX
  5
449
  8
DV1_0
  6
CONTINUOUS
 62
     7
 10
170.5998175444
 20
236.7515752395
 30
0.0
  0
VERTEX
  5
44A
  8
DV1_0
  6
CONTINUOUS
 62
     7
 10
170.6647121927
 20
237.1214402557
 30
0.0
  0
VERTEX
  5
44B
  8
DV1_0
  6
CONTINUOUS
 62
     7
 10
170.7312251241
 20
237.4913052719
 30
0.0
  0
SEQEND
  5
44C
  8
DV1_0
  6
CONTINUOUS
 62
     7
  0
ARC
  5
56
  8
DV1_0
  6
CONTINUOUS
 62
     7
 10
185.5057032891
 20
243.409145531
 30
0.0
 40
15.91559104718666
 50
158.1716867869
 51
201.8283132131
  0
LINE
  5
57
  8
DV1_0
  6
CONTINUOUS
 62
     7
 10
169.0309887532
 20
244.6556247535
 30
0.0
 11
169.0309887532
 21
206.6556247535
 31
0.0
  0
LINE
  5
58
  8
DV1_0
  6
CONTINUOUS
 62
     7
 10
154.0309887532
 20
225.6556247535
 30
0.0
 11
154.0309887532
 21
205.6556247535
 31
0.0
  0
LINE
  5
59
  8
DV1_0
  6
CONTINUOUS
 62
     7
 10
133.0309887532
 20
225.6556247535
 30
0.0
 11
133.0309887532
 21
205.6556247535
 31
0.0
  0
LINE
  5
5A
  8
DV1_0
  6
CONTINUOUS
 62
     7
 10
116.3307523823
 20
237.4913052719
 30
0.0
 11
108.5492400069
 21
237.4913052719
 31
0.0
  0
LINE
  5
5B
  8
DV1_0
  6
CONTINUOUS
 62
     7
 10
116.3307523823
 20
213.8199442351
 30
0.0
 11
108.5492400069
 21
213.8199442351
 31
0.0
  0
LINE
  5
5C
  8
DV1_0
  6
CONTINUOUS
 62
     7
 10
176.1775404773
 20
318.4556247535
 30
0.0
 11
170.7813866239
 21
318.4556247535
 31
0.0
  0
LINE
  5
5D
  8
DV1_0
  6
CONTINUOUS
 62
     7
 10
176.1775404773
 20
324.4556247535
 30
0.0
 11
176.1775404773
 21
318.4556247535
 31
0.0
  0
LINE
  5
5E
  8
DV1_0
  6
CONTINUOUS
 62
     7
 10
170.7813866239
 20
324.4556247535
 30
0.0
 11
170.7813866239
 21
318.4556247535
 31
0.0
  0
LINE
  5
5F
  8
DV1_0
  6
CONTINUOUS
 62
     7
 10
178.5127374994
 20
249.3269857902
 30
0.0
 11
170.7312251241
 21
249.3269857902
 31
0.0
  0
LINE
  5
60
  8
DV1_0
  6
CONTINUOUS
 62
     7
 10
178.5127374994
 20
237.4913052719
 30
0.0
 11
170.7312251241
 21
237.4913052719
 31
0.0
  0
LINE
  5
61
  8
DV1_0
  6
CONTINUOUS
 62
     7
 10
178.5127374994
 20
213.8199442351
 30
0.0
 11
170.7312251241
 21
213.8199442351
 31
0.0
  0
ARC
  5
62
  8
DV1_0
  6
CONTINUOUS
 62
     7
 10
108.4487604891
 20
305.9991567448
 30
0.0
 40
79.50843183793708
 50
304.9807058338
 51
309.5080754329
  0
LINE
  5
63
  8
DV1_0
  6
CONTINUOUS
 62
     7
 10
159.0309887532
 20
249.9698353018
 30
0.0
 11
154.0309887532
 21
249.9698353018
 31
0.0
  0
LINE
  5
64
  8
DV1_0
  6
CONTINUOUS
 62
     7
 10
142.1448216062
 20
240.6556247535
 30
0.0
 11
145.3667236235
 21
240.6556247535
 31
0.0
  0
LINE
  5
65
  8
DV1_0
  6
CONTINUOUS
 62
     7
 10
138.1348348998
 20
324.4556247535
 30
0.0
 11
138.1348348998
 21
318.4556247535
 31
0.0
  0
LINE
  5
66
  8
DV1_0
  6
CONTINUOUS
 62
     7
 10
116.2805908824
 20
324.4556247535
 30
0.0
 11
116.2805908824
 21
318.4556247535
 31
0.0
  0
LINE
  5
67
  8
DV1_0
  6
CONTINUOUS
 62
     7
 10
138.1348348998
 20
318.4556247535
 30
0.0
 11
116.2805908824
 21
318.4556247535
 31
0.0
  0
LINE
  5
68
  8
DV1_0
  6
CONTINUOUS
 62
     7
 10
153.5309885266
 20
292.0556247535
 30
0.0
 11
153.5309885266
 21
306.6556247535
 31
0.0
  0
LINE
  5
69
  8
DV1_0
  6
CONTINUOUS
 62
     7
 10
170.7813866239
 20
318.4556247535
 30
0.0
 11
148.9271426066
 21
318.4556247535
 31
0.0
  0
LINE
  5
6A
  8
DV1_0
  6
CONTINUOUS
 62
     7
 10
148.9271426066
 20
318.4556247535
 30
0.0
 11
138.1348348998
 21
318.4556247535
 31
0.0
  0
LINE
  5
6B
  8
DV1_0
  6
CONTINUOUS
 62
     7
 10
116.2805908824
 20
318.4556247535
 30
0.0
 11
110.884437029
 21
318.4556247535
 31
0.0
  0
LINE
  5
6C
  8
DV1_0
  6
CONTINUOUS
 62
     7
 10
127.5309887532
 20
272.1556247535
 30
0.0
 11
127.5309887532
 21
283.4556247535
 31
0.0
  0
LINE
  5
6D
  8
DV1_0
  6
CONTINUOUS
 62
     7
 10
148.0309887532
 20
318.4556247535
 30
0.0
 11
148.0309887532
 21
310.4556247535
 31
0.0
  0
LINE
  5
6E
  8
DV1_0
  6
CONTINUOUS
 62
     7
 10
139.0309887532
 20
318.4556247535
 30
0.0
 11
139.0309887532
 21
310.4556247535
 31
0.0
  0
LINE
  5
6F
  8
DV1_0
  6
CONTINUOUS
 62
     7
 10
139.0309887532
 20
310.4556247535
 30
0.0
 11
148.0309887532
 21
310.4556247535
 31
0.0
  0
LINE
  5
70
  8
DV1_0
  6
CONTINUOUS
 62
     7
 10
120.7809887532
 20
263.1556247535
 30
0.0
 11
166.2809887532
 21
263.1556247535
 31
0.0
  0
LINE
  5
71
  8
DV1_0
  6
CONTINUOUS
 62
     7
 10
120.0309887532
 20
263.5886374554
 30
0.0
 11
167.0309887532
 21
263.5886374554
 31
0.0
  0
LINE
  5
72
  8
DV1_0
  6
CONTINUOUS
 62
     7
 10
143.5309887532
 20
283.4556247535
 30
0.0
 11
127.5309887532
 21
283.4556247535
 31
0.0
  0
LINE
  5
73
  8
DV1_0
  6
CONTINUOUS
 62
     7
 10
159.5309887532
 20
283.4556247535
 30
0.0
 11
143.5309887532
 21
283.4556247535
 31
0.0
  0
LINE
  5
74
  8
DV1_0
  6
CONTINUOUS
 62
     7
 10
120.0309887532
 20
272.1556247535
 30
0.0
 11
167.0309887532
 21
272.1556247535
 31
0.0
  0
LINE
  5
75
  8
DV1_0
  6
CONTINUOUS
 62
     7
 10
120.0309887532
 20
268.6556247535
 30
0.0
 11
167.0309887532
 21
268.6556247535
 31
0.0
  0
ARC
  5
76
  8
DV1_0
  6
CONTINUOUS
 62
     7
 10
178.6132170174
 20
305.9991567451
 30
0.0
 40
79.50843183828067
 50
230.4919245671
 51
235.0192941662
  0
LINE
  5
77
  8
DV1_0
  6
CONTINUOUS
 62
     7
 10
128.0309887532
 20
249.9698353018
 30
0.0
 11
133.0309887532
 21
249.9698353018
 31
0.0
  0
LINE
  5
78
  8
DV1_0
  6
CONTINUOUS
 62
     7
 10
120.7809887532
 20
254.1556247535
 30
0.0
 11
166.2809887532
 21
254.1556247535
 31
0.0
  0
LINE
  5
79
  8
DV1_0
  6
CONTINUOUS
 62
     7
 10
144.0725135108
 20
247.1556247535
 30
0.0
 11
142.1448216062
 21
240.6556247535
 31
0.0
  0
LINE
  5
7A
  8
DV1_0
  6
CONTINUOUS
 62
     7
 10
148.9271426066
 20
324.4556247535
 30
0.0
 11
148.9271426066
 21
318.4556247535
 31
0.0
  0
LINE
  5
7B
  8
DV1_0
  6
CONTINUOUS
 62
     7
 10
143.5309887532
 20
247.1556247535
 30
0.0
 11
142.9962756277
 21
245.3607596762
 31
0.0
  0
LINE
  5
7C
  8
DV1_0
  6
CONTINUOUS
 62
     7
 10
142.9962756277
 20
245.3607596762
 30
0.0
 11
141.9455813652
 21
245.3607596762
 31
0.0
  0
LINE
  5
7D
  8
DV1_0
  6
CONTINUOUS
 62
     7
 10
139.1085365656
 20
247.1556247535
 30
0.0
 11
143.5309887532
 21
247.1556247535
 31
0.0
  0
LINE
  5
7E
  8
DV1_0
  6
CONTINUOUS
 62
     7
 10
133.5309885266
 20
292.0556247535
 30
0.0
 11
133.5309885266
 21
306.6556247535
 31
0.0
  0
LINE
  5
7F
  8
DV1_0
  6
CONTINUOUS
 62
     7
 10
143.5309887532
 20
306.6556247535
 30
0.0
 11
133.5309885266
 21
306.6556247535
 31
0.0
  0
LINE
  5
80
  8
DV1_0
  6
CONTINUOUS
 62
     7
 10
143.5309887532
 20
292.0556247535
 30
0.0
 11
133.5309885266
 21
292.0556247535
 31
0.0
  0
LINE
  5
81
  8
DV1_0
  6
CONTINUOUS
 62
     7
 10
143.5309887532
 20
292.0556247535
 30
0.0
 11
143.5309887532
 21
306.6556247535
 31
0.0
  0
LINE
  5
82
  8
DV1_0
  6
CONTINUOUS
 62
     7
 10
116.3307523823
 20
249.3269857902
 30
0.0
 11
108.5492400069
 21
249.3269857902
 31
0.0
  0
LINE
  5
83
  8
DV1_0
  6
CONTINUOUS
 62
     7
 10
159.5309887532
 20
272.1556247535
 30
0.0
 11
159.5309887532
 21
283.4556247535
 31
0.0
  0
LINE
  5
84
  8
DV1_0
  6
CONTINUOUS
 62
     7
 10
143.5309887532
 20
272.1556247535
 30
0.0
 11
143.5309887532
 21
283.4556247535
 31
0.0
  0
LINE
  5
85
  8
DV1_0
  6
CONTINUOUS
 62
     7
 10
145.3667236235
 20
240.6556247535
 30
0.0
 11
145.8758931283
 21
242.3329891758
 31
0.0
  0
LINE
  5
86
  8
DV1_0
  6
CONTINUOUS
 62
     7
 10
144.6072266363
 20
242.3329891758
 30
0.0
 11
145.3667236235
 21
245.5446737448
 31
0.0
  0
LINE
  5
87
  8
DV1_0
  6
CONTINUOUS
 62
     7
 10
110.884437029
 20
324.4556247535
 30
0.0
 11
110.884437029
 21
318.4556247535
 31
0.0
  0
LINE
  5
88
  8
DV1_0
  6
CONTINUOUS
 62
     7
 10
145.8758931283
 20
242.3329891758
 30
0.0
 11
144.6072266363
 21
242.3329891758
 31
0.0
  0
LINE
  5
89
  8
DV1_0
  6
CONTINUOUS
 62
     7
 10
145.3667236235
 20
245.5446737448
 30
0.0
 11
146.534918541
 21
240.6556247535
 31
0.0
  0
LINE
  5
8A
  8
DV1_0
  6
CONTINUOUS
 62
     7
 10
146.534918541
 20
240.6556247535
 30
0.0
 11
148.5869227327
 21
240.6556247535
 31
0.0
  0
LINE
  5
8B
  8
DV1_0
  6
CONTINUOUS
 62
     7
 10
148.5869227327
 20
240.6556247535
 30
0.0
 11
146.6592308281
 21
247.1556247535
 31
0.0
  0
LINE
  5
8C
  8
DV1_0
  6
CONTINUOUS
 62
     7
 10
146.6592308281
 20
247.1556247535
 30
0.0
 11
144.0725135108
 21
247.1556247535
 31
0.0
  0
LINE
  5
8D
  8
DV1_0
  6
CONTINUOUS
 62
     7
 10
120.0309887532
 20
268.1556247535
 30
0.0
 11
167.0309887532
 21
268.1556247535
 31
0.0
  0
LINE
  5
8E
  8
DV1_0
  6
CONTINUOUS
 62
     7
 10
153.5309885266
 20
306.6556247535
 30
0.0
 11
143.5309887532
 21
306.6556247535
 31
0.0
  0
LINE
  5
8F
  8
DV1_0
  6
CONTINUOUS
 62
     7
 10
153.5309885266
 20
292.0556247535
 30
0.0
 11
143.5309887532
 21
292.0556247535
 31
0.0
  0
LINE
  5
90
  8
DV1_0
  6
CONTINUOUS
 62
     7
 10
140.0093749203
 20
245.3607596762
 30
0.0
 11
138.5823379803
 21
245.3607596762
 31
0.0
  0
LINE
  5
91
  8
DV1_0
  6
CONTINUOUS
 62
     7
 10
140.0093749203
 20
240.6556247535
 30
0.0
 11
140.0093749203
 21
245.3607596762
 31
0.0
  0
LINE
  5
92
  8
DV1_0
  6
CONTINUOUS
 62
     7
 10
141.9455813652
 20
240.6556247535
 30
0.0
 11
140.0093749203
 21
240.6556247535
 31
0.0
  0
LINE
  5
93
  8
DV1_0
  6
CONTINUOUS
 62
     7
 10
141.9455813652
 20
245.3607596762
 30
0.0
 11
141.9455813652
 21
240.6556247535
 31
0.0
  0
LINE
  5
94
  8
DV1_0
  6
CONTINUOUS
 62
     7
 10
138.5823379803
 20
245.3607596762
 30
0.0
 11
139.1085365656
 21
247.1556247535
 31
0.0
  0
LINE
  5
95
  8
DV1_0
  6
CONTINUOUS
 62
     7
 10
108.5492400069
 20
249.3269857902
 30
0.0
 11
107.0309887532
 21
245.1556247535
 31
0.0
  0
LINE
  5
96
  8
DV1_0
  6
CONTINUOUS
 62
     7
 10
107.0309887532
 20
206.1556247535
 30
0.0
 11
108.5492400069
 21
201.9842637167
 31
0.0
  0
LINE
  5
97
  8
DV1_0
  6
CONTINUOUS
 62
     7
 10
178.5127374994
 20
201.9842637167
 30
0.0
 11
180.0309887532
 21
206.1556247535
 31
0.0
  0
LINE
  5
98
  8
DV1_0
  6
CONTINUOUS
 62
     7
 10
180.0309887532
 20
245.1556247535
 30
0.0
 11
178.5127374994
 21
249.3269857902
 31
0.0
  0
ARC
  5
99
  8
DV1_0
  6
CONTINUOUS
 62
     7
 10
173.5309887532
 20
324.4556247535
 30
0.0
 40
5.000000000000004
 50
72.5385022345
 51
90.0
  0
ARC
  5
9A
  8
DV1_0
  6
CONTINUOUS
 62
     7
 10
113.5309887532
 20
324.4556247535
 30
0.0
 40
5.000000000000004
 50
90.0
 51
107.455566456
  0
LINE
  5
9B
  8
DV1_0
  6
CONTINUOUS
 62
     7
 10
173.5309887532
 20
329.4556247535
 30
0.0
 11
113.5309887532
 21
329.4556247535
 31
0.0
  0
LINE
  5
9C
  8
DV1_0
  6
CONTINUOUS
 62
     7
 10
116.3307523823
 20
201.9842637167
 30
0.0
 11
118.0309887532
 21
206.6556247535
 31
0.0
  0
LINE
  5
9D
  8
DV1_0
  6
CONTINUOUS
 62
     7
 10
118.0309887532
 20
244.6556247535
 30
0.0
 11
116.3307523823
 21
249.3269857902
 31
0.0
  0
LINE
  5
9E
  8
DV1_0
  6
CONTINUOUS
 62
     7
 10
170.7312251241
 20
249.3269857902
 30
0.0
 11
169.0309887532
 21
244.6556247535
 31
0.0
  0
LINE
  5
9F
  8
DV1_0
  6
CONTINUOUS
 62
     7
 10
169.0309887532
 20
206.6556247535
 30
0.0
 11
170.7312251241
 21
201.9842637167
 31
0.0
  0
LINE
  5
A0
  8
DV1_0
  6
CONTINUOUS
 62
     7
 10
133.0309887532
 20
205.6556247535
 30
0.0
 11
154.0309887532
 21
205.6556247535
 31
0.0
  0
LINE
  5
A1
  8
DV1_0
  6
CONTINUOUS
 62
     7
 10
159.0309887532
 20
244.6556247535
 30
0.0
 11
159.0309887532
 21
249.9698353018
 31
0.0
  0
LINE
  5
A2
  8
DV1_0
  6
CONTINUOUS
 62
     7
 10
120.0309887532
 20
263.5886374554
 30
0.0
 11
120.7809887532
 21
263.1556247535
 31
0.0
  0
LINE
  5
A3
  8
DV1_0
  6
CONTINUOUS
 62
     7
 10
166.2809887532
 20
263.1556247535
 30
0.0
 11
167.0309887532
 21
263.5886374554
 31
0.0
  0
LINE
  5
A4
  8
DV1_0
  6
CONTINUOUS
 62
     7
 10
147.8809887532
 20
306.6556247535
 30
0.0
 11
147.8809887532
 21
310.4556247535
 31
0.0
  0
LINE
  5
A5
  8
DV1_0
  6
CONTINUOUS
 62
     7
 10
139.1809887532
 20
310.4556247535
 30
0.0
 11
139.1809887532
 21
306.6556247535
 31
0.0
  0
LINE
  5
A6
  8
DV1_0
  6
CONTINUOUS
 62
     7
 10
167.0309887532
 20
268.6556247535
 30
0.0
 11
167.0309887532
 21
272.1556247535
 31
0.0
  0
LINE
  5
A7
  8
DV1_0
  6
CONTINUOUS
 62
     7
 10
120.0309887532
 20
272.1556247535
 30
0.0
 11
120.0309887532
 21
268.6556247535
 31
0.0
  0
LINE
  5
A8
  8
DV1_0
  6
CONTINUOUS
 62
     7
 10
128.0309887532
 20
244.6556247535
 30
0.0
 11
118.0309887532
 21
244.6556247535
 31
0.0
  0
LINE
  5
A9
  8
DV1_0
  6
CONTINUOUS
 62
     7
 10
118.0309887532
 20
206.6556247535
 30
0.0
 11
133.0309887532
 21
206.6556247535
 31
0.0
  0
LINE
  5
AA
  8
DV1_0
  6
CONTINUOUS
 62
     7
 10
120.7809887532
 20
254.1556247535
 30
0.0
 11
128.0309887532
 21
249.9698353018
 31
0.0
  0
LINE
  5
AB
  8
DV1_0
  6
CONTINUOUS
 62
     7
 10
159.0309887532
 20
249.9698353018
 30
0.0
 11
166.2809887532
 21
254.1556247535
 31
0.0
  0
LINE
  5
AC
  8
DV1_0
  6
CONTINUOUS
 62
     7
 10
169.0309887532
 20
244.6556247535
 30
0.0
 11
159.0309887532
 21
244.6556247535
 31
0.0
  0
LINE
  5
AD
  8
DV1_0
  6
CONTINUOUS
 62
     7
 10
154.0309887532
 20
206.6556247535
 30
0.0
 11
169.0309887532
 21
206.6556247535
 31
0.0
  0
LINE
  5
AE
  8
DV1_0
  6
CONTINUOUS
 62
     7
 10
128.0309887532
 20
249.9698353018
 30
0.0
 11
128.0309887532
 21
244.6556247535
 31
0.0
  0
LINE
  5
AF
  8
DV1_0
  6
CONTINUOUS
 62
     7
 10
152.5309887532
 20
283.4556247535
 30
0.0
 11
152.5309887532
 21
292.0556247535
 31
0.0
  0
LINE
  5
B0
  8
DV1_0
  6
CONTINUOUS
 62
     7
 10
134.5309887532
 20
292.0556247535
 30
0.0
 11
134.5309887532
 21
283.4556247535
 31
0.0
  0
LINE
  5
B1
  8
DV1_0
  6
CONTINUOUS
 62
     7
 10
167.0309887532
 20
263.5886374554
 30
0.0
 11
167.0309887532
 21
268.1556247535
 31
0.0
  0
LINE
  5
B2
  8
DV1_0
  6
CONTINUOUS
 62
     7
 10
120.0309887532
 20
268.1556247535
 30
0.0
 11
120.0309887532
 21
263.5886374554
 31
0.0
  0
LINE
  5
B3
  8
DV1_0
  6
CONTINUOUS
 62
     7
 10
167.0309887532
 20
268.1556247535
 30
0.0
 11
166.5309887532
 21
268.6556247535
 31
0.0
  0
LINE
  5
B4
  8
DV1_0
  6
CONTINUOUS
 62
     7
 10
120.5309887532
 20
268.6556247535
 30
0.0
 11
120.0309887532
 21
268.1556247535
 31
0.0
  0
LINE
  5
B5
  8
DV1_0
  6
CONTINUOUS
 62
     7
 10
166.2809887532
 20
254.1556247535
 30
0.0
 11
166.2809887532
 21
263.1556247535
 31
0.0
  0
LINE
  5
B6
  8
DV1_0
  6
CONTINUOUS
 62
     7
 10
120.7809887532
 20
263.1556247535
 30
0.0
 11
120.7809887532
 21
254.1556247535
 31
0.0
  0
ENDBLK
  5
B8
  8
0
  0
BLOCK
  8
0
  2
SE1
 70
     0
 10
0.0
 20
0.0
 30
0.0
  3
SE1
  1

  0
LINE
  5
BC
  8
DV2_0
  6
CONTINUOUS
 62
     7
 10
107.0309887532
 20
119.0359343959
 30
0.0
 11
107.0309887532
 21
80.0359343959
 31
0.0
  0
LINE
  5
BD
  8
DV2_0
  6
CONTINUOUS
 62
     7
 10
108.5492400069
 20
120.0359343959
 30
0.0
 11
107.3949589874
 21
120.0359343959
 31
0.0
  0
LINE
  5
BE
  8
DV2_0
  6
CONTINUOUS
 62
     7
 10
115.1628728482
 20
120.0359343959
 30
0.0
 11
108.5492400069
 21
120.0359343959
 31
0.0
  0
LINE
  5
BF
  8
DV2_0
  6
CONTINUOUS
 62
     7
 10
108.5492400069
 20
79.0359343959
 30
0.0
 11
107.3949589874
 21
79.0359343959
 31
0.0
  0
ARC
  5
C0
  8
DV2_0
  6
CONTINUOUS
 62
     7
 10
153.9011282943
 20
89.2859343959
 30
0.0
 40
46.49576616457934
 50
167.2645244266
 51
192.7354755734
  0
ARC
  5
C1
  8
DV2_0
  6
CONTINUOUS
 62
     7
 10
153.9011282943
 20
109.7859343959
 30
0.0
 40
46.49576616457981
 50
167.2645244266
 51
192.7354755734
  0
ARC
  5
C2
  8
DV2_0
  6
CONTINUOUS
 62
     7
 10
133.160849212
 20
109.7859343959
 30
0.0
 40
46.49576616457988
 50
347.2645244266
 51
12.7354755734
  0
ARC
  5
C3
  8
DV2_0
  6
CONTINUOUS
 62
     7
 10
133.160849212
 20
89.2859343959
 30
0.0
 40
46.49576616457915
 50
347.2645244266
 51
12.7354755734
  0
LINE
  5
C4
  8
DV2_0
  6
CONTINUOUS
 62
     7
 10
178.5127374994
 20
79.0359343959
 30
0.0
 11
179.6670185189
 21
79.0359343959
 31
0.0
  0
LINE
  5
C5
  8
DV2_0
  6
CONTINUOUS
 62
     7
 10
179.6670185189
 20
120.0359343959
 30
0.0
 11
178.5127374994
 21
120.0359343959
 31
0.0
  0
LINE
  5
C6
  8
DV2_0
  6
CONTINUOUS
 62
     7
 10
180.0309887532
 20
119.0359343959
 30
0.0
 11
180.0309887532
 21
80.0359343959
 31
0.0
  0
ARC
  5
C7
  8
DV2_0
  6
CONTINUOUS
 62
     7
 10
152.5873952137
 20
94.3072156881
 30
0.0
 40
17.04256258422025
 50
269.8323907466
 51
330.0
  0
ARC
  5
C8
  8
DV2_0
  6
CONTINUOUS
 62
     7
 10
152.5543654041
 20
83.0162919941
 30
0.0
 40
5.7515905786788
 50
118.6442966068
 51
269.8323907466
  0
ARC
  5
C9
  8
DV2_0
  6
CONTINUOUS
 62
     7
 10
143.5309887532
 20
99.5359343959
 30
0.0
 40
13.07179676972449
 50
241.3557033932
 51
298.6442966068
  0
ARC
  5
CA
  8
DV2_0
  6
CONTINUOUS
 62
     7
 10
134.5076121022
 20
83.0162919941
 30
0.0
 40
5.75159057867879
 50
270.1676092534
 51
61.3557033932
  0
ARC
  5
CB
  8
DV2_0
  6
CONTINUOUS
 62
     7
 10
134.4745822926
 20
94.3072156881
 30
0.0
 40
17.04256258422025
 50
210.0
 51
270.1676092534
  0
ARC
  5
CC
  8
DV2_0
  6
CONTINUOUS
 62
     7
 10
42.0309887532
 20
99.5359343959
 30
0.0
 40
69.99999999999989
 50
349.6156334095
 51
10.3843665905
  0
ARC
  5
CD
  8
DV2_0
  6
CONTINUOUS
 62
     7
 10
143.5309887532
 20
99.5359343959
 30
0.0
 40
34.99999999999999
 50
201.131000091
 51
218.868999909
  0
ARC
  5
CE
  8
DV2_0
  6
CONTINUOUS
 62
     7
 10
92.7809887532
 20
11.6343559118
 30
0.0
 40
70.00000000000117
 50
49.6156334095
 51
70.3843665905
  0
ARC
  5
CF
  8
DV2_0
  6
CONTINUOUS
 62
     7
 10
143.5309887532
 20
99.5359343959
 30
0.0
 40
34.99999999999999
 50
261.131000091
 51
278.868999909
  0
ARC
  5
D0
  8
DV2_0
  6
CONTINUOUS
 62
     7
 10
194.2809887532
 20
11.6343559118
 30
0.0
 40
70.00000000000256
 50
109.6156334095
 51
130.3843665905
  0
ARC
  5
D1
  8
DV2_0
  6
CONTINUOUS
 62
     7
 10
143.5309887532
 20
99.5359343959
 30
0.0
 40
34.99999999999998
 50
321.131000091
 51
338.868999909
  0
ARC
  5
D2
  8
DV2_0
  6
CONTINUOUS
 62
     7
 10
245.0309887532
 20
99.5359343959
 30
0.0
 40
70.00000000000036
 50
169.6156334095
 51
190.3843665905
  0
LINE
  5
D3
  8
DV2_0
  6
CONTINUOUS
 62
     7
 10
118.0309887532
 20
98.7351084019
 30
0.0
 11
118.0309887532
 21
89.840768035
 31
0.0
  0
LINE
  5
D4
  8
DV2_0
  6
CONTINUOUS
 62
     7
 10
169.0309887532
 20
98.7285115142
 30
0.0
 11
169.0309887532
 21
89.9127848607
 31
0.0
  0
LINE
  5
D5
  8
DV2_0
  6
CONTINUOUS
 62
     7
 10
115.1628728482
 20
79.0359343959
 30
0.0
 11
108.5492400069
 21
79.0359343959
 31
0.0
  0
LINE
  5
D6
  8
DV2_0
  6
CONTINUOUS
 62
     7
 10
178.5127374994
 20
99.5359343959
 30
0.0
 11
175.0309887532
 21
99.5359343959
 31
0.0
  0
LINE
  5
D7
  8
DV2_0
  6
CONTINUOUS
 62
     7
 10
178.5127374994
 20
79.0359343959
 30
0.0
 11
171.8991046582
 21
79.0359343959
 31
0.0
  0
ARC
  5
D8
  8
DV2_0
  6
CONTINUOUS
 62
     7
 10
162.34910706
 20
99.9812821892
 30
0.0
 40
5.751590578678748
 50
30.1676092534
 51
181.3557033932
  0
ARC
  5
D9
  8
DV2_0
  6
CONTINUOUS
 62
     7
 10
152.5873952137
 20
94.3072156881
 30
0.0
 40
17.04256258422008
 50
330.0
 51
30.1676092534
  0
ARC
  5
DA
  8
DV2_0
  6
CONTINUOUS
 62
     7
 10
143.5309887532
 20
99.5359343959
 30
0.0
 40
13.07179676972449
 50
298.6442966068
 51
1.3557033932
  0
ARC
  5
DB
  8
DV2_0
  6
CONTINUOUS
 62
     7
 10
133.7362470973
 20
115.6102290045
 30
0.0
 40
5.75159057867877
 50
150.1676092534
 51
301.3557033932
  0
ARC
  5
DC
  8
DV2_0
  6
CONTINUOUS
 62
     7
 10
143.5309887532
 20
109.9933718117
 30
0.0
 40
17.04256258422022
 50
29.8323907466
 51
90.0
  0
ARC
  5
DD
  8
DV2_0
  6
CONTINUOUS
 62
     7
 10
143.5309887532
 20
109.9933718117
 30
0.0
 40
17.0425625842201
 50
90.0
 51
150.1676092534
  0
ARC
  5
DE
  8
DV2_0
  6
CONTINUOUS
 62
     7
 10
153.3257304091
 20
115.6102290045
 30
0.0
 40
5.751590578678805
 50
238.6442966068
 51
29.8323907466
  0
ARC
  5
DF
  8
DV2_0
  6
CONTINUOUS
 62
     7
 10
134.4745822926
 20
94.3072156881
 30
0.0
 40
17.04256258422017
 50
149.8323907466
 51
210.0
  0
ARC
  5
E0
  8
DV2_0
  6
CONTINUOUS
 62
     7
 10
124.7128704463
 20
99.9812821892
 30
0.0
 40
5.751590578678781
 50
358.6442966068
 51
149.8323907466
  0
ARC
  5
E1
  8
DV2_0
  6
CONTINUOUS
 62
     7
 10
143.5309887532
 20
99.5359343959
 30
0.0
 40
13.07179676972449
 50
121.3557033932
 51
178.6442966068
  0
LINE
  5
E2
  8
DV2_0
  6
CONTINUOUS
 62
     7
 10
127.5309887532
 20
90.2983300889
 30
0.0
 11
127.5309887532
 21
104.9727529872
 31
0.0
  0
ARC
  5
E3
  8
DV2_0
  6
CONTINUOUS
 62
     7
 10
143.5309887532
 20
99.5359343959
 30
0.0
 40
13.07179676972449
 50
58.6442966068
 51
121.3557033932
  0
ARC
  5
E4
  8
DV2_0
  6
CONTINUOUS
 62
     7
 10
143.5309887532
 20
99.5359343959
 30
0.0
 40
13.07179676972449
 50
178.6442966068
 51
241.3557033932
  0
ARC
  5
E5
  8
DV2_0
  6
CONTINUOUS
 62
     7
 10
143.5309887532
 20
99.5359343959
 30
0.0
 40
13.07179676972449
 50
1.3557033932
 51
58.6442966068
  0
LINE
  5
E6
  8
DV2_0
  6
CONTINUOUS
 62
     7
 10
140.251084258
 20
82.9543795251
 30
0.0
 11
127.5309887532
 21
90.2983300889
 31
0.0
  0
LINE
  5
E7
  8
DV2_0
  6
CONTINUOUS
 62
     7
 10
159.5309887532
 20
90.2983300889
 30
0.0
 11
146.8225657373
 21
82.9611186397
 31
0.0
  0
LINE
  5
E8
  8
DV2_0
  6
CONTINUOUS
 62
     7
 10
159.5309887532
 20
104.9862312166
 30
0.0
 11
159.5309887532
 21
90.2983300889
 31
0.0
  0
LINE
  5
E9
  8
DV2_0
  6
CONTINUOUS
 62
     7
 10
143.5309887532
 20
118.01114301
 30
0.0
 11
156.239411769
 21
110.6739315608
 31
0.0
  0
LINE
  5
EA
  8
DV2_0
  6
CONTINUOUS
 62
     7
 10
130.8108932483
 20
110.6671924462
 30
0.0
 11
143.5309887532
 21
118.01114301
 31
0.0
  0
ARC
  5
EB
  8
DV2_0
  6
CONTINUOUS
 62
     7
 10
92.7809887532
 20
187.4375128801
 30
0.0
 40
70.00000000000249
 50
289.6156334095
 51
310.3843665905
  0
ARC
  5
EC
  8
DV2_0
  6
CONTINUOUS
 62
     7
 10
194.2809887532
 20
187.4375128801
 30
0.0
 40
70.00000000000085
 50
229.6156334095
 51
250.3843665905
  0
ARC
  5
ED
  8
DV2_0
  6
CONTINUOUS
 62
     7
 10
143.5309887532
 20
99.5359343959
 30
0.0
 40
34.99999999999999
 50
21.131000091
 51
38.868999909
  0
ARC
  5
EE
  8
DV2_0
  6
CONTINUOUS
 62
     7
 10
143.5309887532
 20
99.5359343959
 30
0.0
 40
34.99999999999999
 50
81.131000091
 51
98.868999909
  0
ARC
  5
EF
  8
DV2_0
  6
CONTINUOUS
 62
     7
 10
143.5309887532
 20
99.5359343959
 30
0.0
 40
35.00000000000003
 50
141.131000091
 51
158.868999909
  0
ARC
  5
F0
  8
DV2_0
  6
CONTINUOUS
 62
     7
 10
143.5309887532
 20
99.5359343959
 30
0.0
 40
23.5
 50
289.5341348172
 51
0.0
  0
ARC
  5
F1
  8
DV2_0
  6
CONTINUOUS
 62
     7
 10
143.5309887532
 20
99.5359343959
 30
0.0
 40
23.5
 50
169.5230267676
 51
250.4301078898
  0
ARC
  5
F2
  8
DV2_0
  6
CONTINUOUS
 62
     7
 10
143.5309887532
 20
99.5359343959
 30
0.0
 40
23.5
 50
49.5687531226
 51
130.5141158268
  0
ARC
  5
F3
  8
DV2_0
  6
CONTINUOUS
 62
     7
 10
143.5309887532
 20
99.5359343959
 30
0.0
 40
23.5
 50
0.0
 51
10.4802117033
  0
LINE
  5
F4
  8
DV2_0
  6
CONTINUOUS
 62
     7
 10
112.0309887532
 20
99.5359343959
 30
0.0
 11
108.5492400069
 21
99.5359343959
 31
0.0
  0
LINE
  5
F5
  8
DV2_0
  6
CONTINUOUS
 62
     7
 10
178.5127374994
 20
120.0359343959
 30
0.0
 11
171.8991046582
 21
120.0359343959
 31
0.0
  0
LINE
  5
F6
  8
DV2_0
  6
CONTINUOUS
 62
     7
 10
107.3949589874
 20
120.0359343959
 30
0.0
 11
107.0309887532
 21
119.0359343959
 31
0.0
  0
LINE
  5
F7
  8
DV2_0
  6
CONTINUOUS
 62
     7
 10
107.0309887532
 20
80.0359343959
 30
0.0
 11
107.3949589874
 21
79.0359343959
 31
0.0
  0
LINE
  5
F8
  8
DV2_0
  6
CONTINUOUS
 62
     7
 10
179.6670185189
 20
79.0359343959
 30
0.0
 11
180.0309887532
 21
80.0359343959
 31
0.0
  0
LINE
  5
F9
  8
DV2_0
  6
CONTINUOUS
 62
     7
 10
180.0309887532
 20
119.0359343959
 30
0.0
 11
179.6670185189
 21
120.0359343959
 31
0.0
  0
LINE
  5
FA
  8
DV2_0
  6
CONTINUOUS
 62
     7
 10
129.7016720672
 20
118.5359343959
 30
0.0
 11
128.7865324773
 21
118.5359343959
 31
0.0
  0
LINE
  5
FB
  8
DV2_0
  6
CONTINUOUS
 62
     7
 10
124.4638759973
 20
80.5359343959
 30
0.0
 11
129.7016720672
 21
80.5359343959
 31
0.0
  0
LINE
  5
FC
  8
DV2_0
  6
CONTINUOUS
 62
     7
 10
158.2740565161
 20
118.5359343959
 30
0.0
 11
157.3603054391
 21
118.5359343959
 31
0.0
  0
LINE
  5
FD
  8
DV2_0
  6
CONTINUOUS
 62
     7
 10
157.3603054391
 20
80.5359343959
 30
0.0
 11
162.624822108
 21
80.5359343959
 31
0.0
  0
ENDBLK
  5
FF
  8
0
  0
BLOCK
  8
0
  2
SE2
 70
     0
 10
0.0
 20
0.0
 30
0.0
  3
SE2
  1

  0
LINE
  5
103
  8
DV3_0
  6
CONTINUOUS
 62
     7
 10
279.8611724804
 20
79.0425963721
 30
0.0
 11
300.8611724804
 21
79.0425963721
 31
0.0
  0
LINE
  5
104
  8
DV3_0
  6
CONTINUOUS
 62
     7
 10
326.8611724804
 20
118.5425963721
 30
0.0
 11
326.8611724804
 21
79.5425963721
 31
0.0
  0
ARC
  5
105
  8
DV3_0
  6
CONTINUOUS
 62
     7
 10
362.9132971387
 20
109.2925963721
 30
0.0
 40
46.49576616457975
 50
167.2645244266
 51
192.7354755734
  0
LINE
  5
106
  8
DV3_0
  6
CONTINUOUS
 62
     7
 10
317.5614088513
 20
99.0425963721
 30
0.0
 11
325.3429212267
 21
99.0425963721
 31
0.0
  0
ARC
  5
107
  8
DV3_0
  6
CONTINUOUS
 62
     7
 10
279.9910329393
 20
109.2925963721
 30
0.0
 40
46.49576616458006
 50
347.2645244266
 51
12.7354755734
  0
LINE
  5
108
  8
DV3_0
  6
CONTINUOUS
 62
     7
 10
317.5614088513
 20
119.5425963721
 30
0.0
 11
325.3429212267
 21
119.5425963721
 31
0.0
  0
LINE
  5
109
  8
DV3_0
  6
CONTINUOUS
 62
     7
 10
316.4071278318
 20
119.5425963721
 30
0.0
 11
317.5614088513
 21
119.5425963721
 31
0.0
  0
LINE
  5
10A
  8
DV3_0
  6
CONTINUOUS
 62
     7
 10
326.4972022462
 20
119.5425963721
 30
0.0
 11
325.3429212267
 21
119.5425963721
 31
0.0
  0
ARC
  5
10B
  8
DV3_0
  6
CONTINUOUS
 62
     7
 10
279.9910329393
 20
88.7925963721
 30
0.0
 40
46.49576616457948
 50
347.2645244266
 51
12.7354755734
  0
LINE
  5
10C
  8
DV3_0
  6
CONTINUOUS
 62
     7
 10
325.3429212267
 20
78.5425963721
 30
0.0
 11
326.4972022462
 21
78.5425963721
 31
0.0
  0
LINE
  5
10D
  8
DV3_0
  6
CONTINUOUS
 62
     7
 10
255.3794237342
 20
78.5425963721
 30
0.0
 11
254.2251427147
 21
78.5425963721
 31
0.0
  0
ARC
  5
10E
  8
DV3_0
  6
CONTINUOUS
 62
     7
 10
300.7313120216
 20
88.7925963721
 30
0.0
 40
46.49576616457964
 50
167.2645244266
 51
192.7354755734
  0
ARC
  5
10F
  8
DV3_0
  6
CONTINUOUS
 62
     7
 10
300.7313120216
 20
109.2925963721
 30
0.0
 40
46.49576616457973
 50
167.2645244266
 51
192.7354755734
  0
LINE
  5
110
  8
DV3_0
  6
CONTINUOUS
 62
     7
 10
254.2251427147
 20
119.5425963721
 30
0.0
 11
255.3794237342
 21
119.5425963721
 31
0.0
  0
LINE
  5
111
  8
DV3_0
  6
CONTINUOUS
 62
     7
 10
253.8611724804
 20
118.5425963721
 30
0.0
 11
253.8611724804
 21
79.5425963721
 31
0.0
  0
LINE
  5
112
  8
DV3_0
  6
CONTINUOUS
 62
     7
 10
255.3794237342
 20
99.0425963721
 30
0.0
 11
263.1609361095
 21
99.0425963721
 31
0.0
  0
ARC
  5
113
  8
DV3_0
  6
CONTINUOUS
 62
     7
 10
217.8090478221
 20
109.2925963721
 30
0.0
 40
46.49576616457964
 50
347.2645244266
 51
12.7354755734
  0
LINE
  5
114
  8
DV3_0
  6
CONTINUOUS
 62
     7
 10
255.3794237342
 20
119.5425963721
 30
0.0
 11
263.1609361095
 21
119.5425963721
 31
0.0
  0
LINE
  5
115
  8
DV3_0
  6
CONTINUOUS
 62
     7
 10
317.5614088513
 20
78.5425963721
 30
0.0
 11
316.4071278318
 21
78.5425963721
 31
0.0
  0
ARC
  5
116
  8
DV3_0
  6
CONTINUOUS
 62
     7
 10
362.9132971387
 20
88.7925963721
 30
0.0
 40
46.49576616457933
 50
167.2645244266
 51
192.7354755734
  0
LINE
  5
117
  8
DV3_0
  6
CONTINUOUS
 62
     7
 10
315.8611724804
 20
118.0425963721
 30
0.0
 11
315.8611724804
 21
80.0425963721
 31
0.0
  0
ARC
  5
118
  8
DV3_0
  6
CONTINUOUS
 62
     7
 10
217.8090478221
 20
88.7925963721
 30
0.0
 40
46.49576616457958
 50
347.2645244266
 51
12.7354755734
  0
LINE
  5
119
  8
DV3_0
  6
CONTINUOUS
 62
     7
 10
263.1609361095
 20
78.5425963721
 30
0.0
 11
264.315217129
 21
78.5425963721
 31
0.0
  0
LINE
  5
11A
  8
DV3_0
  6
CONTINUOUS
 62
     7
 10
263.1609361095
 20
119.5425963721
 30
0.0
 11
264.315217129
 21
119.5425963721
 31
0.0
  0
LINE
  5
11B
  8
DV3_0
  6
CONTINUOUS
 62
     7
 10
264.8611724804
 20
118.0425963721
 30
0.0
 11
264.8611724804
 21
80.0425963721
 31
0.0
  0
LINE
  5
11C
  8
DV3_0
  6
CONTINUOUS
 62
     7
 10
279.8611724804
 20
119.0425963721
 30
0.0
 11
279.8611724804
 21
79.0425963721
 31
0.0
  0
LINE
  5
11D
  8
DV3_0
  6
CONTINUOUS
 62
     7
 10
300.8611724804
 20
119.0425963721
 30
0.0
 11
300.8611724804
 21
79.0425963721
 31
0.0
  0
LINE
  5
11E
  8
DV3_0
  6
CONTINUOUS
 62
     7
 10
279.8611724804
 20
119.0425963721
 30
0.0
 11
300.8611724804
 21
119.0425963721
 31
0.0
  0
LINE
  5
11F
  8
DV3_0
  6
CONTINUOUS
 62
     7
 10
317.5614088513
 20
78.5425963721
 30
0.0
 11
325.3429212267
 21
78.5425963721
 31
0.0
  0
ARC
  5
120
  8
DV3_0
  6
CONTINUOUS
 62
     7
 10
290.3611724804
 20
99.0425963721
 30
0.0
 40
35.00000000000006
 50
215.8534670635
 51
218.868999909
  0
LINE
  5
121
  8
DV3_0
  6
CONTINUOUS
 62
     7
 10
255.3794237342
 20
78.5425963721
 30
0.0
 11
263.1609361095
 21
78.5425963721
 31
0.0
  0
ARC
  5
122
  8
DV3_0
  6
CONTINUOUS
 62
     7
 10
281.3047660199
 20
93.8138776642
 30
0.0
 40
17.04256258422041
 50
233.9226634693
 51
270.1676092534
  0
LINE
  5
123
  8
DV3_0
  6
CONTINUOUS
 62
     7
 10
288.5254376101
 20
78.4425963721
 30
0.0
 11
288.5254376101
 21
79.0425963721
 31
0.0
  0
LINE
  5
124
  8
DV3_0
  6
CONTINUOUS
 62
     7
 10
291.7473396274
 20
78.4425963721
 30
0.0
 11
288.5254376101
 21
78.4425963721
 31
0.0
  0
LINE
  5
125
  8
DV3_0
  6
CONTINUOUS
 62
     7
 10
291.7473396274
 20
78.4425963721
 30
0.0
 11
291.7473396274
 21
79.0425963721
 31
0.0
  0
ARC
  5
126
  8
DV3_0
  6
CONTINUOUS
 62
     7
 10
299.417578941
 20
93.8138776642
 30
0.0
 40
17.04256258422045
 50
269.8323907466
 51
305.9877792202
  0
ARC
  5
127
  8
DV3_0
  6
CONTINUOUS
 62
     7
 10
290.3611724804
 20
109.5000337879
 30
0.0
 40
17.04256258422043
 50
30.0863380308
 51
149.9109348873
  0
ARC
  5
128
  8
DV3_0
  6
CONTINUOUS
 62
     7
 10
341.1111724804
 20
11.141017888
 30
0.0
 40
69.99999999999999
 50
109.6156334095
 51
130.3843665905
  0
ARC
  5
129
  8
DV3_0
  6
CONTINUOUS
 62
     7
 10
290.3611724804
 20
99.0425963721
 30
0.0
 40
34.00000000000001
 50
321.6015177127
 51
322.8904598926
  0
ARC
  5
12A
  8
DV3_0
  6
CONTINUOUS
 62
     7
 10
290.3611724804
 20
99.0425963721
 30
0.0
 40
35.00000000000006
 50
35.8534670635
 51
38.868999909
  0
ARC
  5
12B
  8
DV3_0
  6
CONTINUOUS
 62
     7
 10
341.1111724804
 20
186.9441748563
 30
0.0
 40
70.0000000000001
 50
229.6156334095
 51
250.3843665905
  0
ARC
  5
12C
  8
DV3_0
  6
CONTINUOUS
 62
     7
 10
290.3611724804
 20
99.0425963721
 30
0.0
 40
35.00000000000009
 50
81.131000091
 51
98.868999909
  0
ARC
  5
12D
  8
DV3_0
  6
CONTINUOUS
 62
     7
 10
239.6111724804
 20
186.9441748563
 30
0.0
 40
69.99999999999996
 50
289.6156334095
 51
310.3843665905
  0
ARC
  5
12E
  8
DV3_0
  6
CONTINUOUS
 62
     7
 10
290.3611724804
 20
99.0425963721
 30
0.0
 40
35.00000000000004
 50
141.131000091
 51
144.1465329365
  0
ARC
  5
12F
  8
DV3_0
  6
CONTINUOUS
 62
     7
 10
239.6111724804
 20
11.141017888
 30
0.0
 40
70.0000000000001
 50
49.6156334095
 51
70.3843665905
  0
ARC
  5
130
  8
DV3_0
  6
CONTINUOUS
 62
     7
 10
290.3611724804
 20
99.0425963721
 30
0.0
 40
35.00000000000009
 50
261.131000091
 51
278.868999909
  0
ARC
  5
131
  8
DV3_0
  6
CONTINUOUS
 62
     7
 10
290.3611724804
 20
99.0425963721
 30
0.0
 40
35.00000000000004
 50
321.131000091
 51
324.1465329365
  0
ARC
  5
132
  8
DV3_0
  6
CONTINUOUS
 62
     7
 10
290.3611724804
 20
99.0425963721
 30
0.0
 40
33.99999999999998
 50
37.0923019875
 51
38.3984822873
  0
ARC
  5
133
  8
DV3_0
  6
CONTINUOUS
 62
     7
 10
341.1111724804
 20
11.141017888
 30
0.0
 40
70.99999999999997
 50
109.8458678297
 51
130.1541321703
  0
ARC
  5
134
  8
DV3_0
  6
CONTINUOUS
 62
     7
 10
290.3611724804
 20
99.0425963721
 30
0.0
 40
34.00000000000002
 50
261.6015177127
 51
278.3984822873
  0
ARC
  5
135
  8
DV3_0
  6
CONTINUOUS
 62
     7
 10
239.6111724804
 20
11.141017888
 30
0.0
 40
71.0000000000001
 50
49.8458678297
 51
70.1541321703
  0
ARC
  5
136
  8
DV3_0
  6
CONTINUOUS
 62
     7
 10
290.3611724804
 20
99.0425963721
 30
0.0
 40
33.99999999999998
 50
217.0923019875
 51
218.3984822873
  0
ARC
  5
137
  8
DV3_0
  6
CONTINUOUS
 62
     7
 10
290.3611724804
 20
99.0425963721
 30
0.0
 40
34.00000000000001
 50
141.6015177127
 51
142.8904598926
  0
ARC
  5
138
  8
DV3_0
  6
CONTINUOUS
 62
     7
 10
239.6111724804
 20
186.9441748563
 30
0.0
 40
70.99999999999994
 50
289.8458678297
 51
310.1541321703
  0
ARC
  5
139
  8
DV3_0
  6
CONTINUOUS
 62
     7
 10
290.3611724804
 20
99.0425963721
 30
0.0
 40
34.00000000000001
 50
81.6015177127
 51
98.3984822873
  0
ARC
  5
13A
  8
DV3_0
  6
CONTINUOUS
 62
     7
 10
341.1111724804
 20
186.9441748563
 30
0.0
 40
71.0000000000001
 50
229.8458678297
 51
250.1541321703
  0
ARC
  5
13B
  8
DV3_0
  6
CONTINUOUS
 62
     7
 10
299.3845491314
 20
82.5229539703
 30
0.0
 40
5.751590578678778
 50
258.4075227848
 51
269.8323907466
  0
ARC
  5
13C
  8
DV3_0
  6
CONTINUOUS
 62
     7
 10
281.3377958295
 20
82.5229539703
 30
0.0
 40
5.75159057867875
 50
270.1676092534
 51
281.8306656687
  0
ARC
  5
13D
  8
DV3_0
  6
CONTINUOUS
 62
     7
 10
290.3611724804
 20
99.0425963721
 30
0.0
 40
23.5
 50
53.9506709464
 51
126.0493290536
  0
ARC
  5
13E
  8
DV3_0
  6
CONTINUOUS
 62
     7
 10
290.3611724804
 20
99.0425963721
 30
0.0
 40
23.5
 50
233.9506709464
 51
306.0493290536
  0
ARC
  5
13F
  8
DV3_0
  6
CONTINUOUS
 62
     7
 10
290.3611724804
 20
99.0425963721
 30
0.0
 40
22.75
 50
56.6330058592
 51
123.3669941408
  0
ARC
  5
140
  8
DV3_0
  6
CONTINUOUS
 62
     7
 10
290.3611724804
 20
99.0425963721
 30
0.0
 40
22.75
 50
236.6330058592
 51
303.3669941408
  0
LINE
  5
141
  8
DV3_0
  6
CONTINUOUS
 62
     7
 10
291.7473396274
 20
78.4425963721
 30
0.0
 11
291.9465798684
 21
78.4425963721
 31
0.0
  0
LINE
  5
142
  8
DV3_0
  6
CONTINUOUS
 62
     7
 10
288.0162681053
 20
78.4425963721
 30
0.0
 11
288.0162681053
 21
79.0425963721
 31
0.0
  0
LINE
  5
143
  8
DV3_0
  6
CONTINUOUS
 62
     7
 10
288.5254376101
 20
78.4425963721
 30
0.0
 11
288.0162681053
 21
78.4425963721
 31
0.0
  0
LINE
  5
144
  8
DV3_0
  6
CONTINUOUS
 62
     7
 10
288.0162681053
 20
78.4425963721
 30
0.0
 11
287.3572426926
 21
78.4425963721
 31
0.0
  0
LINE
  5
145
  8
DV3_0
  6
CONTINUOUS
 62
     7
 10
287.3572426926
 20
78.4425963721
 30
0.0
 11
285.3052385009
 21
78.4425963721
 31
0.0
  0
LINE
  5
146
  8
DV3_0
  6
CONTINUOUS
 62
     7
 10
287.3572426926
 20
78.4425963721
 30
0.0
 11
287.3572426926
 21
79.0425963721
 31
0.0
  0
LINE
  5
147
  8
DV3_0
  6
CONTINUOUS
 62
     7
 10
285.3052385009
 20
78.4425963721
 30
0.0
 11
285.3052385009
 21
79.0425963721
 31
0.0
  0
LINE
  5
148
  8
DV3_0
  6
CONTINUOUS
 62
     7
 10
293.8827863133
 20
78.4425963721
 30
0.0
 11
295.3098232533
 21
78.4425963721
 31
0.0
  0
LINE
  5
149
  8
DV3_0
  6
CONTINUOUS
 62
     7
 10
295.3098232533
 20
78.4425963721
 30
0.0
 11
295.3098232533
 21
79.0425963721
 31
0.0
  0
LINE
  5
14A
  8
DV3_0
  6
CONTINUOUS
 62
     7
 10
291.9465798684
 20
78.4425963721
 30
0.0
 11
293.8827863133
 21
78.4425963721
 31
0.0
  0
LINE
  5
14B
  8
DV3_0
  6
CONTINUOUS
 62
     7
 10
291.9465798684
 20
78.4425963721
 30
0.0
 11
291.9465798684
 21
79.0425963721
 31
0.0
  0
LINE
  5
14C
  8
DV3_0
  6
CONTINUOUS
 62
     7
 10
293.8827863133
 20
78.4425963721
 30
0.0
 11
293.8827863133
 21
79.0425963721
 31
0.0
  0
LINE
  5
14D
  8
DV3_0
  6
CONTINUOUS
 62
     7
 10
326.4972022462
 20
78.5425963721
 30
0.0
 11
326.8611724804
 21
79.5425963721
 31
0.0
  0
LINE
  5
14E
  8
DV3_0
  6
CONTINUOUS
 62
     7
 10
326.8611724804
 20
118.5425963721
 30
0.0
 11
326.4972022462
 21
119.5425963721
 31
0.0
  0
LINE
  5
14F
  8
DV3_0
  6
CONTINUOUS
 62
     7
 10
254.2251427147
 20
119.5425963721
 30
0.0
 11
253.8611724804
 21
118.5425963721
 31
0.0
  0
LINE
  5
150
  8
DV3_0
  6
CONTINUOUS
 62
     7
 10
253.8611724804
 20
79.5425963721
 30
0.0
 11
254.2251427147
 21
78.5425963721
 31
0.0
  0
LINE
  5
151
  8
DV3_0
  6
CONTINUOUS
 62
     7
 10
316.4071278318
 20
119.5425963721
 30
0.0
 11
315.8611724804
 21
118.0425963721
 31
0.0
  0
LINE
  5
152
  8
DV3_0
  6
CONTINUOUS
 62
     7
 10
315.8611724804
 20
80.0425963721
 30
0.0
 11
316.4071278318
 21
78.5425963721
 31
0.0
  0
LINE
  5
153
  8
DV3_0
  6
CONTINUOUS
 62
     7
 10
264.315217129
 20
78.5425963721
 30
0.0
 11
264.8611724804
 21
80.0425963721
 31
0.0
  0
LINE
  5
154
  8
DV3_0
  6
CONTINUOUS
 62
     7
 10
264.8611724804
 20
118.0425963721
 30
0.0
 11
264.315217129
 21
119.5425963721
 31
0.0
  0
LINE
  5
155
  8
DV3_0
  6
CONTINUOUS
 62
     7
 10
300.8611724804
 20
80.0425963721
 30
0.0
 11
315.8611724804
 21
80.0425963721
 31
0.0
  0
LINE
  5
156
  8
DV3_0
  6
CONTINUOUS
 62
     7
 10
315.8611724804
 20
118.0425963721
 30
0.0
 11
300.8611724804
 21
118.0425963721
 31
0.0
  0
LINE
  5
157
  8
DV3_0
  6
CONTINUOUS
 62
     7
 10
264.8611724804
 20
80.0425963721
 30
0.0
 11
279.8611724804
 21
80.0425963721
 31
0.0
  0
LINE
  5
158
  8
DV3_0
  6
CONTINUOUS
 62
     7
 10
279.8611724804
 20
118.0425963721
 30
0.0
 11
264.8611724804
 21
118.0425963721
 31
0.0
  0
ENDBLK
  5
15A
  8
0
  0
BLOCK
  8
0
  2
SE3
 70
     0
 10
0.0
 20
0.0
 30
0.0
  3
SE3
  1

  0
LINE
  5
15E
  8
DV4_0
  6
CONTINUOUS
 62
     7
 10
310.3409547034
 20
237.7799804064
 30
0.0
 11
310.3409547034
 21
254.0625062357
 31
0.0
  0
CIRCLE
  5
15F
  8
DV4_0
  6
CONTINUOUS
 62
     7
 10
290.3409547034
 20
225.6556247535
 30
0.0
 40
19.5
  0
LINE
  5
160
  8
DV4_0
  6
CONTINUOUS
 62
     7
 10
269.8409547034
 20
213.8199442351
 30
0.0
 11
290.3409547034
 21
201.9842637167
 31
0.0
  0
LINE
  5
161
  8
DV4_0
  6
CONTINUOUS
 62
     7
 10
269.8409547034
 20
237.4913052719
 30
0.0
 11
269.8409547034
 21
213.8199442351
 31
0.0
  0
LINE
  5
162
  8
DV4_0
  6
CONTINUOUS
 62
     7
 10
290.3409547034
 20
201.9842637167
 30
0.0
 11
310.8409547034
 21
213.8199442351
 31
0.0
  0
LINE
  5
163
  8
DV4_0
  6
CONTINUOUS
 62
     7
 10
310.8409547034
 20
213.8199442351
 30
0.0
 11
310.8409547034
 21
237.4913052719
 31
0.0
  0
LINE
  5
164
  8
DV4_0
  6
CONTINUOUS
 62
     7
 10
310.8409547034
 20
237.4913052719
 30
0.0
 11
290.3409547034
 21
249.3269857902
 31
0.0
  0
LINE
  5
165
  8
DV4_0
  6
CONTINUOUS
 62
     7
 10
290.3409547034
 20
249.3269857902
 30
0.0
 11
269.8409547034
 21
237.4913052719
 31
0.0
  0
POLYLINE
  5
166
  8
DV4_0
  6
CONTINUOUS
 62
     7
 66
     1
 10
0.0
 20
0.0
 30
0.0
  0
VERTEX
  5
44D
  8
DV4_0
  6
CONTINUOUS
 62
     7
 10
277.7234010371
 20
324.4556247535
 30
0.0
  0
VERTEX
  5
44E
  8
DV4_0
  6
CONTINUOUS
 62
     7
 10
277.729511271
 20
324.6334667805
 30
0.0
  0
VERTEX
  5
44F
  8
DV4_0
  6
CONTINUOUS
 62
     7
 10
277.7475224562
 20
324.8094591899
 30
0.0
  0
VERTEX
  5
450
  8
DV4_0
  6
CONTINUOUS
 62
     7
 10
277.7769553181
 20
324.9832539962
 30
0.0
  0
VERTEX
  5
451
  8
DV4_0
  6
CONTINUOUS
 62
     7
 10
277.8173305822
 20
325.1545032139
 30
0.0
  0
VERTEX
  5
452
  8
DV4_0
  6
CONTINUOUS
 62
     7
 10
277.8681689736
 20
325.3228588576
 30
0.0
  0
VERTEX
  5
453
  8
DV4_0
  6
CONTINUOUS
 62
     7
 10
277.9289912179
 20
325.4879729418
 30
0.0
  0
VERTEX
  5
454
  8
DV4_0
  6
CONTINUOUS
 62
     7
 10
277.9993180404
 20
325.6494974811
 30
0.0
  0
VERTEX
  5
455
  8
DV4_0
  6
CONTINUOUS
 62
     7
 10
278.0786701664
 20
325.8070844901
 30
0.0
  0
VERTEX
  5
456
  8
DV4_0
  6
CONTINUOUS
 62
     7
 10
278.1665683214
 20
325.9603859832
 30
0.0
  0
VERTEX
  5
457
  8
DV4_0
  6
CONTINUOUS
 62
     7
 10
278.2625332306
 20
326.109053975
 30
0.0
  0
VERTEX
  5
458
  8
DV4_0
  6
CONTINUOUS
 62
     7
 10
278.3659351954
 20
326.2526848354
 30
0.0
  0
VERTEX
  5
459
  8
DV4_0
  6
CONTINUOUS
 62
     7
 10
278.4754342889
 20
326.390787319
 30
0.0
  0
VERTEX
  5
45A
  8
DV4_0
  6
CONTINUOUS
 62
     7
 10
278.5905078688
 20
326.5234449061
 30
0.0
  0
VERTEX
  5
45B
  8
DV4_0
  6
CONTINUOUS
 62
     7
 10
278.7107883717
 20
326.6508179005
 30
0.0
  0
VERTEX
  5
45C
  8
DV4_0
  6
CONTINUOUS
 62
     7
 10
278.8359082341
 20
326.773066606
 30
0.0
  0
VERTEX
  5
45D
  8
DV4_0
  6
CONTINUOUS
 62
     7
 10
278.9654998926
 20
326.8903513264
 30
0.0
  0
VERTEX
  5
45E
  8
DV4_0
  6
CONTINUOUS
 62
     7
 10
279.0991957836
 20
327.0028323654
 30
0.0
  0
VERTEX
  5
45F
  8
DV4_0
  6
CONTINUOUS
 62
     7
 10
279.2366283438
 20
327.1106700267
 30
0.0
  0
VERTEX
  5
460
  8
DV4_0
  6
CONTINUOUS
 62
     7
 10
279.3774300096
 20
327.2140246143
 30
0.0
  0
VERTEX
  5
461
  8
DV4_0
  6
CONTINUOUS
 62
     7
 10
279.5212332175
 20
327.3130564319
 30
0.0
  0
VERTEX
  5
462
  8
DV4_0
  6
CONTINUOUS
 62
     7
 10
279.6676704041
 20
327.4079257831
 30
0.0
  0
VERTEX
  5
463
  8
DV4_0
  6
CONTINUOUS
 62
     7
 10
279.8163482203
 20
327.4988369273
 30
0.0
  0
VERTEX
  5
464
  8
DV4_0
  6
CONTINUOUS
 62
     7
 10
279.9670492593
 20
327.5859601871
 30
0.0
  0
VERTEX
  5
465
  8
DV4_0
  6
CONTINUOUS
 62
     7
 10
280.1196698714
 20
327.6694049623
 30
0.0
  0
VERTEX
  5
466
  8
DV4_0
  6
CONTINUOUS
 62
     7
 10
280.2741064067
 20
327.7492806523
 30
0.0
  0
VERTEX
  5
467
  8
DV4_0
  6
CONTINUOUS
 62
     7
 10
280.4302552155
 20
327.8256966568
 30
0.0
  0
VERTEX
  5
468
  8
DV4_0
  6
CONTINUOUS
 62
     7
 10
280.588012648
 20
327.8987623751
 30
0.0
  0
VERTEX
  5
469
  8
DV4_0
  6
CONTINUOUS
 62
     7
 10
280.7472750543
 20
327.968587207
 30
0.0
  0
VERTEX
  5
46A
  8
DV4_0
  6
CONTINUOUS
 62
     7
 10
280.9079387848
 20
328.035280552
 30
0.0
  0
VERTEX
  5
46B
  8
DV4_0
  6
CONTINUOUS
 62
     7
 10
281.0699001895
 20
328.0989518095
 30
0.0
  0
VERTEX
  5
46C
  8
DV4_0
  6
CONTINUOUS
 62
     7
 10
281.2330556188
 20
328.1597103792
 30
0.0
  0
VERTEX
  5
46D
  8
DV4_0
  6
CONTINUOUS
 62
     7
 10
281.3973014227
 20
328.2176656606
 30
0.0
  0
VERTEX
  5
46E
  8
DV4_0
  6
CONTINUOUS
 62
     7
 10
281.5625339516
 20
328.2729270532
 30
0.0
  0
VERTEX
  5
46F
  8
DV4_0
  6
CONTINUOUS
 62
     7
 10
281.7286495556
 20
328.3256039566
 30
0.0
  0
VERTEX
  5
470
  8
DV4_0
  6
CONTINUOUS
 62
     7
 10
281.8955445849
 20
328.3758057704
 30
0.0
  0
VERTEX
  5
471
  8
DV4_0
  6
CONTINUOUS
 62
     7
 10
282.0631153898
 20
328.4236418941
 30
0.0
  0
VERTEX
  5
472
  8
DV4_0
  6
CONTINUOUS
 62
     7
 10
282.2312583204
 20
328.4692217273
 30
0.0
  0
VERTEX
  5
473
  8
DV4_0
  6
CONTINUOUS
 62
     7
 10
282.399869727
 20
328.5126546694
 30
0.0
  0
VERTEX
  5
474
  8
DV4_0
  6
CONTINUOUS
 62
     7
 10
282.5688459597
 20
328.5540501201
 30
0.0
  0
VERTEX
  5
475
  8
DV4_0
  6
CONTINUOUS
 62
     7
 10
282.7380833688
 20
328.5935174789
 30
0.0
  0
VERTEX
  5
476
  8
DV4_0
  6
CONTINUOUS
 62
     7
 10
282.9074783044
 20
328.6311661454
 30
0.0
  0
VERTEX
  5
477
  8
DV4_0
  6
CONTINUOUS
 62
     7
 10
283.0769271169
 20
328.667105519
 30
0.0
  0
VERTEX
  5
478
  8
DV4_0
  6
CONTINUOUS
 62
     7
 10
283.2465034315
 20
328.701421566
 30
0.0
  0
VERTEX
  5
479
  8
DV4_0
  6
CONTINUOUS
 62
     7
 10
283.4163454846
 20
328.7341583134
 30
0.0
  0
VERTEX
  5
47A
  8
DV4_0
  6
CONTINUOUS
 62
     7
 10
283.5864465427
 20
328.7653622525
 30
0.0
  0
VERTEX
  5
47B
  8
DV4_0
  6
CONTINUOUS
 62
     7
 10
283.7567998722
 20
328.7950798745
 30
0.0
  0
VERTEX
  5
47C
  8
DV4_0
  6
CONTINUOUS
 62
     7
 10
283.9273987396
 20
328.8233576708
 30
0.0
  0
VERTEX
  5
47D
  8
DV4_0
  6
CONTINUOUS
 62
     7
 10
284.0982364114
 20
328.8502421324
 30
0.0
  0
VERTEX
  5
47E
  8
DV4_0
  6
CONTINUOUS
 62
     7
 10
284.2693061541
 20
328.8757797508
 30
0.0
  0
VERTEX
  5
47F
  8
DV4_0
  6
CONTINUOUS
 62
     7
 10
284.4406012342
 20
328.9000170171
 30
0.0
  0
VERTEX
  5
480
  8
DV4_0
  6
CONTINUOUS
 62
     7
 10
284.6121149181
 20
328.9230004225
 30
0.0
  0
VERTEX
  5
481
  8
DV4_0
  6
CONTINUOUS
 62
     7
 10
284.7838404723
 20
328.9447764584
 30
0.0
  0
VERTEX
  5
482
  8
DV4_0
  6
CONTINUOUS
 62
     7
 10
284.9557711634
 20
328.9653916159
 30
0.0
  0
VERTEX
  5
483
  8
DV4_0
  6
CONTINUOUS
 62
     7
 10
285.1279002577
 20
328.9848923863
 30
0.0
  0
VERTEX
  5
484
  8
DV4_0
  6
CONTINUOUS
 62
     7
 10
285.3002210218
 20
329.0033252608
 30
0.0
  0
VERTEX
  5
485
  8
DV4_0
  6
CONTINUOUS
 62
     7
 10
285.4727267221
 20
329.0207367307
 30
0.0
  0
VERTEX
  5
486
  8
DV4_0
  6
CONTINUOUS
 62
     7
 10
285.6454106252
 20
329.0371732872
 30
0.0
  0
VERTEX
  5
487
  8
DV4_0
  6
CONTINUOUS
 62
     7
 10
285.8182659974
 20
329.0526814215
 30
0.0
  0
VERTEX
  5
488
  8
DV4_0
  6
CONTINUOUS
 62
     7
 10
285.9912861054
 20
329.067307625
 30
0.0
  0
VERTEX
  5
489
  8
DV4_0
  6
CONTINUOUS
 62
     7
 10
286.1644642155
 20
329.0810983888
 30
0.0
  0
VERTEX
  5
48A
  8
DV4_0
  6
CONTINUOUS
 62
     7
 10
286.3377935943
 20
329.0941002042
 30
0.0
  0
VERTEX
  5
48B
  8
DV4_0
  6
CONTINUOUS
 62
     7
 10
286.5112675081
 20
329.1063595624
 30
0.0
  0
VERTEX
  5
48C
  8
DV4_0
  6
CONTINUOUS
 62
     7
 10
286.6848792237
 20
329.1179229547
 30
0.0
  0
VERTEX
  5
48D
  8
DV4_0
  6
CONTINUOUS
 62
     7
 10
286.8586206718
 20
329.1288180798
 30
0.0
  0
VERTEX
  5
48E
  8
DV4_0
  6
CONTINUOUS
 62
     7
 10
287.0324834617
 20
329.1390505438
 30
0.0
  0
VERTEX
  5
48F
  8
DV4_0
  6
CONTINUOUS
 62
     7
 10
287.2064603771
 20
329.148633699
 30
0.0
  0
VERTEX
  5
490
  8
DV4_0
  6
CONTINUOUS
 62
     7
 10
287.380544202
 20
329.1575808975
 30
0.0
  0
VERTEX
  5
491
  8
DV4_0
  6
CONTINUOUS
 62
     7
 10
287.5547277199
 20
329.1659054918
 30
0.0
  0
VERTEX
  5
492
  8
DV4_0
  6
CONTINUOUS
 62
     7
 10
287.7290037148
 20
329.173620834
 30
0.0
  0
VERTEX
  5
493
  8
DV4_0
  6
CONTINUOUS
 62
     7
 10
287.9033649704
 20
329.1807402763
 30
0.0
  0
VERTEX
  5
494
  8
DV4_0
  6
CONTINUOUS
 62
     7
 10
288.0778042705
 20
329.1872771711
 30
0.0
  0
VERTEX
  5
495
  8
DV4_0
  6
CONTINUOUS
 62
     7
 10
288.2523143988
 20
329.1932448706
 30
0.0
  0
VERTEX
  5
496
  8
DV4_0
  6
CONTINUOUS
 62
     7
 10
288.4268881392
 20
329.1986567271
 30
0.0
  0
VERTEX
  5
497
  8
DV4_0
  6
CONTINUOUS
 62
     7
 10
288.6015182753
 20
329.2035260928
 30
0.0
  0
VERTEX
  5
498
  8
DV4_0
  6
CONTINUOUS
 62
     7
 10
288.7761975911
 20
329.2078663199
 30
0.0
  0
VERTEX
  5
499
  8
DV4_0
  6
CONTINUOUS
 62
     7
 10
288.9509188703
 20
329.2116907608
 30
0.0
  0
VERTEX
  5
49A
  8
DV4_0
  6
CONTINUOUS
 62
     7
 10
289.1256748966
 20
329.2150127676
 30
0.0
  0
VERTEX
  5
49B
  8
DV4_0
  6
CONTINUOUS
 62
     7
 10
289.3004584538
 20
329.2178456927
 30
0.0
  0
VERTEX
  5
49C
  8
DV4_0
  6
CONTINUOUS
 62
     7
 10
289.4752623258
 20
329.2202028882
 30
0.0
  0
VERTEX
  5
49D
  8
DV4_0
  6
CONTINUOUS
 62
     7
 10
289.6500792963
 20
329.2220977065
 30
0.0
  0
VERTEX
  5
49E
  8
DV4_0
  6
CONTINUOUS
 62
     7
 10
289.824902149
 20
329.2235434998
 30
0.0
  0
VERTEX
  5
49F
  8
DV4_0
  6
CONTINUOUS
 62
     7
 10
289.9997236678
 20
329.2245536204
 30
0.0
  0
VERTEX
  5
4A0
  8
DV4_0
  6
CONTINUOUS
 62
     7
 10
290.1745366365
 20
329.2251414205
 30
0.0
  0
VERTEX
  5
4A1
  8
DV4_0
  6
CONTINUOUS
 62
     7
 10
290.3493338387
 20
329.2253202524
 30
0.0
  0
VERTEX
  5
4A2
  8
DV4_0
  6
CONTINUOUS
 62
     7
 10
290.5240941756
 20
329.2251000373
 30
0.0
  0
VERTEX
  5
4A3
  8
DV4_0
  6
CONTINUOUS
 62
     7
 10
290.6988006849
 20
329.2244728108
 30
0.0
  0
VERTEX
  5
4A4
  8
DV4_0
  6
CONTINUOUS
 62
     7
 10
290.8734523557
 20
329.2234250964
 30
0.0
  0
VERTEX
  5
4A5
  8
DV4_0
  6
CONTINUOUS
 62
     7
 10
291.0480481773
 20
329.2219434176
 30
0.0
  0
VERTEX
  5
4A6
  8
DV4_0
  6
CONTINUOUS
 62
     7
 10
291.2225871388
 20
329.2200142978
 30
0.0
  0
VERTEX
  5
4A7
  8
DV4_0
  6
CONTINUOUS
 62
     7
 10
291.3970682294
 20
329.2176242606
 30
0.0
  0
VERTEX
  5
4A8
  8
DV4_0
  6
CONTINUOUS
 62
     7
 10
291.5714904381
 20
329.2147598295
 30
0.0
  0
VERTEX
  5
4A9
  8
DV4_0
  6
CONTINUOUS
 62
     7
 10
291.7458527541
 20
329.2114075279
 30
0.0
  0
VERTEX
  5
4AA
  8
DV4_0
  6
CONTINUOUS
 62
     7
 10
291.9201541666
 20
329.2075538794
 30
0.0
  0
VERTEX
  5
4AB
  8
DV4_0
  6
CONTINUOUS
 62
     7
 10
292.0943936647
 20
329.2031854075
 30
0.0
  0
VERTEX
  5
4AC
  8
DV4_0
  6
CONTINUOUS
 62
     7
 10
292.2685702376
 20
329.1982886356
 30
0.0
  0
VERTEX
  5
4AD
  8
DV4_0
  6
CONTINUOUS
 62
     7
 10
292.4426828744
 20
329.1928500874
 30
0.0
  0
VERTEX
  5
4AE
  8
DV4_0
  6
CONTINUOUS
 62
     7
 10
292.6167305643
 20
329.1868562862
 30
0.0
  0
VERTEX
  5
4AF
  8
DV4_0
  6
CONTINUOUS
 62
     7
 10
292.7907122964
 20
329.1802937555
 30
0.0
  0
VERTEX
  5
4B0
  8
DV4_0
  6
CONTINUOUS
 62
     7
 10
292.9646270598
 20
329.173149019
 30
0.0
  0
VERTEX
  5
4B1
  8
DV4_0
  6
CONTINUOUS
 62
     7
 10
293.1384738438
 20
329.1654086
 30
0.0
  0
VERTEX
  5
4B2
  8
DV4_0
  6
CONTINUOUS
 62
     7
 10
293.3122516374
 20
329.1570590221
 30
0.0
  0
VERTEX
  5
4B3
  8
DV4_0
  6
CONTINUOUS
 62
     7
 10
293.4859594298
 20
329.1480868087
 30
0.0
  0
VERTEX
  5
4B4
  8
DV4_0
  6
CONTINUOUS
 62
     7
 10
293.6595962102
 20
329.1384784835
 30
0.0
  0
VERTEX
  5
4B5
  8
DV4_0
  6
CONTINUOUS
 62
     7
 10
293.8331609677
 20
329.1282205698
 30
0.0
  0
VERTEX
  5
4B6
  8
DV4_0
  6
CONTINUOUS
 62
     7
 10
294.0066526914
 20
329.1172995912
 30
0.0
  0
VERTEX
  5
4B7
  8
DV4_0
  6
CONTINUOUS
 62
     7
 10
294.1800745809
 20
329.1057116238
 30
0.0
  0
VERTEX
  5
4B8
  8
DV4_0
  6
CONTINUOUS
 62
     7
 10
294.3534273146
 20
329.093428826
 30
0.0
  0
VERTEX
  5
4B9
  8
DV4_0
  6
CONTINUOUS
 62
     7
 10
294.5267061002
 20
329.0804018447
 30
0.0
  0
VERTEX
  5
4BA
  8
DV4_0
  6
CONTINUOUS
 62
     7
 10
294.6999061452
 20
329.0665813268
 30
0.0
  0
VERTEX
  5
4BB
  8
DV4_0
  6
CONTINUOUS
 62
     7
 10
294.8730226571
 20
329.0519179192
 30
0.0
  0
VERTEX
  5
4BC
  8
DV4_0
  6
CONTINUOUS
 62
     7
 10
295.0460508436
 20
329.0363622687
 30
0.0
  0
VERTEX
  5
4BD
  8
DV4_0
  6
CONTINUOUS
 62
     7
 10
295.2189859121
 20
329.0198650222
 30
0.0
  0
VERTEX
  5
4BE
  8
DV4_0
  6
CONTINUOUS
 62
     7
 10
295.3918230704
 20
329.0023768266
 30
0.0
  0
VERTEX
  5
4BF
  8
DV4_0
  6
CONTINUOUS
 62
     7
 10
295.5645575258
 20
328.9838483288
 30
0.0
  0
VERTEX
  5
4C0
  8
DV4_0
  6
CONTINUOUS
 62
     7
 10
295.737184486
 20
328.9642301756
 30
0.0
  0
VERTEX
  5
4C1
  8
DV4_0
  6
CONTINUOUS
 62
     7
 10
295.9096991586
 20
328.943473014
 30
0.0
  0
VERTEX
  5
4C2
  8
DV4_0
  6
CONTINUOUS
 62
     7
 10
296.082096751
 20
328.9215274908
 30
0.0
  0
VERTEX
  5
4C3
  8
DV4_0
  6
CONTINUOUS
 62
     7
 10
296.254372471
 20
328.8983442529
 30
0.0
  0
VERTEX
  5
4C4
  8
DV4_0
  6
CONTINUOUS
 62
     7
 10
296.426521526
 20
328.8738739472
 30
0.0
  0
VERTEX
  5
4C5
  8
DV4_0
  6
CONTINUOUS
 62
     7
 10
296.5985391236
 20
328.8480672205
 30
0.0
  0
VERTEX
  5
4C6
  8
DV4_0
  6
CONTINUOUS
 62
     7
 10
296.7704204714
 20
328.8208747198
 30
0.0
  0
VERTEX
  5
4C7
  8
DV4_0
  6
CONTINUOUS
 62
     7
 10
296.9421607769
 20
328.7922470919
 30
0.0
  0
VERTEX
  5
4C8
  8
DV4_0
  6
CONTINUOUS
 62
     7
 10
297.1137552477
 20
328.7621349837
 30
0.0
  0
VERTEX
  5
4C9
  8
DV4_0
  6
CONTINUOUS
 62
     7
 10
297.2851990914
 20
328.7304890421
 30
0.0
  0
VERTEX
  5
4CA
  8
DV4_0
  6
CONTINUOUS
 62
     7
 10
297.4564875155
 20
328.697259914
 30
0.0
  0
VERTEX
  5
4CB
  8
DV4_0
  6
CONTINUOUS
 62
     7
 10
297.6276157277
 20
328.6623982462
 30
0.0
  0
VERTEX
  5
4CC
  8
DV4_0
  6
CONTINUOUS
 62
     7
 10
297.7985393303
 20
328.6258952589
 30
0.0
  0
VERTEX
  5
4CD
  8
DV4_0
  6
CONTINUOUS
 62
     7
 10
297.9691567591
 20
328.5877026506
 30
0.0
  0
VERTEX
  5
4CE
  8
DV4_0
  6
CONTINUOUS
 62
     7
 10
298.1393774718
 20
328.5477117855
 30
0.0
  0
VERTEX
  5
4CF
  8
DV4_0
  6
CONTINUOUS
 62
     7
 10
298.3091109258
 20
328.5058140282
 30
0.0
  0
VERTEX
  5
4D0
  8
DV4_0
  6
CONTINUOUS
 62
     7
 10
298.4782665787
 20
328.4619007429
 30
0.0
  0
VERTEX
  5
4D1
  8
DV4_0
  6
CONTINUOUS
 62
     7
 10
298.6467538879
 20
328.4158632941
 30
0.0
  0
VERTEX
  5
4D2
  8
DV4_0
  6
CONTINUOUS
 62
     7
 10
298.8144823111
 20
328.3675930461
 30
0.0
  0
VERTEX
  5
4D3
  8
DV4_0
  6
CONTINUOUS
 62
     7
 10
298.9813613057
 20
328.3169813633
 30
0.0
  0
VERTEX
  5
4D4
  8
DV4_0
  6
CONTINUOUS
 62
     7
 10
299.1473003292
 20
328.2639196101
 30
0.0
  0
VERTEX
  5
4D5
  8
DV4_0
  6
CONTINUOUS
 62
     7
 10
299.3122088392
 20
328.2082991509
 30
0.0
  0
VERTEX
  5
4D6
  8
DV4_0
  6
CONTINUOUS
 62
     7
 10
299.4759962933
 20
328.15001135
 30
0.0
  0
VERTEX
  5
4D7
  8
DV4_0
  6
CONTINUOUS
 62
     7
 10
299.6385721489
 20
328.0889475718
 30
0.0
  0
VERTEX
  5
4D8
  8
DV4_0
  6
CONTINUOUS
 62
     7
 10
299.7998458635
 20
328.0249991807
 30
0.0
  0
VERTEX
  5
4D9
  8
DV4_0
  6
CONTINUOUS
 62
     7
 10
299.9597268948
 20
327.9580575411
 30
0.0
  0
VERTEX
  5
4DA
  8
DV4_0
  6
CONTINUOUS
 62
     7
 10
300.1181247001
 20
327.8880140173
 30
0.0
  0
VERTEX
  5
4DB
  8
DV4_0
  6
CONTINUOUS
 62
     7
 10
300.2749487371
 20
327.8147599737
 30
0.0
  0
VERTEX
  5
4DC
  8
DV4_0
  6
CONTINUOUS
 62
     7
 10
300.4301084633
 20
327.7381867748
 30
0.0
  0
VERTEX
  5
4DD
  8
DV4_0
  6
CONTINUOUS
 62
     7
 10
300.5835133362
 20
327.6581857848
 30
0.0
  0
VERTEX
  5
4DE
  8
DV4_0
  6
CONTINUOUS
 62
     7
 10
300.7350728133
 20
327.5746483681
 30
0.0
  0
VERTEX
  5
4DF
  8
DV4_0
  6
CONTINUOUS
 62
     7
 10
300.8846963522
 20
327.4874658892
 30
0.0
  0
VERTEX
  5
4E0
  8
DV4_0
  6
CONTINUOUS
 62
     7
 10
301.0322934103
 20
327.3965297124
 30
0.0
  0
VERTEX
  5
4E1
  8
DV4_0
  6
CONTINUOUS
 62
     7
 10
301.1777594791
 20
327.3015314414
 30
0.0
  0
VERTEX
  5
4E2
  8
DV4_0
  6
CONTINUOUS
 62
     7
 10
301.3207673384
 20
327.2021775465
 30
0.0
  0
VERTEX
  5
4E3
  8
DV4_0
  6
CONTINUOUS
 62
     7
 10
301.4608923787
 20
327.0983816918
 30
0.0
  0
VERTEX
  5
4E4
  8
DV4_0
  6
CONTINUOUS
 62
     7
 10
301.5977099907
 20
326.9900575418
 30
0.0
  0
VERTEX
  5
4E5
  8
DV4_0
  6
CONTINUOUS
 62
     7
 10
301.7307955647
 20
326.8771187605
 30
0.0
  0
VERTEX
  5
4E6
  8
DV4_0
  6
CONTINUOUS
 62
     7
 10
301.8597244912
 20
326.7594790122
 30
0.0
  0
VERTEX
  5
4E7
  8
DV4_0
  6
CONTINUOUS
 62
     7
 10
301.9840721609
 20
326.6370519612
 30
0.0
  0
VERTEX
  5
4E8
  8
DV4_0
  6
CONTINUOUS
 62
     7
 10
302.1034139641
 20
326.5097512716
 30
0.0
  0
VERTEX
  5
4E9
  8
DV4_0
  6
CONTINUOUS
 62
     7
 10
302.2173252915
 20
326.3774906078
 30
0.0
  0
VERTEX
  5
4EA
  8
DV4_0
  6
CONTINUOUS
 62
     7
 10
302.3253815334
 20
326.2401836338
 30
0.0
  0
VERTEX
  5
4EB
  8
DV4_0
  6
CONTINUOUS
 62
     7
 10
302.4270762162
 20
326.0977559856
 30
0.0
  0
VERTEX
  5
4EC
  8
DV4_0
  6
CONTINUOUS
 62
     7
 10
302.5214700432
 20
325.9503529261
 30
0.0
  0
VERTEX
  5
4ED
  8
DV4_0
  6
CONTINUOUS
 62
     7
 10
302.6079964815
 20
325.7983083899
 30
0.0
  0
VERTEX
  5
4EE
  8
DV4_0
  6
CONTINUOUS
 62
     7
 10
302.6861682507
 20
325.641962092
 30
0.0
  0
VERTEX
  5
4EF
  8
DV4_0
  6
CONTINUOUS
 62
     7
 10
302.7554980707
 20
325.4816537477
 30
0.0
  0
VERTEX
  5
4F0
  8
DV4_0
  6
CONTINUOUS
 62
     7
 10
302.8154986614
 20
325.317723072
 30
0.0
  0
VERTEX
  5
4F1
  8
DV4_0
  6
CONTINUOUS
 62
     7
 10
302.8656827427
 20
325.1505097802
 30
0.0
  0
VERTEX
  5
4F2
  8
DV4_0
  6
CONTINUOUS
 62
     7
 10
302.9055630343
 20
324.9803535873
 30
0.0
  0
VERTEX
  5
4F3
  8
DV4_0
  6
CONTINUOUS
 62
     7
 10
302.9346522561
 20
324.8075942084
 30
0.0
  0
VERTEX
  5
4F4
  8
DV4_0
  6
CONTINUOUS
 62
     7
 10
302.952463128
 20
324.6325713588
 30
0.0
  0
VERTEX
  5
4F5
  8
DV4_0
  6
CONTINUOUS
 62
     7
 10
302.9585083698
 20
324.4556247535
 30
0.0
  0
SEQEND
  5
4F6
  8
DV4_0
  6
CONTINUOUS
 62
     7
  0
POLYLINE
  5
167
  8
DV4_0
  6
CONTINUOUS
 62
     7
 66
     1
 10
0.0
 20
0.0
 30
0.0
  0
VERTEX
  5
4F7
  8
DV4_0
  6
CONTINUOUS
 62
     7
 10
312.3049210093
 20
324.4556247535
 30
0.0
  0
VERTEX
  5
4F8
  8
DV4_0
  6
CONTINUOUS
 62
     7
 10
312.3069968196
 20
324.6335107683
 30
0.0
  0
VERTEX
  5
4F9
  8
DV4_0
  6
CONTINUOUS
 62
     7
 10
312.3131282301
 20
324.8095465569
 30
0.0
  0
VERTEX
  5
4FA
  8
DV4_0
  6
CONTINUOUS
 62
     7
 10
312.3231712104
 20
324.9833837189
 30
0.0
  0
VERTEX
  5
4FB
  8
DV4_0
  6
CONTINUOUS
 62
     7
 10
312.3369817301
 20
325.154673854
 30
0.0
  0
VERTEX
  5
4FC
  8
DV4_0
  6
CONTINUOUS
 62
     7
 10
312.3544157588
 20
325.323068562
 30
0.0
  0
VERTEX
  5
4FD
  8
DV4_0
  6
CONTINUOUS
 62
     7
 10
312.3753292661
 20
325.4882194426
 30
0.0
  0
VERTEX
  5
4FE
  8
DV4_0
  6
CONTINUOUS
 62
     7
 10
312.3995782215
 20
325.6497780955
 30
0.0
  0
VERTEX
  5
4FF
  8
DV4_0
  6
CONTINUOUS
 62
     7
 10
312.4270185947
 20
325.8073961204
 30
0.0
  0
VERTEX
  5
500
  8
DV4_0
  6
CONTINUOUS
 62
     7
 10
312.4575063551
 20
325.960725117
 30
0.0
  0
VERTEX
  5
501
  8
DV4_0
  6
CONTINUOUS
 62
     7
 10
312.4908974725
 20
326.1094166851
 30
0.0
  0
VERTEX
  5
502
  8
DV4_0
  6
CONTINUOUS
 62
     7
 10
312.5269991767
 20
326.2530671622
 30
0.0
  0
VERTEX
  5
503
  8
DV4_0
  6
CONTINUOUS
 62
     7
 10
312.5653874374
 20
326.3911873245
 30
0.0
  0
VERTEX
  5
504
  8
DV4_0
  6
CONTINUOUS
 62
     7
 10
312.6059012683
 20
326.5238609793
 30
0.0
  0
VERTEX
  5
505
  8
DV4_0
  6
CONTINUOUS
 62
     7
 10
312.6484298049
 20
326.6512483902
 30
0.0
  0
VERTEX
  5
506
  8
DV4_0
  6
CONTINUOUS
 62
     7
 10
312.6928621824
 20
326.7735098209
 30
0.0
  0
VERTEX
  5
507
  8
DV4_0
  6
CONTINUOUS
 62
     7
 10
312.7390875362
 20
326.8908055353
 30
0.0
  0
VERTEX
  5
508
  8
DV4_0
  6
CONTINUOUS
 62
     7
 10
312.7869950016
 20
327.0032957968
 30
0.0
  0
VERTEX
  5
509
  8
DV4_0
  6
CONTINUOUS
 62
     7
 10
312.836473714
 20
327.1111408694
 30
0.0
  0
VERTEX
  5
50A
  8
DV4_0
  6
CONTINUOUS
 62
     7
 10
312.8874128087
 20
327.2145010166
 30
0.0
  0
VERTEX
  5
50B
  8
DV4_0
  6
CONTINUOUS
 62
     7
 10
312.939701421
 20
327.3135365021
 30
0.0
  0
VERTEX
  5
50C
  8
DV4_0
  6
CONTINUOUS
 62
     7
 10
312.9932286863
 20
327.4084075898
 30
0.0
  0
VERTEX
  5
50D
  8
DV4_0
  6
CONTINUOUS
 62
     7
 10
313.047876578
 20
327.499319063
 30
0.0
  0
VERTEX
  5
50E
  8
DV4_0
  6
CONTINUOUS
 62
     7
 10
313.1035782355
 20
327.586441821
 30
0.0
  0
VERTEX
  5
50F
  8
DV4_0
  6
CONTINUOUS
 62
     7
 10
313.1602995425
 20
327.6698853012
 30
0.0
  0
VERTEX
  5
510
  8
DV4_0
  6
CONTINUOUS
 62
     7
 10
313.2180063829
 20
327.7497589408
 30
0.0
  0
VERTEX
  5
511
  8
DV4_0
  6
CONTINUOUS
 62
     7
 10
313.2766646405
 20
327.8261721773
 30
0.0
  0
VERTEX
  5
512
  8
DV4_0
  6
CONTINUOUS
 62
     7
 10
313.3362401992
 20
327.899234448
 30
0.0
  0
VERTEX
  5
513
  8
DV4_0
  6
CONTINUOUS
 62
     7
 10
313.3966989428
 20
327.9690551902
 30
0.0
  0
VERTEX
  5
514
  8
DV4_0
  6
CONTINUOUS
 62
     7
 10
313.4580067553
 20
328.0357438412
 30
0.0
  0
VERTEX
  5
515
  8
DV4_0
  6
CONTINUOUS
 62
     7
 10
313.5201295204
 20
328.0994098384
 30
0.0
  0
VERTEX
  5
516
  8
DV4_0
  6
CONTINUOUS
 62
     7
 10
313.5830331219
 20
328.1601626191
 30
0.0
  0
VERTEX
  5
517
  8
DV4_0
  6
CONTINUOUS
 62
     7
 10
313.6466834438
 20
328.2181116207
 30
0.0
  0
VERTEX
  5
518
  8
DV4_0
  6
CONTINUOUS
 62
     7
 10
313.7110463699
 20
328.2733662804
 30
0.0
  0
VERTEX
  5
519
  8
DV4_0
  6
CONTINUOUS
 62
     7
 10
313.7760877841
 20
328.3260360357
 30
0.0
  0
VERTEX
  5
51A
  8
DV4_0
  6
CONTINUOUS
 62
     7
 10
313.8417735701
 20
328.3762303238
 30
0.0
  0
VERTEX
  5
51B
  8
DV4_0
  6
CONTINUOUS
 62
     7
 10
313.9080696119
 20
328.4240585822
 30
0.0
  0
VERTEX
  5
51C
  8
DV4_0
  6
CONTINUOUS
 62
     7
 10
313.9749417933
 20
328.469630248
 30
0.0
  0
VERTEX
  5
51D
  8
DV4_0
  6
CONTINUOUS
 62
     7
 10
314.0423559981
 20
328.5130547587
 30
0.0
  0
VERTEX
  5
51E
  8
DV4_0
  6
CONTINUOUS
 62
     7
 10
314.1102781102
 20
328.5544415516
 30
0.0
  0
VERTEX
  5
51F
  8
DV4_0
  6
CONTINUOUS
 62
     7
 10
314.1786740135
 20
328.5939000641
 30
0.0
  0
VERTEX
  5
520
  8
DV4_0
  6
CONTINUOUS
 62
     7
 10
314.2475095918
 20
328.6315397334
 30
0.0
  0
VERTEX
  5
521
  8
DV4_0
  6
CONTINUOUS
 62
     7
 10
314.3167507289
 20
328.667469997
 30
0.0
  0
VERTEX
  5
522
  8
DV4_0
  6
CONTINUOUS
 62
     7
 10
314.3864203197
 20
328.701776876
 30
0.0
  0
VERTEX
  5
523
  8
DV4_0
  6
CONTINUOUS
 62
     7
 10
314.4565627869
 20
328.7345044317
 30
0.0
  0
VERTEX
  5
524
  8
DV4_0
  6
CONTINUOUS
 62
     7
 10
314.5271763059
 20
328.7656991611
 30
0.0
  0
VERTEX
  5
525
  8
DV4_0
  6
CONTINUOUS
 62
     7
 10
314.5982590522
 20
328.7954075614
 30
0.0
  0
VERTEX
  5
526
  8
DV4_0
  6
CONTINUOUS
 62
     7
 10
314.6698092012
 20
328.8236761297
 30
0.0
  0
VERTEX
  5
527
  8
DV4_0
  6
CONTINUOUS
 62
     7
 10
314.7418249283
 20
328.8505513633
 30
0.0
  0
VERTEX
  5
528
  8
DV4_0
  6
CONTINUOUS
 62
     7
 10
314.8143044091
 20
328.8760797591
 30
0.0
  0
VERTEX
  5
529
  8
DV4_0
  6
CONTINUOUS
 62
     7
 10
314.8872458189
 20
328.9003078143
 30
0.0
  0
VERTEX
  5
52A
  8
DV4_0
  6
CONTINUOUS
 62
     7
 10
314.9606473333
 20
328.9232820262
 30
0.0
  0
VERTEX
  5
52B
  8
DV4_0
  6
CONTINUOUS
 62
     7
 10
315.0345071277
 20
328.9450488917
 30
0.0
  0
VERTEX
  5
52C
  8
DV4_0
  6
CONTINUOUS
 62
     7
 10
315.1088233775
 20
328.9656549081
 30
0.0
  0
VERTEX
  5
52D
  8
DV4_0
  6
CONTINUOUS
 62
     7
 10
315.1835942582
 20
328.9851465725
 30
0.0
  0
VERTEX
  5
52E
  8
DV4_0
  6
CONTINUOUS
 62
     7
 10
315.2588179452
 20
329.003570382
 30
0.0
  0
VERTEX
  5
52F
  8
DV4_0
  6
CONTINUOUS
 62
     7
 10
315.334492614
 20
329.0209728337
 30
0.0
  0
VERTEX
  5
530
  8
DV4_0
  6
CONTINUOUS
 62
     7
 10
315.4106164401
 20
329.0374004248
 30
0.0
  0
VERTEX
  5
531
  8
DV4_0
  6
CONTINUOUS
 62
     7
 10
315.4871875989
 20
329.0528996525
 30
0.0
  0
VERTEX
  5
532
  8
DV4_0
  6
CONTINUOUS
 62
     7
 10
315.5642042658
 20
329.0675170138
 30
0.0
  0
VERTEX
  5
533
  8
DV4_0
  6
CONTINUOUS
 62
     7
 10
315.6416646163
 20
329.0812990059
 30
0.0
  0
VERTEX
  5
534
  8
DV4_0
  6
CONTINUOUS
 62
     7
 10
315.7195668259
 20
329.0942921259
 30
0.0
  0
VERTEX
  5
535
  8
DV4_0
  6
CONTINUOUS
 62
     7
 10
315.7979090701
 20
329.106542871
 30
0.0
  0
VERTEX
  5
536
  8
DV4_0
  6
CONTINUOUS
 62
     7
 10
315.8766895241
 20
329.1180977383
 30
0.0
  0
VERTEX
  5
537
  8
DV4_0
  6
CONTINUOUS
 62
     7
 10
315.9559053427
 20
329.1289842346
 30
0.0
  0
VERTEX
  5
538
  8
DV4_0
  6
CONTINUOUS
 62
     7
 10
316.0355524388
 20
329.1392078014
 30
0.0
  0
VERTEX
  5
539
  8
DV4_0
  6
CONTINUOUS
 62
     7
 10
316.1156271255
 20
329.148781838
 30
0.0
  0
VERTEX
  5
53A
  8
DV4_0
  6
CONTINUOUS
 62
     7
 10
316.1961257162
 20
329.1577197436
 30
0.0
  0
VERTEX
  5
53B
  8
DV4_0
  6
CONTINUOUS
 62
     7
 10
316.277044524
 20
329.1660349176
 30
0.0
  0
VERTEX
  5
53C
  8
DV4_0
  6
CONTINUOUS
 62
     7
 10
316.3583798622
 20
329.1737407592
 30
0.0
  0
VERTEX
  5
53D
  8
DV4_0
  6
CONTINUOUS
 62
     7
 10
316.4401280439
 20
329.1808506676
 30
0.0
  0
VERTEX
  5
53E
  8
DV4_0
  6
CONTINUOUS
 62
     7
 10
316.5222853825
 20
329.1873780422
 30
0.0
  0
VERTEX
  5
53F
  8
DV4_0
  6
CONTINUOUS
 62
     7
 10
316.604848191
 20
329.1933362822
 30
0.0
  0
VERTEX
  5
540
  8
DV4_0
  6
CONTINUOUS
 62
     7
 10
316.6878127828
 20
329.1987387869
 30
0.0
  0
VERTEX
  5
541
  8
DV4_0
  6
CONTINUOUS
 62
     7
 10
316.771175471
 20
329.2035989555
 30
0.0
  0
VERTEX
  5
542
  8
DV4_0
  6
CONTINUOUS
 62
     7
 10
316.8549325689
 20
329.2079301874
 30
0.0
  0
VERTEX
  5
543
  8
DV4_0
  6
CONTINUOUS
 62
     7
 10
316.9390803897
 20
329.2117458817
 30
0.0
  0
VERTEX
  5
544
  8
DV4_0
  6
CONTINUOUS
 62
     7
 10
317.0236152466
 20
329.2150594378
 30
0.0
  0
VERTEX
  5
545
  8
DV4_0
  6
CONTINUOUS
 62
     7
 10
317.1085334528
 20
329.2178842549
 30
0.0
  0
VERTEX
  5
546
  8
DV4_0
  6
CONTINUOUS
 62
     7
 10
317.1938313216
 20
329.2202337323
 30
0.0
  0
VERTEX
  5
547
  8
DV4_0
  6
CONTINUOUS
 62
     7
 10
317.2795051661
 20
329.2221212693
 30
0.0
  0
VERTEX
  5
548
  8
DV4_0
  6
CONTINUOUS
 62
     7
 10
317.3655512996
 20
329.2235602651
 30
0.0
  0
VERTEX
  5
549
  8
DV4_0
  6
CONTINUOUS
 62
     7
 10
317.4519660353
 20
329.2245641191
 30
0.0
  0
VERTEX
  5
54A
  8
DV4_0
  6
CONTINUOUS
 62
     7
 10
317.5387456864
 20
329.2251462304
 30
0.0
  0
VERTEX
  5
54B
  8
DV4_0
  6
CONTINUOUS
 62
     7
 10
317.6258865662
 20
329.2253199983
 30
0.0
  0
VERTEX
  5
54C
  8
DV4_0
  6
CONTINUOUS
 62
     7
 10
317.7134042164
 20
329.2250947513
 30
0.0
  0
VERTEX
  5
54D
  8
DV4_0
  6
CONTINUOUS
 62
     7
 10
317.8013143254
 20
329.2244617467
 30
0.0
  0
VERTEX
  5
54E
  8
DV4_0
  6
CONTINUOUS
 62
     7
 10
317.8896134264
 20
329.2234072771
 30
0.0
  0
VERTEX
  5
54F
  8
DV4_0
  6
CONTINUOUS
 62
     7
 10
317.9782980523
 20
329.2219176354
 30
0.0
  0
VERTEX
  5
550
  8
DV4_0
  6
CONTINUOUS
 62
     7
 10
318.0673647363
 20
329.2199791141
 30
0.0
  0
VERTEX
  5
551
  8
DV4_0
  6
CONTINUOUS
 62
     7
 10
318.1568100114
 20
329.2175780059
 30
0.0
  0
VERTEX
  5
552
  8
DV4_0
  6
CONTINUOUS
 62
     7
 10
318.2466304107
 20
329.2147006036
 30
0.0
  0
VERTEX
  5
553
  8
DV4_0
  6
CONTINUOUS
 62
     7
 10
318.3368224673
 20
329.2113331998
 30
0.0
  0
VERTEX
  5
554
  8
DV4_0
  6
CONTINUOUS
 62
     7
 10
318.4273827143
 20
329.2074620872
 30
0.0
  0
VERTEX
  5
555
  8
DV4_0
  6
CONTINUOUS
 62
     7
 10
318.5183076847
 20
329.2030735586
 30
0.0
  0
VERTEX
  5
556
  8
DV4_0
  6
CONTINUOUS
 62
     7
 10
318.6095939115
 20
329.1981539065
 30
0.0
  0
VERTEX
  5
557
  8
DV4_0
  6
CONTINUOUS
 62
     7
 10
318.7012379279
 20
329.1926894237
 30
0.0
  0
VERTEX
  5
558
  8
DV4_0
  6
CONTINUOUS
 62
     7
 10
318.793236267
 20
329.1866664029
 30
0.0
  0
VERTEX
  5
559
  8
DV4_0
  6
CONTINUOUS
 62
     7
 10
318.8855854617
 20
329.1800711368
 30
0.0
  0
VERTEX
  5
55A
  8
DV4_0
  6
CONTINUOUS
 62
     7
 10
318.9782820453
 20
329.1728899181
 30
0.0
  0
VERTEX
  5
55B
  8
DV4_0
  6
CONTINUOUS
 62
     7
 10
319.0713225507
 20
329.1651090394
 30
0.0
  0
VERTEX
  5
55C
  8
DV4_0
  6
CONTINUOUS
 62
     7
 10
319.164703511
 20
329.1567147934
 30
0.0
  0
VERTEX
  5
55D
  8
DV4_0
  6
CONTINUOUS
 62
     7
 10
319.2584214593
 20
329.1476934729
 30
0.0
  0
VERTEX
  5
55E
  8
DV4_0
  6
CONTINUOUS
 62
     7
 10
319.3524729287
 20
329.1380313705
 30
0.0
  0
VERTEX
  5
55F
  8
DV4_0
  6
CONTINUOUS
 62
     7
 10
319.4468544522
 20
329.1277147789
 30
0.0
  0
VERTEX
  5
560
  8
DV4_0
  6
CONTINUOUS
 62
     7
 10
319.541562563
 20
329.1167299908
 30
0.0
  0
VERTEX
  5
561
  8
DV4_0
  6
CONTINUOUS
 62
     7
 10
319.6365976565
 20
329.1050718719
 30
0.0
  0
VERTEX
  5
562
  8
DV4_0
  6
CONTINUOUS
 62
     7
 10
319.7319592541
 20
329.0927121784
 30
0.0
  0
VERTEX
  5
563
  8
DV4_0
  6
CONTINUOUS
 62
     7
 10
319.8276425773
 20
329.0796025385
 30
0.0
  0
VERTEX
  5
564
  8
DV4_0
  6
CONTINUOUS
 62
     7
 10
319.9236428477
 20
329.0656945805
 30
0.0
  0
VERTEX
  5
565
  8
DV4_0
  6
CONTINUOUS
 62
     7
 10
320.0199552871
 20
329.0509399328
 30
0.0
  0
VERTEX
  5
566
  8
DV4_0
  6
CONTINUOUS
 62
     7
 10
320.1165751169
 20
329.0352902235
 30
0.0
  0
VERTEX
  5
567
  8
DV4_0
  6
CONTINUOUS
 62
     7
 10
320.2134975588
 20
329.018697081
 30
0.0
  0
VERTEX
  5
568
  8
DV4_0
  6
CONTINUOUS
 62
     7
 10
320.3107178344
 20
329.0011121335
 30
0.0
  0
VERTEX
  5
569
  8
DV4_0
  6
CONTINUOUS
 62
     7
 10
320.4082311653
 20
328.9824870094
 30
0.0
  0
VERTEX
  5
56A
  8
DV4_0
  6
CONTINUOUS
 62
     7
 10
320.5060327732
 20
328.9627733369
 30
0.0
  0
VERTEX
  5
56B
  8
DV4_0
  6
CONTINUOUS
 62
     7
 10
320.6041178795
 20
328.9419227443
 30
0.0
  0
VERTEX
  5
56C
  8
DV4_0
  6
CONTINUOUS
 62
     7
 10
320.7024817061
 20
328.9198868598
 30
0.0
  0
VERTEX
  5
56D
  8
DV4_0
  6
CONTINUOUS
 62
     7
 10
320.8011194743
 20
328.8966173119
 30
0.0
  0
VERTEX
  5
56E
  8
DV4_0
  6
CONTINUOUS
 62
     7
 10
320.9000264059
 20
328.8720657286
 30
0.0
  0
VERTEX
  5
56F
  8
DV4_0
  6
CONTINUOUS
 62
     7
 10
320.9991977225
 20
328.8461837385
 30
0.0
  0
VERTEX
  5
570
  8
DV4_0
  6
CONTINUOUS
 62
     7
 10
321.0986286457
 20
328.8189229696
 30
0.0
  0
VERTEX
  5
571
  8
DV4_0
  6
CONTINUOUS
 62
     7
 10
321.1983143971
 20
328.7902350503
 30
0.0
  0
VERTEX
  5
572
  8
DV4_0
  6
CONTINUOUS
 62
     7
 10
321.2982501982
 20
328.7600716089
 30
0.0
  0
VERTEX
  5
573
  8
DV4_0
  6
CONTINUOUS
 62
     7
 10
321.3984312708
 20
328.7283842737
 30
0.0
  0
VERTEX
  5
574
  8
DV4_0
  6
CONTINUOUS
 62
     7
 10
321.4988528364
 20
328.6951246729
 30
0.0
  0
VERTEX
  5
575
  8
DV4_0
  6
CONTINUOUS
 62
     7
 10
321.5995101166
 20
328.6602444348
 30
0.0
  0
VERTEX
  5
576
  8
DV4_0
  6
CONTINUOUS
 62
     7
 10
321.7004118258
 20
328.6237261544
 30
0.0
  0
VERTEX
  5
577
  8
DV4_0
  6
CONTINUOUS
 62
     7
 10
321.801527521
 20
328.5855133842
 30
0.0
  0
VERTEX
  5
578
  8
DV4_0
  6
CONTINUOUS
 62
     7
 10
321.9027936885
 20
328.5454991891
 30
0.0
  0
VERTEX
  5
579
  8
DV4_0
  6
CONTINUOUS
 62
     7
 10
322.0041468141
 20
328.5035766341
 30
0.0
  0
VERTEX
  5
57A
  8
DV4_0
  6
CONTINUOUS
 62
     7
 10
322.1055233839
 20
328.4596387842
 30
0.0
  0
VERTEX
  5
57B
  8
DV4_0
  6
CONTINUOUS
 62
     7
 10
322.2068598841
 20
328.4135787042
 30
0.0
  0
VERTEX
  5
57C
  8
DV4_0
  6
CONTINUOUS
 62
     7
 10
322.3080928005
 20
328.3652894591
 30
0.0
  0
VERTEX
  5
57D
  8
DV4_0
  6
CONTINUOUS
 62
     7
 10
322.4091586193
 20
328.3146641139
 30
0.0
  0
VERTEX
  5
57E
  8
DV4_0
  6
CONTINUOUS
 62
     7
 10
322.5099938265
 20
328.2615957334
 30
0.0
  0
VERTEX
  5
57F
  8
DV4_0
  6
CONTINUOUS
 62
     7
 10
322.610534908
 20
328.2059773826
 30
0.0
  0
VERTEX
  5
580
  8
DV4_0
  6
CONTINUOUS
 62
     7
 10
322.7107183501
 20
328.1477021264
 30
0.0
  0
VERTEX
  5
581
  8
DV4_0
  6
CONTINUOUS
 62
     7
 10
322.8104806386
 20
328.0866630298
 30
0.0
  0
VERTEX
  5
582
  8
DV4_0
  6
CONTINUOUS
 62
     7
 10
322.9097582597
 20
328.0227531576
 30
0.0
  0
VERTEX
  5
583
  8
DV4_0
  6
CONTINUOUS
 62
     7
 10
323.0084876993
 20
327.9558655749
 30
0.0
  0
VERTEX
  5
584
  8
DV4_0
  6
CONTINUOUS
 62
     7
 10
323.1066054435
 20
327.8858933465
 30
0.0
  0
VERTEX
  5
585
  8
DV4_0
  6
CONTINUOUS
 62
     7
 10
323.2040479784
 20
327.8127295375
 30
0.0
  0
VERTEX
  5
586
  8
DV4_0
  6
CONTINUOUS
 62
     7
 10
323.3007517899
 20
327.7362672126
 30
0.0
  0
VERTEX
  5
587
  8
DV4_0
  6
CONTINUOUS
 62
     7
 10
323.3966533641
 20
327.6563994369
 30
0.0
  0
VERTEX
  5
588
  8
DV4_0
  6
CONTINUOUS
 62
     7
 10
323.4916891871
 20
327.5730192753
 30
0.0
  0
VERTEX
  5
589
  8
DV4_0
  6
CONTINUOUS
 62
     7
 10
323.5857957449
 20
327.4860197927
 30
0.0
  0
VERTEX
  5
58A
  8
DV4_0
  6
CONTINUOUS
 62
     7
 10
323.6789095235
 20
327.3952940541
 30
0.0
  0
VERTEX
  5
58B
  8
DV4_0
  6
CONTINUOUS
 62
     7
 10
323.7709564557
 20
327.3005381979
 30
0.0
  0
VERTEX
  5
58C
  8
DV4_0
  6
CONTINUOUS
 62
     7
 10
323.8617117514
 20
327.2014636665
 30
0.0
  0
VERTEX
  5
58D
  8
DV4_0
  6
CONTINUOUS
 62
     7
 10
323.9508858121
 20
327.0979864806
 30
0.0
  0
VERTEX
  5
58E
  8
DV4_0
  6
CONTINUOUS
 62
     7
 10
324.0381890391
 20
326.9900226608
 30
0.0
  0
VERTEX
  5
58F
  8
DV4_0
  6
CONTINUOUS
 62
     7
 10
324.1233318341
 20
326.8774882277
 30
0.0
  0
VERTEX
  5
590
  8
DV4_0
  6
CONTINUOUS
 62
     7
 10
324.2060245986
 20
326.7602992022
 30
0.0
  0
VERTEX
  5
591
  8
DV4_0
  6
CONTINUOUS
 62
     7
 10
324.2859777339
 20
326.6383716047
 30
0.0
  0
VERTEX
  5
592
  8
DV4_0
  6
CONTINUOUS
 62
     7
 10
324.3629016417
 20
326.511621456
 30
0.0
  0
VERTEX
  5
593
  8
DV4_0
  6
CONTINUOUS
 62
     7
 10
324.4365067235
 20
326.3799647768
 30
0.0
  0
VERTEX
  5
594
  8
DV4_0
  6
CONTINUOUS
 62
     7
 10
324.5065033807
 20
326.2433175876
 30
0.0
  0
VERTEX
  5
595
  8
DV4_0
  6
CONTINUOUS
 62
     7
 10
324.5725591149
 20
326.1015347345
 30
0.0
  0
VERTEX
  5
596
  8
DV4_0
  6
CONTINUOUS
 62
     7
 10
324.6340981693
 20
325.9543606916
 30
0.0
  0
VERTEX
  5
597
  8
DV4_0
  6
CONTINUOUS
 62
     7
 10
324.6907145505
 20
325.8021499216
 30
0.0
  0
VERTEX
  5
598
  8
DV4_0
  6
CONTINUOUS
 62
     7
 10
324.7420419693
 20
325.6453397841
 30
0.0
  0
VERTEX
  5
599
  8
DV4_0
  6
CONTINUOUS
 62
     7
 10
324.7877141367
 20
325.484367639
 30
0.0
  0
VERTEX
  5
59A
  8
DV4_0
  6
CONTINUOUS
 62
     7
 10
324.8273647637
 20
325.3196708459
 30
0.0
  0
VERTEX
  5
59B
  8
DV4_0
  6
CONTINUOUS
 62
     7
 10
324.8606275612
 20
325.1516867647
 30
0.0
  0
VERTEX
  5
59C
  8
DV4_0
  6
CONTINUOUS
 62
     7
 10
324.8871362402
 20
324.9808527551
 30
0.0
  0
VERTEX
  5
59D
  8
DV4_0
  6
CONTINUOUS
 62
     7
 10
324.9065245117
 20
324.8076061769
 30
0.0
  0
VERTEX
  5
59E
  8
DV4_0
  6
CONTINUOUS
 62
     7
 10
324.9184260865
 20
324.6323843897
 30
0.0
  0
VERTEX
  5
59F
  8
DV4_0
  6
CONTINUOUS
 62
     7
 10
324.9224746757
 20
324.4556247535
 30
0.0
  0
SEQEND
  5
5A0
  8
DV4_0
  6
CONTINUOUS
 62
     7
  0
LINE
  5
168
  8
DV4_0
  6
CONTINUOUS
 62
     7
 10
284.5674518807
 20
306.6556247535
 30
0.0
 11
278.7939501047
 21
306.6556247535
 31
0.0
  0
LINE
  5
169
  8
DV4_0
  6
CONTINUOUS
 62
     7
 10
278.7939501047
 20
292.0556247535
 30
0.0
 11
278.7939501047
 21
306.6556247535
 31
0.0
  0
LINE
  5
16A
  8
DV4_0
  6
CONTINUOUS
 62
     7
 10
284.5674518807
 20
292.0556247535
 30
0.0
 11
278.7939501047
 21
292.0556247535
 31
0.0
  0
LINE
  5
16B
  8
DV4_0
  6
CONTINUOUS
 62
     7
 10
284.5674518807
 20
292.0556247535
 30
0.0
 11
284.5674518807
 21
306.6556247535
 31
0.0
  0
LINE
  5
16C
  8
DV4_0
  6
CONTINUOUS
 62
     7
 10
285.8409547034
 20
318.4556247535
 30
0.0
 11
285.8409547034
 21
310.4556247535
 31
0.0
  0
LINE
  5
16D
  8
DV4_0
  6
CONTINUOUS
 62
     7
 10
324.9224746757
 20
324.4556247535
 30
0.0
 11
324.9224746757
 21
318.4556247535
 31
0.0
  0
LINE
  5
16E
  8
DV4_0
  6
CONTINUOUS
 62
     7
 10
312.3049210093
 20
324.4556247535
 30
0.0
 11
312.3049210093
 21
318.4556247535
 31
0.0
  0
LINE
  5
16F
  8
DV4_0
  6
CONTINUOUS
 62
     7
 10
324.9224746757
 20
318.4556247535
 30
0.0
 11
312.3049210093
 21
318.4556247535
 31
0.0
  0
LINE
  5
170
  8
DV4_0
  6
CONTINUOUS
 62
     7
 10
277.7234010371
 20
318.4556247535
 30
0.0
 11
268.3769883975
 21
318.4556247535
 31
0.0
  0
LINE
  5
171
  8
DV4_0
  6
CONTINUOUS
 62
     7
 10
268.3769883975
 20
318.4556247535
 30
0.0
 11
255.7594347312
 21
318.4556247535
 31
0.0
  0
LINE
  5
172
  8
DV4_0
  6
CONTINUOUS
 62
     7
 10
255.3409547034
 20
318.4556247535
 30
0.0
 11
255.7594347312
 21
318.4556247535
 31
0.0
  0
LINE
  5
173
  8
DV4_0
  6
CONTINUOUS
 62
     7
 10
325.3409547034
 20
318.4556247535
 30
0.0
 11
324.9224746757
 21
318.4556247535
 31
0.0
  0
LINE
  5
174
  8
DV4_0
  6
CONTINUOUS
 62
     7
 10
312.3049210093
 20
318.4556247535
 30
0.0
 11
302.9585083698
 21
318.4556247535
 31
0.0
  0
LINE
  5
175
  8
DV4_0
  6
CONTINUOUS
 62
     7
 10
302.9585083698
 20
318.4556247535
 30
0.0
 11
277.7234010371
 21
318.4556247535
 31
0.0
  0
LINE
  5
176
  8
DV4_0
  6
CONTINUOUS
 62
     7
 10
299.5785590105
 20
272.1556247535
 30
0.0
 11
299.5785590105
 21
283.4556247535
 31
0.0
  0
LINE
  5
177
  8
DV4_0
  6
CONTINUOUS
 62
     7
 10
299.5785590105
 20
283.4556247535
 30
0.0
 11
281.1033503964
 21
283.4556247535
 31
0.0
  0
LINE
  5
178
  8
DV4_0
  6
CONTINUOUS
 62
     7
 10
281.1033503964
 20
272.1556247535
 30
0.0
 11
281.1033503964
 21
283.4556247535
 31
0.0
  0
LINE
  5
179
  8
DV4_0
  6
CONTINUOUS
 62
     7
 10
294.8409547034
 20
318.4556247535
 30
0.0
 11
294.8409547034
 21
310.4556247535
 31
0.0
  0
LINE
  5
17A
  8
DV4_0
  6
CONTINUOUS
 62
     7
 10
285.8409547034
 20
310.4556247535
 30
0.0
 11
294.8409547034
 21
310.4556247535
 31
0.0
  0
LINE
  5
17B
  8
DV4_0
  6
CONTINUOUS
 62
     7
 10
313.0909547034
 20
263.1556247535
 30
0.0
 11
267.5909547034
 21
263.1556247535
 31
0.0
  0
LINE
  5
17C
  8
DV4_0
  6
CONTINUOUS
 62
     7
 10
313.8409547034
 20
263.5886374554
 30
0.0
 11
266.8409547034
 21
263.5886374554
 31
0.0
  0
LINE
  5
17D
  8
DV4_0
  6
CONTINUOUS
 62
     7
 10
308.8161633175
 20
283.4556247535
 30
0.0
 11
299.5785590105
 21
283.4556247535
 31
0.0
  0
LINE
  5
17E
  8
DV4_0
  6
CONTINUOUS
 62
     7
 10
281.1033503964
 20
283.4556247535
 30
0.0
 11
271.8657460894
 21
283.4556247535
 31
0.0
  0
LINE
  5
17F
  8
DV4_0
  6
CONTINUOUS
 62
     7
 10
270.3409547034
 20
254.0625062357
 30
0.0
 11
270.3409547034
 21
237.7799804064
 31
0.0
  0
LINE
  5
180
  8
DV4_0
  6
CONTINUOUS
 62
     7
 10
271.8657460894
 20
272.1556247535
 30
0.0
 11
271.8657460894
 21
283.4556247535
 31
0.0
  0
LINE
  5
181
  8
DV4_0
  6
CONTINUOUS
 62
     7
 10
268.3769883975
 20
324.4556247535
 30
0.0
 11
268.3769883975
 21
318.4556247535
 31
0.0
  0
POLYLINE
  5
182
  8
DV4_0
  6
CONTINUOUS
 62
     7
 66
     1
 10
0.0
 20
0.0
 30
0.0
  0
VERTEX
  5
5A1
  8
DV4_0
  6
CONTINUOUS
 62
     7
 10
255.7594347312
 20
324.4556247535
 30
0.0
  0
VERTEX
  5
5A2
  8
DV4_0
  6
CONTINUOUS
 62
     7
 10
255.7634724493
 20
324.6335107683
 30
0.0
  0
VERTEX
  5
5A3
  8
DV4_0
  6
CONTINUOUS
 62
     7
 10
255.7753617471
 20
324.8095465569
 30
0.0
  0
VERTEX
  5
5A4
  8
DV4_0
  6
CONTINUOUS
 62
     7
 10
255.7947668392
 20
324.9833837189
 30
0.0
  0
VERTEX
  5
5A5
  8
DV4_0
  6
CONTINUOUS
 62
     7
 10
255.8213519407
 20
325.154673854
 30
0.0
  0
VERTEX
  5
5A6
  8
DV4_0
  6
CONTINUOUS
 62
     7
 10
255.8547812663
 20
325.323068562
 30
0.0
  0
VERTEX
  5
5A7
  8
DV4_0
  6
CONTINUOUS
 62
     7
 10
255.8947190311
 20
325.4882194426
 30
0.0
  0
VERTEX
  5
5A8
  8
DV4_0
  6
CONTINUOUS
 62
     7
 10
255.9408294498
 20
325.6497780955
 30
0.0
  0
VERTEX
  5
5A9
  8
DV4_0
  6
CONTINUOUS
 62
     7
 10
255.9927767373
 20
325.8073961204
 30
0.0
  0
VERTEX
  5
5AA
  8
DV4_0
  6
CONTINUOUS
 62
     7
 10
256.0502251086
 20
325.960725117
 30
0.0
  0
VERTEX
  5
5AB
  8
DV4_0
  6
CONTINUOUS
 62
     7
 10
256.1128387784
 20
326.1094166851
 30
0.0
  0
VERTEX
  5
5AC
  8
DV4_0
  6
CONTINUOUS
 62
     7
 10
256.1801804334
 20
326.2530671622
 30
0.0
  0
VERTEX
  5
5AD
  8
DV4_0
  6
CONTINUOUS
 62
     7
 10
256.2513346533
 20
326.3911873245
 30
0.0
  0
VERTEX
  5
5AE
  8
DV4_0
  6
CONTINUOUS
 62
     7
 10
256.3259396045
 20
326.5238609793
 30
0.0
  0
VERTEX
  5
5AF
  8
DV4_0
  6
CONTINUOUS
 62
     7
 10
256.403738263
 20
326.6512483902
 30
0.0
  0
VERTEX
  5
5B0
  8
DV4_0
  6
CONTINUOUS
 62
     7
 10
256.4844736052
 20
326.7735098209
 30
0.0
  0
VERTEX
  5
5B1
  8
DV4_0
  6
CONTINUOUS
 62
     7
 10
256.5678886073
 20
326.8908055353
 30
0.0
  0
VERTEX
  5
5B2
  8
DV4_0
  6
CONTINUOUS
 62
     7
 10
256.6537262456
 20
327.0032957968
 30
0.0
  0
VERTEX
  5
5B3
  8
DV4_0
  6
CONTINUOUS
 62
     7
 10
256.7417294961
 20
327.1111408694
 30
0.0
  0
VERTEX
  5
5B4
  8
DV4_0
  6
CONTINUOUS
 62
     7
 10
256.8316413353
 20
327.2145010166
 30
0.0
  0
VERTEX
  5
5B5
  8
DV4_0
  6
CONTINUOUS
 62
     7
 10
256.9232047394
 20
327.3135365021
 30
0.0
  0
VERTEX
  5
5B6
  8
DV4_0
  6
CONTINUOUS
 62
     7
 10
257.0161626845
 20
327.4084075898
 30
0.0
  0
VERTEX
  5
5B7
  8
DV4_0
  6
CONTINUOUS
 62
     7
 10
257.1102402181
 20
327.499319063
 30
0.0
  0
VERTEX
  5
5B8
  8
DV4_0
  6
CONTINUOUS
 62
     7
 10
257.2052873614
 20
327.586441821
 30
0.0
  0
VERTEX
  5
5B9
  8
DV4_0
  6
CONTINUOUS
 62
     7
 10
257.3012345512
 20
327.6698853012
 30
0.0
  0
VERTEX
  5
5BA
  8
DV4_0
  6
CONTINUOUS
 62
     7
 10
257.3980122244
 20
327.7497589408
 30
0.0
  0
VERTEX
  5
5BB
  8
DV4_0
  6
CONTINUOUS
 62
     7
 10
257.4955508179
 20
327.8261721773
 30
0.0
  0
VERTEX
  5
5BC
  8
DV4_0
  6
CONTINUOUS
 62
     7
 10
257.5937807686
 20
327.899234448
 30
0.0
  0
VERTEX
  5
5BD
  8
DV4_0
  6
CONTINUOUS
 62
     7
 10
257.6926325133
 20
327.9690551902
 30
0.0
  0
VERTEX
  5
5BE
  8
DV4_0
  6
CONTINUOUS
 62
     7
 10
257.7920364889
 20
328.0357438412
 30
0.0
  0
VERTEX
  5
5BF
  8
DV4_0
  6
CONTINUOUS
 62
     7
 10
257.8919231324
 20
328.0994098384
 30
0.0
  0
VERTEX
  5
5C0
  8
DV4_0
  6
CONTINUOUS
 62
     7
 10
257.9922228805
 20
328.1601626191
 30
0.0
  0
VERTEX
  5
5C1
  8
DV4_0
  6
CONTINUOUS
 62
     7
 10
258.0928661702
 20
328.2181116207
 30
0.0
  0
VERTEX
  5
5C2
  8
DV4_0
  6
CONTINUOUS
 62
     7
 10
258.1937834383
 20
328.2733662804
 30
0.0
  0
VERTEX
  5
5C3
  8
DV4_0
  6
CONTINUOUS
 62
     7
 10
258.2949051218
 20
328.3260360357
 30
0.0
  0
VERTEX
  5
5C4
  8
DV4_0
  6
CONTINUOUS
 62
     7
 10
258.3961616575
 20
328.3762303238
 30
0.0
  0
VERTEX
  5
5C5
  8
DV4_0
  6
CONTINUOUS
 62
     7
 10
258.4974834822
 20
328.4240585822
 30
0.0
  0
VERTEX
  5
5C6
  8
DV4_0
  6
CONTINUOUS
 62
     7
 10
258.5988010329
 20
328.469630248
 30
0.0
  0
VERTEX
  5
5C7
  8
DV4_0
  6
CONTINUOUS
 62
     7
 10
258.7000447465
 20
328.5130547587
 30
0.0
  0
VERTEX
  5
5C8
  8
DV4_0
  6
CONTINUOUS
 62
     7
 10
258.8011450598
 20
328.5544415516
 30
0.0
  0
VERTEX
  5
5C9
  8
DV4_0
  6
CONTINUOUS
 62
     7
 10
258.9020324097
 20
328.5939000641
 30
0.0
  0
VERTEX
  5
5CA
  8
DV4_0
  6
CONTINUOUS
 62
     7
 10
259.0026372331
 20
328.6315397334
 30
0.0
  0
VERTEX
  5
5CB
  8
DV4_0
  6
CONTINUOUS
 62
     7
 10
259.1028899668
 20
328.667469997
 30
0.0
  0
VERTEX
  5
5CC
  8
DV4_0
  6
CONTINUOUS
 62
     7
 10
259.2028415465
 20
328.701776876
 30
0.0
  0
VERTEX
  5
5CD
  8
DV4_0
  6
CONTINUOUS
 62
     7
 10
259.3025860101
 20
328.7345044317
 30
0.0
  0
VERTEX
  5
5CE
  8
DV4_0
  6
CONTINUOUS
 62
     7
 10
259.4021184478
 20
328.7656991611
 30
0.0
  0
VERTEX
  5
5CF
  8
DV4_0
  6
CONTINUOUS
 62
     7
 10
259.5014339496
 20
328.7954075614
 30
0.0
  0
VERTEX
  5
5D0
  8
DV4_0
  6
CONTINUOUS
 62
     7
 10
259.6005276059
 20
328.8236761297
 30
0.0
  0
VERTEX
  5
5D1
  8
DV4_0
  6
CONTINUOUS
 62
     7
 10
259.6993945067
 20
328.8505513633
 30
0.0
  0
VERTEX
  5
5D2
  8
DV4_0
  6
CONTINUOUS
 62
     7
 10
259.7980297422
 20
328.8760797591
 30
0.0
  0
VERTEX
  5
5D3
  8
DV4_0
  6
CONTINUOUS
 62
     7
 10
259.8964284027
 20
328.9003078143
 30
0.0
  0
VERTEX
  5
5D4
  8
DV4_0
  6
CONTINUOUS
 62
     7
 10
259.9945855782
 20
328.9232820262
 30
0.0
  0
VERTEX
  5
5D5
  8
DV4_0
  6
CONTINUOUS
 62
     7
 10
260.092496359
 20
328.9450488917
 30
0.0
  0
VERTEX
  5
5D6
  8
DV4_0
  6
CONTINUOUS
 62
     7
 10
260.1901558352
 20
328.9656549081
 30
0.0
  0
VERTEX
  5
5D7
  8
DV4_0
  6
CONTINUOUS
 62
     7
 10
260.2875590971
 20
328.9851465725
 30
0.0
  0
VERTEX
  5
5D8
  8
DV4_0
  6
CONTINUOUS
 62
     7
 10
260.3847012347
 20
329.003570382
 30
0.0
  0
VERTEX
  5
5D9
  8
DV4_0
  6
CONTINUOUS
 62
     7
 10
260.4815773383
 20
329.0209728337
 30
0.0
  0
VERTEX
  5
5DA
  8
DV4_0
  6
CONTINUOUS
 62
     7
 10
260.578182498
 20
329.0374004248
 30
0.0
  0
VERTEX
  5
5DB
  8
DV4_0
  6
CONTINUOUS
 62
     7
 10
260.6745118041
 20
329.0528996525
 30
0.0
  0
VERTEX
  5
5DC
  8
DV4_0
  6
CONTINUOUS
 62
     7
 10
260.7705603466
 20
329.0675170138
 30
0.0
  0
VERTEX
  5
5DD
  8
DV4_0
  6
CONTINUOUS
 62
     7
 10
260.8663232158
 20
329.0812990059
 30
0.0
  0
VERTEX
  5
5DE
  8
DV4_0
  6
CONTINUOUS
 62
     7
 10
260.9617955018
 20
329.0942921259
 30
0.0
  0
VERTEX
  5
5DF
  8
DV4_0
  6
CONTINUOUS
 62
     7
 10
261.0569722948
 20
329.106542871
 30
0.0
  0
VERTEX
  5
5E0
  8
DV4_0
  6
CONTINUOUS
 62
     7
 10
261.1518486851
 20
329.1180977383
 30
0.0
  0
VERTEX
  5
5E1
  8
DV4_0
  6
CONTINUOUS
 62
     7
 10
261.2464184887
 20
329.1289842346
 30
0.0
  0
VERTEX
  5
5E2
  8
DV4_0
  6
CONTINUOUS
 62
     7
 10
261.3406758314
 20
329.1392078014
 30
0.0
  0
VERTEX
  5
5E3
  8
DV4_0
  6
CONTINUOUS
 62
     7
 10
261.4346162673
 20
329.148781838
 30
0.0
  0
VERTEX
  5
5E4
  8
DV4_0
  6
CONTINUOUS
 62
     7
 10
261.5282353506
 20
329.1577197436
 30
0.0
  0
VERTEX
  5
5E5
  8
DV4_0
  6
CONTINUOUS
 62
     7
 10
261.6215286354
 20
329.1660349176
 30
0.0
  0
VERTEX
  5
5E6
  8
DV4_0
  6
CONTINUOUS
 62
     7
 10
261.7144916761
 20
329.1737407592
 30
0.0
  0
VERTEX
  5
5E7
  8
DV4_0
  6
CONTINUOUS
 62
     7
 10
261.8071200266
 20
329.1808506676
 30
0.0
  0
VERTEX
  5
5E8
  8
DV4_0
  6
CONTINUOUS
 62
     7
 10
261.8994092414
 20
329.1873780422
 30
0.0
  0
VERTEX
  5
5E9
  8
DV4_0
  6
CONTINUOUS
 62
     7
 10
261.9913548744
 20
329.1933362822
 30
0.0
  0
VERTEX
  5
5EA
  8
DV4_0
  6
CONTINUOUS
 62
     7
 10
262.08295248
 20
329.1987387869
 30
0.0
  0
VERTEX
  5
5EB
  8
DV4_0
  6
CONTINUOUS
 62
     7
 10
262.1741976122
 20
329.2035989555
 30
0.0
  0
VERTEX
  5
5EC
  8
DV4_0
  6
CONTINUOUS
 62
     7
 10
262.2650858254
 20
329.2079301874
 30
0.0
  0
VERTEX
  5
5ED
  8
DV4_0
  6
CONTINUOUS
 62
     7
 10
262.3556126736
 20
329.2117458817
 30
0.0
  0
VERTEX
  5
5EE
  8
DV4_0
  6
CONTINUOUS
 62
     7
 10
262.4457737112
 20
329.2150594378
 30
0.0
  0
VERTEX
  5
5EF
  8
DV4_0
  6
CONTINUOUS
 62
     7
 10
262.5355644921
 20
329.2178842549
 30
0.0
  0
VERTEX
  5
5F0
  8
DV4_0
  6
CONTINUOUS
 62
     7
 10
262.6249805707
 20
329.2202337323
 30
0.0
  0
VERTEX
  5
5F1
  8
DV4_0
  6
CONTINUOUS
 62
     7
 10
262.7140175011
 20
329.2221212693
 30
0.0
  0
VERTEX
  5
5F2
  8
DV4_0
  6
CONTINUOUS
 62
     7
 10
262.8026708376
 20
329.2235602651
 30
0.0
  0
VERTEX
  5
5F3
  8
DV4_0
  6
CONTINUOUS
 62
     7
 10
262.8909361342
 20
329.2245641191
 30
0.0
  0
VERTEX
  5
5F4
  8
DV4_0
  6
CONTINUOUS
 62
     7
 10
262.9788089453
 20
329.2251462304
 30
0.0
  0
VERTEX
  5
5F5
  8
DV4_0
  6
CONTINUOUS
 62
     7
 10
263.0662848249
 20
329.2253199983
 30
0.0
  0
VERTEX
  5
5F6
  8
DV4_0
  6
CONTINUOUS
 62
     7
 10
263.1533793281
 20
329.2250947513
 30
0.0
  0
VERTEX
  5
5F7
  8
DV4_0
  6
CONTINUOUS
 62
     7
 10
263.240109041
 20
329.2244617467
 30
0.0
  0
VERTEX
  5
5F8
  8
DV4_0
  6
CONTINUOUS
 62
     7
 10
263.326471064
 20
329.2234072771
 30
0.0
  0
VERTEX
  5
5F9
  8
DV4_0
  6
CONTINUOUS
 62
     7
 10
263.4124624978
 20
329.2219176354
 30
0.0
  0
VERTEX
  5
5FA
  8
DV4_0
  6
CONTINUOUS
 62
     7
 10
263.4980804429
 20
329.2199791141
 30
0.0
  0
VERTEX
  5
5FB
  8
DV4_0
  6
CONTINUOUS
 62
     7
 10
263.583322
 20
329.2175780059
 30
0.0
  0
VERTEX
  5
5FC
  8
DV4_0
  6
CONTINUOUS
 62
     7
 10
263.6681842697
 20
329.2147006036
 30
0.0
  0
VERTEX
  5
5FD
  8
DV4_0
  6
CONTINUOUS
 62
     7
 10
263.7526643525
 20
329.2113331998
 30
0.0
  0
VERTEX
  5
5FE
  8
DV4_0
  6
CONTINUOUS
 62
     7
 10
263.8367593489
 20
329.2074620872
 30
0.0
  0
VERTEX
  5
5FF
  8
DV4_0
  6
CONTINUOUS
 62
     7
 10
263.9204663597
 20
329.2030735586
 30
0.0
  0
VERTEX
  5
600
  8
DV4_0
  6
CONTINUOUS
 62
     7
 10
264.0037824854
 20
329.1981539065
 30
0.0
  0
VERTEX
  5
601
  8
DV4_0
  6
CONTINUOUS
 62
     7
 10
264.0867048266
 20
329.1926894237
 30
0.0
  0
VERTEX
  5
602
  8
DV4_0
  6
CONTINUOUS
 62
     7
 10
264.1692304838
 20
329.1866664029
 30
0.0
  0
VERTEX
  5
603
  8
DV4_0
  6
CONTINUOUS
 62
     7
 10
264.2513565577
 20
329.1800711368
 30
0.0
  0
VERTEX
  5
604
  8
DV4_0
  6
CONTINUOUS
 62
     7
 10
264.3330801489
 20
329.1728899181
 30
0.0
  0
VERTEX
  5
605
  8
DV4_0
  6
CONTINUOUS
 62
     7
 10
264.4143983578
 20
329.1651090394
 30
0.0
  0
VERTEX
  5
606
  8
DV4_0
  6
CONTINUOUS
 62
     7
 10
264.4953082853
 20
329.1567147934
 30
0.0
  0
VERTEX
  5
607
  8
DV4_0
  6
CONTINUOUS
 62
     7
 10
264.5758070317
 20
329.1476934729
 30
0.0
  0
VERTEX
  5
608
  8
DV4_0
  6
CONTINUOUS
 62
     7
 10
264.6558916977
 20
329.1380313705
 30
0.0
  0
VERTEX
  5
609
  8
DV4_0
  6
CONTINUOUS
 62
     7
 10
264.7355593839
 20
329.1277147789
 30
0.0
  0
VERTEX
  5
60A
  8
DV4_0
  6
CONTINUOUS
 62
     7
 10
264.8148071909
 20
329.1167299908
 30
0.0
  0
VERTEX
  5
60B
  8
DV4_0
  6
CONTINUOUS
 62
     7
 10
264.8936355508
 20
329.1050718719
 30
0.0
  0
VERTEX
  5
60C
  8
DV4_0
  6
CONTINUOUS
 62
     7
 10
264.9720453548
 20
329.0927121784
 30
0.0
  0
VERTEX
  5
60D
  8
DV4_0
  6
CONTINUOUS
 62
     7
 10
265.0500343919
 20
329.0796025385
 30
0.0
  0
VERTEX
  5
60E
  8
DV4_0
  6
CONTINUOUS
 62
     7
 10
265.1276004512
 20
329.0656945805
 30
0.0
  0
VERTEX
  5
60F
  8
DV4_0
  6
CONTINUOUS
 62
     7
 10
265.2047413217
 20
329.0509399328
 30
0.0
  0
VERTEX
  5
610
  8
DV4_0
  6
CONTINUOUS
 62
     7
 10
265.2814547925
 20
329.0352902235
 30
0.0
  0
VERTEX
  5
611
  8
DV4_0
  6
CONTINUOUS
 62
     7
 10
265.3577386527
 20
329.018697081
 30
0.0
  0
VERTEX
  5
612
  8
DV4_0
  6
CONTINUOUS
 62
     7
 10
265.4335906912
 20
329.0011121335
 30
0.0
  0
VERTEX
  5
613
  8
DV4_0
  6
CONTINUOUS
 62
     7
 10
265.5090086972
 20
328.9824870094
 30
0.0
  0
VERTEX
  5
614
  8
DV4_0
  6
CONTINUOUS
 62
     7
 10
265.5839904597
 20
328.9627733369
 30
0.0
  0
VERTEX
  5
615
  8
DV4_0
  6
CONTINUOUS
 62
     7
 10
265.6585337677
 20
328.9419227443
 30
0.0
  0
VERTEX
  5
616
  8
DV4_0
  6
CONTINUOUS
 62
     7
 10
265.7326364104
 20
328.9198868598
 30
0.0
  0
VERTEX
  5
617
  8
DV4_0
  6
CONTINUOUS
 62
     7
 10
265.8062961767
 20
328.8966173119
 30
0.0
  0
VERTEX
  5
618
  8
DV4_0
  6
CONTINUOUS
 62
     7
 10
265.8795108558
 20
328.8720657286
 30
0.0
  0
VERTEX
  5
619
  8
DV4_0
  6
CONTINUOUS
 62
     7
 10
265.9522782366
 20
328.8461837385
 30
0.0
  0
VERTEX
  5
61A
  8
DV4_0
  6
CONTINUOUS
 62
     7
 10
266.0245961083
 20
328.8189229696
 30
0.0
  0
VERTEX
  5
61B
  8
DV4_0
  6
CONTINUOUS
 62
     7
 10
266.0964622598
 20
328.7902350503
 30
0.0
  0
VERTEX
  5
61C
  8
DV4_0
  6
CONTINUOUS
 62
     7
 10
266.1678744803
 20
328.7600716089
 30
0.0
  0
VERTEX
  5
61D
  8
DV4_0
  6
CONTINUOUS
 62
     7
 10
266.2388305588
 20
328.7283842737
 30
0.0
  0
VERTEX
  5
61E
  8
DV4_0
  6
CONTINUOUS
 62
     7
 10
266.3093282844
 20
328.6951246729
 30
0.0
  0
VERTEX
  5
61F
  8
DV4_0
  6
CONTINUOUS
 62
     7
 10
266.379365446
 20
328.6602444348
 30
0.0
  0
VERTEX
  5
620
  8
DV4_0
  6
CONTINUOUS
 62
     7
 10
266.4489302895
 20
328.6237261544
 30
0.0
  0
VERTEX
  5
621
  8
DV4_0
  6
CONTINUOUS
 62
     7
 10
266.517993218
 20
328.5855133842
 30
0.0
  0
VERTEX
  5
622
  8
DV4_0
  6
CONTINUOUS
 62
     7
 10
266.5865252562
 20
328.5454991891
 30
0.0
  0
VERTEX
  5
623
  8
DV4_0
  6
CONTINUOUS
 62
     7
 10
266.6544974293
 20
328.5035766341
 30
0.0
  0
VERTEX
  5
624
  8
DV4_0
  6
CONTINUOUS
 62
     7
 10
266.7218807621
 20
328.4596387842
 30
0.0
  0
VERTEX
  5
625
  8
DV4_0
  6
CONTINUOUS
 62
     7
 10
266.7886462797
 20
328.4135787042
 30
0.0
  0
VERTEX
  5
626
  8
DV4_0
  6
CONTINUOUS
 62
     7
 10
266.8547650069
 20
328.3652894591
 30
0.0
  0
VERTEX
  5
627
  8
DV4_0
  6
CONTINUOUS
 62
     7
 10
266.9202079687
 20
328.3146641139
 30
0.0
  0
VERTEX
  5
628
  8
DV4_0
  6
CONTINUOUS
 62
     7
 10
266.9849461901
 20
328.2615957334
 30
0.0
  0
VERTEX
  5
629
  8
DV4_0
  6
CONTINUOUS
 62
     7
 10
267.048950696
 20
328.2059773826
 30
0.0
  0
VERTEX
  5
62A
  8
DV4_0
  6
CONTINUOUS
 62
     7
 10
267.1121925113
 20
328.1477021264
 30
0.0
  0
VERTEX
  5
62B
  8
DV4_0
  6
CONTINUOUS
 62
     7
 10
267.1746426612
 20
328.0866630298
 30
0.0
  0
VERTEX
  5
62C
  8
DV4_0
  6
CONTINUOUS
 62
     7
 10
267.2362721704
 20
328.0227531576
 30
0.0
  0
VERTEX
  5
62D
  8
DV4_0
  6
CONTINUOUS
 62
     7
 10
267.2970520639
 20
327.9558655749
 30
0.0
  0
VERTEX
  5
62E
  8
DV4_0
  6
CONTINUOUS
 62
     7
 10
267.3569533667
 20
327.8858933465
 30
0.0
  0
VERTEX
  5
62F
  8
DV4_0
  6
CONTINUOUS
 62
     7
 10
267.4159471038
 20
327.8127295375
 30
0.0
  0
VERTEX
  5
630
  8
DV4_0
  6
CONTINUOUS
 62
     7
 10
267.4740043
 20
327.7362672126
 30
0.0
  0
VERTEX
  5
631
  8
DV4_0
  6
CONTINUOUS
 62
     7
 10
267.5310959804
 20
327.6563994369
 30
0.0
  0
VERTEX
  5
632
  8
DV4_0
  6
CONTINUOUS
 62
     7
 10
267.58719317
 20
327.5730192753
 30
0.0
  0
VERTEX
  5
633
  8
DV4_0
  6
CONTINUOUS
 62
     7
 10
267.6422668935
 20
327.4860197927
 30
0.0
  0
VERTEX
  5
634
  8
DV4_0
  6
CONTINUOUS
 62
     7
 10
267.6962881761
 20
327.3952940541
 30
0.0
  0
VERTEX
  5
635
  8
DV4_0
  6
CONTINUOUS
 62
     7
 10
267.7492302248
 20
327.3005381979
 30
0.0
  0
VERTEX
  5
636
  8
DV4_0
  6
CONTINUOUS
 62
     7
 10
267.8009996493
 20
327.2014636665
 30
0.0
  0
VERTEX
  5
637
  8
DV4_0
  6
CONTINUOUS
 62
     7
 10
267.8514675778
 20
327.0979864806
 30
0.0
  0
VERTEX
  5
638
  8
DV4_0
  6
CONTINUOUS
 62
     7
 10
267.900505139
 20
326.9900226608
 30
0.0
  0
VERTEX
  5
639
  8
DV4_0
  6
CONTINUOUS
 62
     7
 10
267.9479834613
 20
326.8774882277
 30
0.0
  0
VERTEX
  5
63A
  8
DV4_0
  6
CONTINUOUS
 62
     7
 10
267.9937736733
 20
326.7602992022
 30
0.0
  0
VERTEX
  5
63B
  8
DV4_0
  6
CONTINUOUS
 62
     7
 10
268.0377469033
 20
326.6383716047
 30
0.0
  0
VERTEX
  5
63C
  8
DV4_0
  6
CONTINUOUS
 62
     7
 10
268.0797742799
 20
326.511621456
 30
0.0
  0
VERTEX
  5
63D
  8
DV4_0
  6
CONTINUOUS
 62
     7
 10
268.1197269315
 20
326.3799647768
 30
0.0
  0
VERTEX
  5
63E
  8
DV4_0
  6
CONTINUOUS
 62
     7
 10
268.1574759867
 20
326.2433175876
 30
0.0
  0
VERTEX
  5
63F
  8
DV4_0
  6
CONTINUOUS
 62
     7
 10
268.1928755349
 20
326.1015347345
 30
0.0
  0
VERTEX
  5
640
  8
DV4_0
  6
CONTINUOUS
 62
     7
 10
268.2256823926
 20
325.9543606916
 30
0.0
  0
VERTEX
  5
641
  8
DV4_0
  6
CONTINUOUS
 62
     7
 10
268.2557197823
 20
325.8021499216
 30
0.0
  0
VERTEX
  5
642
  8
DV4_0
  6
CONTINUOUS
 62
     7
 10
268.2828266236
 20
325.6453397841
 30
0.0
  0
VERTEX
  5
643
  8
DV4_0
  6
CONTINUOUS
 62
     7
 10
268.3068418359
 20
325.484367639
 30
0.0
  0
VERTEX
  5
644
  8
DV4_0
  6
CONTINUOUS
 62
     7
 10
268.3276043389
 20
325.3196708459
 30
0.0
  0
VERTEX
  5
645
  8
DV4_0
  6
CONTINUOUS
 62
     7
 10
268.3449530521
 20
325.1516867647
 30
0.0
  0
VERTEX
  5
646
  8
DV4_0
  6
CONTINUOUS
 62
     7
 10
268.3587268951
 20
324.9808527551
 30
0.0
  0
VERTEX
  5
647
  8
DV4_0
  6
CONTINUOUS
 62
     7
 10
268.3687647872
 20
324.8076061769
 30
0.0
  0
VERTEX
  5
648
  8
DV4_0
  6
CONTINUOUS
 62
     7
 10
268.3749056482
 20
324.6323843897
 30
0.0
  0
VERTEX
  5
649
  8
DV4_0
  6
CONTINUOUS
 62
     7
 10
268.3769883975
 20
324.4556247535
 30
0.0
  0
SEQEND
  5
64A
  8
DV4_0
  6
CONTINUOUS
 62
     7
  0
LINE
  5
183
  8
DV4_0
  6
CONTINUOUS
 62
     7
 10
255.7594347312
 20
324.4556247535
 30
0.0
 11
255.7594347312
 21
318.4556247535
 31
0.0
  0
LINE
  5
184
  8
DV4_0
  6
CONTINUOUS
 62
     7
 10
313.8409547034
 20
272.1556247535
 30
0.0
 11
266.8409547034
 21
272.1556247535
 31
0.0
  0
LINE
  5
185
  8
DV4_0
  6
CONTINUOUS
 62
     7
 10
313.8409547034
 20
268.6556247535
 30
0.0
 11
266.8409547034
 21
268.6556247535
 31
0.0
  0
LINE
  5
186
  8
DV4_0
  6
CONTINUOUS
 62
     7
 10
301.7427089544
 20
249.9698353018
 30
0.0
 11
278.9392004524
 21
249.9698353018
 31
0.0
  0
LINE
  5
187
  8
DV4_0
  6
CONTINUOUS
 62
     7
 10
313.0909547034
 20
254.1556247535
 30
0.0
 11
267.5909547034
 21
254.1556247535
 31
0.0
  0
POLYLINE
  5
188
  8
DV4_0
  6
CONTINUOUS
 62
     7
 66
     1
 10
0.0
 20
0.0
 30
0.0
  0
VERTEX
  5
64B
  8
DV4_0
  6
CONTINUOUS
 62
     7
 10
278.9392004524
 20
249.9698353018
 30
0.0
  0
VERTEX
  5
64C
  8
DV4_0
  6
CONTINUOUS
 62
     7
 10
278.7200344568
 20
250.0633076452
 30
0.0
  0
VERTEX
  5
64D
  8
DV4_0
  6
CONTINUOUS
 62
     7
 10
278.5011746147
 20
250.1574231832
 30
0.0
  0
VERTEX
  5
64E
  8
DV4_0
  6
CONTINUOUS
 62
     7
 10
278.282613134
 20
250.2521655452
 30
0.0
  0
VERTEX
  5
64F
  8
DV4_0
  6
CONTINUOUS
 62
     7
 10
278.0643422223
 20
250.3475183603
 30
0.0
  0
VERTEX
  5
650
  8
DV4_0
  6
CONTINUOUS
 62
     7
 10
277.8463540873
 20
250.4434652577
 30
0.0
  0
VERTEX
  5
651
  8
DV4_0
  6
CONTINUOUS
 62
     7
 10
277.6286409367
 20
250.5399898666
 30
0.0
  0
VERTEX
  5
652
  8
DV4_0
  6
CONTINUOUS
 62
     7
 10
277.4111949781
 20
250.6370758163
 30
0.0
  0
VERTEX
  5
653
  8
DV4_0
  6
CONTINUOUS
 62
     7
 10
277.1940084193
 20
250.7347067359
 30
0.0
  0
VERTEX
  5
654
  8
DV4_0
  6
CONTINUOUS
 62
     7
 10
276.9770734678
 20
250.8328662546
 30
0.0
  0
VERTEX
  5
655
  8
DV4_0
  6
CONTINUOUS
 62
     7
 10
276.7603823315
 20
250.9315380017
 30
0.0
  0
VERTEX
  5
656
  8
DV4_0
  6
CONTINUOUS
 62
     7
 10
276.5439272179
 20
251.0307056063
 30
0.0
  0
VERTEX
  5
657
  8
DV4_0
  6
CONTINUOUS
 62
     7
 10
276.3277003347
 20
251.1303526977
 30
0.0
  0
VERTEX
  5
658
  8
DV4_0
  6
CONTINUOUS
 62
     7
 10
276.1116938897
 20
251.2304629049
 30
0.0
  0
VERTEX
  5
659
  8
DV4_0
  6
CONTINUOUS
 62
     7
 10
275.8959000904
 20
251.3310198574
 30
0.0
  0
VERTEX
  5
65A
  8
DV4_0
  6
CONTINUOUS
 62
     7
 10
275.6803111447
 20
251.4320071841
 30
0.0
  0
VERTEX
  5
65B
  8
DV4_0
  6
CONTINUOUS
 62
     7
 10
275.4649192601
 20
251.5334085144
 30
0.0
  0
VERTEX
  5
65C
  8
DV4_0
  6
CONTINUOUS
 62
     7
 10
275.2497166443
 20
251.6352074775
 30
0.0
  0
VERTEX
  5
65D
  8
DV4_0
  6
CONTINUOUS
 62
     7
 10
275.034695505
 20
251.7373877024
 30
0.0
  0
VERTEX
  5
65E
  8
DV4_0
  6
CONTINUOUS
 62
     7
 10
274.81984805
 20
251.8399328186
 30
0.0
  0
VERTEX
  5
65F
  8
DV4_0
  6
CONTINUOUS
 62
     7
 10
274.6051664868
 20
251.942826455
 30
0.0
  0
VERTEX
  5
660
  8
DV4_0
  6
CONTINUOUS
 62
     7
 10
274.3906461945
 20
252.0460589037
 30
0.0
  0
VERTEX
  5
661
  8
DV4_0
  6
CONTINUOUS
 62
     7
 10
274.1762853489
 20
252.1496263321
 30
0.0
  0
VERTEX
  5
662
  8
DV4_0
  6
CONTINUOUS
 62
     7
 10
273.9620803528
 20
252.253521183
 30
0.0
  0
VERTEX
  5
663
  8
DV4_0
  6
CONTINUOUS
 62
     7
 10
273.748027609
 20
252.3577358989
 30
0.0
  0
VERTEX
  5
664
  8
DV4_0
  6
CONTINUOUS
 62
     7
 10
273.5341235203
 20
252.4622629226
 30
0.0
  0
VERTEX
  5
665
  8
DV4_0
  6
CONTINUOUS
 62
     7
 10
273.3203644894
 20
252.5670946967
 30
0.0
  0
VERTEX
  5
666
  8
DV4_0
  6
CONTINUOUS
 62
     7
 10
273.1067469193
 20
252.6722236641
 30
0.0
  0
VERTEX
  5
667
  8
DV4_0
  6
CONTINUOUS
 62
     7
 10
272.8932672126
 20
252.7776422672
 30
0.0
  0
VERTEX
  5
668
  8
DV4_0
  6
CONTINUOUS
 62
     7
 10
272.6799217722
 20
252.8833429488
 30
0.0
  0
VERTEX
  5
669
  8
DV4_0
  6
CONTINUOUS
 62
     7
 10
272.4667070009
 20
252.9893181517
 30
0.0
  0
VERTEX
  5
66A
  8
DV4_0
  6
CONTINUOUS
 62
     7
 10
272.2536193015
 20
253.0955603184
 30
0.0
  0
VERTEX
  5
66B
  8
DV4_0
  6
CONTINUOUS
 62
     7
 10
272.0406550767
 20
253.2020618916
 30
0.0
  0
VERTEX
  5
66C
  8
DV4_0
  6
CONTINUOUS
 62
     7
 10
271.8278107295
 20
253.3088153141
 30
0.0
  0
VERTEX
  5
66D
  8
DV4_0
  6
CONTINUOUS
 62
     7
 10
271.6150826625
 20
253.4158130285
 30
0.0
  0
VERTEX
  5
66E
  8
DV4_0
  6
CONTINUOUS
 62
     7
 10
271.4024672786
 20
253.5230474776
 30
0.0
  0
VERTEX
  5
66F
  8
DV4_0
  6
CONTINUOUS
 62
     7
 10
271.1899609806
 20
253.6305111039
 30
0.0
  0
VERTEX
  5
670
  8
DV4_0
  6
CONTINUOUS
 62
     7
 10
270.9775601713
 20
253.7381963502
 30
0.0
  0
VERTEX
  5
671
  8
DV4_0
  6
CONTINUOUS
 62
     7
 10
270.7652612535
 20
253.8460956591
 30
0.0
  0
VERTEX
  5
672
  8
DV4_0
  6
CONTINUOUS
 62
     7
 10
270.5530606299
 20
253.9542014734
 30
0.0
  0
VERTEX
  5
673
  8
DV4_0
  6
CONTINUOUS
 62
     7
 10
270.3409547034
 20
254.0625062357
 30
0.0
  0
SEQEND
  5
674
  8
DV4_0
  6
CONTINUOUS
 62
     7
  0
LINE
  5
189
  8
DV4_0
  6
CONTINUOUS
 62
     7
 10
278.9392004524
 20
242.7441799042
 30
0.0
 11
278.9392004524
 21
249.9698353018
 31
0.0
  0
LINE
  5
18A
  8
DV4_0
  6
CONTINUOUS
 62
     7
 10
301.7427089544
 20
249.9698353018
 30
0.0
 11
301.7427089544
 21
242.7441799042
 31
0.0
  0
LINE
  5
18B
  8
DV4_0
  6
CONTINUOUS
 62
     7
 10
310.9409547034
 20
247.1556247535
 30
0.0
 11
310.3409547034
 21
247.1556247535
 31
0.0
  0
LINE
  5
18C
  8
DV4_0
  6
CONTINUOUS
 62
     7
 10
296.1144575262
 20
306.6556247535
 30
0.0
 11
284.5674518807
 21
306.6556247535
 31
0.0
  0
LINE
  5
18D
  8
DV4_0
  6
CONTINUOUS
 62
     7
 10
296.1144575262
 20
292.0556247535
 30
0.0
 11
284.5674518807
 21
292.0556247535
 31
0.0
  0
LINE
  5
18E
  8
DV4_0
  6
CONTINUOUS
 62
     7
 10
296.1144575262
 20
292.0556247535
 30
0.0
 11
296.1144575262
 21
306.6556247535
 31
0.0
  0
LINE
  5
18F
  8
DV4_0
  6
CONTINUOUS
 62
     7
 10
301.8879603489
 20
306.6556247535
 30
0.0
 11
296.1144575262
 21
306.6556247535
 31
0.0
  0
LINE
  5
190
  8
DV4_0
  6
CONTINUOUS
 62
     7
 10
301.8879603489
 20
292.0556247535
 30
0.0
 11
296.1144575262
 21
292.0556247535
 31
0.0
  0
LINE
  5
191
  8
DV4_0
  6
CONTINUOUS
 62
     7
 10
301.8879603489
 20
292.0556247535
 30
0.0
 11
301.8879603489
 21
306.6556247535
 31
0.0
  0
LINE
  5
192
  8
DV4_0
  6
CONTINUOUS
 62
     7
 10
308.8161633175
 20
272.1556247535
 30
0.0
 11
308.8161633175
 21
283.4556247535
 31
0.0
  0
POLYLINE
  5
193
  8
DV4_0
  6
CONTINUOUS
 62
     7
 66
     1
 10
0.0
 20
0.0
 30
0.0
  0
VERTEX
  5
675
  8
DV4_0
  6
CONTINUOUS
 62
     7
 10
310.3409547034
 20
254.0625062357
 30
0.0
  0
VERTEX
  5
676
  8
DV4_0
  6
CONTINUOUS
 62
     7
 10
310.128848777
 20
253.9542014734
 30
0.0
  0
VERTEX
  5
677
  8
DV4_0
  6
CONTINUOUS
 62
     7
 10
309.9166481534
 20
253.8460956591
 30
0.0
  0
VERTEX
  5
678
  8
DV4_0
  6
CONTINUOUS
 62
     7
 10
309.7043492356
 20
253.7381963502
 30
0.0
  0
VERTEX
  5
679
  8
DV4_0
  6
CONTINUOUS
 62
     7
 10
309.4919484262
 20
253.6305111039
 30
0.0
  0
VERTEX
  5
67A
  8
DV4_0
  6
CONTINUOUS
 62
     7
 10
309.2794421282
 20
253.5230474776
 30
0.0
  0
VERTEX
  5
67B
  8
DV4_0
  6
CONTINUOUS
 62
     7
 10
309.0668267444
 20
253.4158130285
 30
0.0
  0
VERTEX
  5
67C
  8
DV4_0
  6
CONTINUOUS
 62
     7
 10
308.8540986774
 20
253.3088153141
 30
0.0
  0
VERTEX
  5
67D
  8
DV4_0
  6
CONTINUOUS
 62
     7
 10
308.6412543301
 20
253.2020618916
 30
0.0
  0
VERTEX
  5
67E
  8
DV4_0
  6
CONTINUOUS
 62
     7
 10
308.4282901054
 20
253.0955603184
 30
0.0
  0
VERTEX
  5
67F
  8
DV4_0
  6
CONTINUOUS
 62
     7
 10
308.215202406
 20
252.9893181517
 30
0.0
  0
VERTEX
  5
680
  8
DV4_0
  6
CONTINUOUS
 62
     7
 10
308.0019876347
 20
252.8833429488
 30
0.0
  0
VERTEX
  5
681
  8
DV4_0
  6
CONTINUOUS
 62
     7
 10
307.7886421943
 20
252.7776422672
 30
0.0
  0
VERTEX
  5
682
  8
DV4_0
  6
CONTINUOUS
 62
     7
 10
307.5751624876
 20
252.6722236641
 30
0.0
  0
VERTEX
  5
683
  8
DV4_0
  6
CONTINUOUS
 62
     7
 10
307.3615449174
 20
252.5670946967
 30
0.0
  0
VERTEX
  5
684
  8
DV4_0
  6
CONTINUOUS
 62
     7
 10
307.1477858866
 20
252.4622629226
 30
0.0
  0
VERTEX
  5
685
  8
DV4_0
  6
CONTINUOUS
 62
     7
 10
306.9338817979
 20
252.3577358989
 30
0.0
  0
VERTEX
  5
686
  8
DV4_0
  6
CONTINUOUS
 62
     7
 10
306.719829054
 20
252.253521183
 30
0.0
  0
VERTEX
  5
687
  8
DV4_0
  6
CONTINUOUS
 62
     7
 10
306.5056240579
 20
252.1496263321
 30
0.0
  0
VERTEX
  5
688
  8
DV4_0
  6
CONTINUOUS
 62
     7
 10
306.2912632124
 20
252.0460589037
 30
0.0
  0
VERTEX
  5
689
  8
DV4_0
  6
CONTINUOUS
 62
     7
 10
306.0767429201
 20
251.942826455
 30
0.0
  0
VERTEX
  5
68A
  8
DV4_0
  6
CONTINUOUS
 62
     7
 10
305.8620613569
 20
251.8399328186
 30
0.0
  0
VERTEX
  5
68B
  8
DV4_0
  6
CONTINUOUS
 62
     7
 10
305.6472139018
 20
251.7373877024
 30
0.0
  0
VERTEX
  5
68C
  8
DV4_0
  6
CONTINUOUS
 62
     7
 10
305.4321927626
 20
251.6352074775
 30
0.0
  0
VERTEX
  5
68D
  8
DV4_0
  6
CONTINUOUS
 62
     7
 10
305.2169901468
 20
251.5334085144
 30
0.0
  0
VERTEX
  5
68E
  8
DV4_0
  6
CONTINUOUS
 62
     7
 10
305.0015982622
 20
251.4320071841
 30
0.0
  0
VERTEX
  5
68F
  8
DV4_0
  6
CONTINUOUS
 62
     7
 10
304.7860093164
 20
251.3310198574
 30
0.0
  0
VERTEX
  5
690
  8
DV4_0
  6
CONTINUOUS
 62
     7
 10
304.5702155172
 20
251.2304629049
 30
0.0
  0
VERTEX
  5
691
  8
DV4_0
  6
CONTINUOUS
 62
     7
 10
304.3542090722
 20
251.1303526977
 30
0.0
  0
VERTEX
  5
692
  8
DV4_0
  6
CONTINUOUS
 62
     7
 10
304.137982189
 20
251.0307056063
 30
0.0
  0
VERTEX
  5
693
  8
DV4_0
  6
CONTINUOUS
 62
     7
 10
303.9215270754
 20
250.9315380017
 30
0.0
  0
VERTEX
  5
694
  8
DV4_0
  6
CONTINUOUS
 62
     7
 10
303.704835939
 20
250.8328662546
 30
0.0
  0
VERTEX
  5
695
  8
DV4_0
  6
CONTINUOUS
 62
     7
 10
303.4879009876
 20
250.7347067359
 30
0.0
  0
VERTEX
  5
696
  8
DV4_0
  6
CONTINUOUS
 62
     7
 10
303.2707144287
 20
250.6370758163
 30
0.0
  0
VERTEX
  5
697
  8
DV4_0
  6
CONTINUOUS
 62
     7
 10
303.0532684701
 20
250.5399898666
 30
0.0
  0
VERTEX
  5
698
  8
DV4_0
  6
CONTINUOUS
 62
     7
 10
302.8355553195
 20
250.4434652577
 30
0.0
  0
VERTEX
  5
699
  8
DV4_0
  6
CONTINUOUS
 62
     7
 10
302.6175671845
 20
250.3475183603
 30
0.0
  0
VERTEX
  5
69A
  8
DV4_0
  6
CONTINUOUS
 62
     7
 10
302.3992962728
 20
250.2521655452
 30
0.0
  0
VERTEX
  5
69B
  8
DV4_0
  6
CONTINUOUS
 62
     7
 10
302.1807347921
 20
250.1574231832
 30
0.0
  0
VERTEX
  5
69C
  8
DV4_0
  6
CONTINUOUS
 62
     7
 10
301.9618749501
 20
250.0633076452
 30
0.0
  0
VERTEX
  5
69D
  8
DV4_0
  6
CONTINUOUS
 62
     7
 10
301.7427089544
 20
249.9698353018
 30
0.0
  0
SEQEND
  5
69E
  8
DV4_0
  6
CONTINUOUS
 62
     7
  0
LINE
  5
194
  8
DV4_0
  6
CONTINUOUS
 62
     7
 10
277.7234010371
 20
324.4556247535
 30
0.0
 11
277.7234010371
 21
318.4556247535
 31
0.0
  0
LINE
  5
195
  8
DV4_0
  6
CONTINUOUS
 62
     7
 10
302.9585083698
 20
324.4556247535
 30
0.0
 11
302.9585083698
 21
318.4556247535
 31
0.0
  0
LINE
  5
196
  8
DV4_0
  6
CONTINUOUS
 62
     7
 10
313.8409547034
 20
268.1556247535
 30
0.0
 11
266.8409547034
 21
268.1556247535
 31
0.0
  0
LINE
  5
197
  8
DV4_0
  6
CONTINUOUS
 62
     7
 10
310.9409547034
 20
245.3607596762
 30
0.0
 11
310.3409547034
 21
245.3607596762
 31
0.0
  0
LINE
  5
198
  8
DV4_0
  6
CONTINUOUS
 62
     7
 10
310.9409547034
 20
240.6556247535
 30
0.0
 11
310.9409547034
 21
245.3607596762
 31
0.0
  0
LINE
  5
199
  8
DV4_0
  6
CONTINUOUS
 62
     7
 10
310.9409547034
 20
245.3607596762
 30
0.0
 11
310.9409547034
 21
247.1556247535
 31
0.0
  0
LINE
  5
19A
  8
DV4_0
  6
CONTINUOUS
 62
     7
 10
310.9409547034
 20
240.6556247535
 30
0.0
 11
310.3409547034
 21
240.6556247535
 31
0.0
  0
ARC
  5
19B
  8
DV4_0
  6
CONTINUOUS
 62
     7
 10
320.3409547034
 20
324.4556247535
 30
0.0
 40
5.000000000000004
 50
0.0
 51
90.0
  0
ARC
  5
19C
  8
DV4_0
  6
CONTINUOUS
 62
     7
 10
260.3409547034
 20
324.4556247535
 30
0.0
 40
5.000000000000004
 50
90.0
 51
180.0
  0
LINE
  5
19D
  8
DV4_0
  6
CONTINUOUS
 62
     7
 10
320.3409547034
 20
329.4556247535
 30
0.0
 11
260.3409547034
 21
329.4556247535
 31
0.0
  0
LINE
  5
19E
  8
DV4_0
  6
CONTINUOUS
 62
     7
 10
266.8409547034
 20
263.5886374554
 30
0.0
 11
267.5909547034
 21
263.1556247535
 31
0.0
  0
LINE
  5
19F
  8
DV4_0
  6
CONTINUOUS
 62
     7
 10
313.0909547034
 20
263.1556247535
 30
0.0
 11
313.8409547034
 21
263.5886374554
 31
0.0
  0
LINE
  5
1A0
  8
DV4_0
  6
CONTINUOUS
 62
     7
 10
294.6909547034
 20
306.6556247535
 30
0.0
 11
294.6909547034
 21
310.4556247535
 31
0.0
  0
LINE
  5
1A1
  8
DV4_0
  6
CONTINUOUS
 62
     7
 10
285.9909547034
 20
310.4556247535
 30
0.0
 11
285.9909547034
 21
306.6556247535
 31
0.0
  0
LINE
  5
1A2
  8
DV4_0
  6
CONTINUOUS
 62
     7
 10
313.8409547034
 20
268.6556247535
 30
0.0
 11
313.8409547034
 21
272.1556247535
 31
0.0
  0
LINE
  5
1A3
  8
DV4_0
  6
CONTINUOUS
 62
     7
 10
266.8409547034
 20
272.1556247535
 30
0.0
 11
266.8409547034
 21
268.6556247535
 31
0.0
  0
LINE
  5
1A4
  8
DV4_0
  6
CONTINUOUS
 62
     7
 10
267.5909547034
 20
254.1556247535
 30
0.0
 11
270.3401387173
 21
252.568382623
 31
0.0
  0
LINE
  5
1A5
  8
DV4_0
  6
CONTINUOUS
 62
     7
 10
310.3417706896
 20
252.568382623
 30
0.0
 11
313.0909547034
 21
254.1556247535
 31
0.0
  0
LINE
  5
1A6
  8
DV4_0
  6
CONTINUOUS
 62
     7
 10
299.3409547034
 20
283.4556247535
 30
0.0
 11
299.3409547034
 21
292.0556247535
 31
0.0
  0
LINE
  5
1A7
  8
DV4_0
  6
CONTINUOUS
 62
     7
 10
281.3409547034
 20
292.0556247535
 30
0.0
 11
281.3409547034
 21
283.4556247535
 31
0.0
  0
LINE
  5
1A8
  8
DV4_0
  6
CONTINUOUS
 62
     7
 10
255.3409547034
 20
324.4556247535
 30
0.0
 11
255.3409547034
 21
318.4556247535
 31
0.0
  0
LINE
  5
1A9
  8
DV4_0
  6
CONTINUOUS
 62
     7
 10
313.8409547034
 20
263.5886374554
 30
0.0
 11
313.8409547034
 21
268.1556247535
 31
0.0
  0
LINE
  5
1AA
  8
DV4_0
  6
CONTINUOUS
 62
     7
 10
266.8409547034
 20
268.1556247535
 30
0.0
 11
266.8409547034
 21
263.5886374554
 31
0.0
  0
LINE
  5
1AB
  8
DV4_0
  6
CONTINUOUS
 62
     7
 10
313.8409547034
 20
268.1556247535
 30
0.0
 11
313.3409547034
 21
268.6556247535
 31
0.0
  0
LINE
  5
1AC
  8
DV4_0
  6
CONTINUOUS
 62
     7
 10
267.3409547034
 20
268.6556247535
 30
0.0
 11
266.8409547034
 21
268.1556247535
 31
0.0
  0
LINE
  5
1AD
  8
DV4_0
  6
CONTINUOUS
 62
     7
 10
325.3409547034
 20
318.4556247535
 30
0.0
 11
325.3409547034
 21
324.4556247535
 31
0.0
  0
LINE
  5
1AE
  8
DV4_0
  6
CONTINUOUS
 62
     7
 10
313.0909547034
 20
254.1556247535
 30
0.0
 11
313.0909547034
 21
263.1556247535
 31
0.0
  0
LINE
  5
1AF
  8
DV4_0
  6
CONTINUOUS
 62
     7
 10
267.5909547034
 20
263.1556247535
 30
0.0
 11
267.5909547034
 21
254.1556247535
 31
0.0
  0
ENDBLK
  5
1B1
  8
0
  0
ENDSEC
  0
SECTION
  2
ENTITIES
  0
INSERT
  5
3D
  8
DEFAULT
  2
SE
 10
0.0
 20
0.0
 30
0.0
  0
INSERT
  5
BA
  8
DEFAULT
  2
SE1
 10
0.0
 20
0.0
 30
0.0
  0
INSERT
  5
101
  8
DEFAULT
  2
SE2
 10
0.0
 20
0.0
 30
0.0
  0
INSERT
  5
15C
  8
DEFAULT
  2
SE3
 10
0.0
 20
0.0
 30
0.0
  0
ENDSEC
  0
EOF
