  0
SECTION
  2
HEADER
  9
$ACADVER
  1
AC1014
  9
$ACADMAINTVER
 70
         0
  9
$DWGCODEPAGE
  3
ANSI_1252
  9
$INSBASE
 10
0.0
 20
0.0
 30
0.0
  9
$EXTMIN
 10
0.0
 20
0.0
 30
0.0
  9
$EXTMAX
 10
420.0
 20
297.0
 30
0.0
  9
$LIMMIN
 10
0.0
 20
0.0
  9
$LIMMAX
 10
420.0
 20
297.0
  9
$ORTHOMODE
 70
         0
  9
$REGENMODE
 70
         1
  9
$FILLMODE
 70
         1
  9
$QTEXTMODE
 70
         0
  9
$MIRRTEXT
 70
         1
  9
$DRAGMODE
 70
         2
  9
$LTSCALE
 40
25.4
  9
$OSMODE
 70
         0
  9
$ATTMODE
 70
         1
  9
$TEXTSIZE
 40
0.2
  9
$TRACEWID
 40
0.05
  9
$TEXTSTYLE
  7
Standard
  9
$CLAYER
  8
0
  9
$CELTYPE
  6
CONTINUOUS
  9
$CECOLOR
 62
       256
  9
$CELTSCALE
 40
1.0
  9
$DELOBJ
 70
         1
  9
$DISPSILH
 70
         0
  9
$DIMSCALE
 40
1.0
  9
$DIMASZ
 40
0.18
  9
$DIMEXO
 40
0.0625
  9
$DIMDLI
 40
0.38
  9
$DIMRND
 40
0.0
  9
$DIMDLE
 40
0.0
  9
$DIMEXE
 40
0.18
  9
$DIMTP
 40
0.0
  9
$DIMTM
 40
0.0
  9
$DIMTXT
 40
0.18
  9
$DIMCEN
 40
0.09
  9
$DIMTSZ
 40
0.0
  9
$DIMTOL
 70
         0
  9
$DIMLIM
 70
         0
  9
$DIMTIH
 70
         1
  9
$DIMTOH
 70
         1
  9
$DIMSE1
 70
         0
  9
$DIMSE2
 70
         0
  9
$DIMTAD
 70
         0
  9
$DIMZIN
 70
         0
  9
$DIMBLK
  1

  9
$DIMASO
 70
         1
  9
$DIMSHO
 70
         1
  9
$DIMPOST
  1

  9
$DIMAPOST
  1

  9
$DIMALT
 70
         0
  9
$DIMALTD
 70
         2
  9
$DIMALTF
 40
25.4
  9
$DIMLFAC
 40
1.0
  9
$DIMTOFL
 70
         0
  9
$DIMTVP
 40
0.0
  9
$DIMTIX
 70
         0
  9
$DIMSOXD
 70
         0
  9
$DIMSAH
 70
         0
  9
$DIMBLK1
  1

  9
$DIMBLK2
  1

  9
$DIMSTYLE
  2
Standard
  9
$DIMCLRD
 70
         0
  9
$DIMCLRE
 70
         0
  9
$DIMCLRT
 70
         0
  9
$DIMTFAC
 40
1.0
  9
$DIMGAP
 40
0.09
  9
$DIMJUST
 70
         0
  9
$DIMSD1
 70
         0
  9
$DIMSD2
 70
         0
  9
$DIMTOLJ
 70
         1
  9
$DIMTZIN
 70
         0
  9
$DIMALTZ
 70
         0
  9
$DIMALTTZ
 70
         0
  9
$DIMFIT
 70
         3
  9
$DIMUPT
 70
         0
  9
$DIMUNIT
 70
         2
  9
$DIMDEC
 70
         4
  9
$DIMTDEC
 70
         4
  9
$DIMALTU
 70
         2
  9
$DIMALTTD
 70
         2
  9
$DIMTXSTY
  7
Standard
  9
$DIMAUNIT
 70
         0
  9
$LUNITS
 70
         2
  9
$LUPREC
 70
         4
  9
$SKETCHINC
 40
0.1
  9
$FILLETRAD
 40
0.0
  9
$AUNITS
 70
         0
  9
$AUPREC
 70
         0
  9
$MENU
  1
acad
  9
$ELEVATION
 40
0.0
  9
$PELEVATION
 40
0.0
  9
$THICKNESS
 40
0.0
  9
$LIMCHECK
 70
         0
  9
$BLIPMODE
 70
         1
  9
$CHAMFERA
 40
0.0
  9
$CHAMFERB
 40
0.0
  9
$CHAMFERC
 40
0.0
  9
$CHAMFERD
 40
0.0
  9
$SKPOLY
 70
         0
  9
$TDCREATE
 40
0.000000000
  9
$TDUPDATE
 40
0.000000000
  9
$TDINDWG
 40
0.0000000000
  9
$TDUSRTIMER
 40
0.0000000000
  9
$USRTIMER
 70
         1
  9
$ANGBASE
 50
0.0
  9
$ANGDIR
 70
         0
  9
$PDMODE
 70
         0
  9
$PDSIZE
 40
0.0
  9
$PLINEWID
 40
0.0
  9
$COORDS
 70
         0
  9
$SPLFRAME
 70
         0
  9
$SPLINETYPE
 70
         6
  9
$SPLINESEGS
 70
         8
  9
$ATTDIA
 70
         0
  9
$ATTREQ
 70
         1
  9
$HANDLING
 70
         1
  9
$HANDSEED
  5
211
  9
$SURFTAB1
 70
         6
  9
$SURFTAB2
 70
         6
  9
$SURFTYPE
 70
         6
  9
$SURFU
 70
         6
  9
$SURFV
 70
         6
  9
$UCSNAME
  2

  9
$UCSORG
 10
0.0
 20
0.0
 30
0.0
  9
$UCSXDIR
 10
1.0
 20
0.0
 30
0.0
  9
$UCSYDIR
 10
0.0
 20
1.0
 30
0.0
  9
$PUCSNAME
  2

  9
$PUCSORG
 10
0.0
 20
0.0
 30
0.0
  9
$PUCSXDIR
 10
1.0
 20
0.0
 30
0.0
  9
$PUCSYDIR
 10
0.0
 20
1.0
 30
0.0
  9
$USERI1
 70
         0
  9
$USERI2
 70
         0
  9
$USERI3
 70
         0
  9
$USERI4
 70
         0
  9
$USERI5
 70
         0
  9
$USERR1
 40
0.0
  9
$USERR2
 40
0.0
  9
$USERR3
 40
0.0
  9
$USERR4
 40
0.0
  9
$USERR5
 40
0.0
  9
$WORLDVIEW
 70
         1
  9
$SHADEDGE
 70
         3
  9
$SHADEDIF
 70
        70
  9
$TILEMODE
 70
         1
  9
$MAXACTVP
 70
        16
  9
$PINSBASE
 10
0.0
 20
0.0
 30
0.0
  9
$PLIMCHECK
 70
         0
  9
$PEXTMIN
 10
1.0000000000E+20
 20
1.0000000000E+20
 30
1.0000000000E+20
  9
$PEXTMAX
 10
-1.0000000000E+20
 20
-1.0000000000E+20
 30
-1.0000000000E+20
  9
$PLIMMIN
 10
0.0
 20
0.0
  9
$PLIMMAX
 10
12.0
 20
9.0
  9
$UNITMODE
 70
         0
  9
$VISRETAIN
 70
         0
  9
$PLINEGEN
 70
         1
  9
$PSLTSCALE
 70
         0
  9
$TREEDEPTH
 70
      3020
  9
$PICKSTYLE
 70
         1
  9
$CMLSTYLE
  2
Standard
  9
$CMLJUST
 70
         0
  9
$CMLSCALE
 40
1.0
  9
$PROXYGRAPHICS
 70
         0
  9
$MEASUREMENT
 70
         0
  0
ENDSEC
  0
SECTION
  2
CLASSES
  0
CLASS
  1
LWPOLYLINE
  2
AcDbPolyline
  3
"AutoCAD"
 90
        0
280
         0
281
         1
  0
CLASS
  1
IMAGE
  2
AcDbRasterImage
  3
ISM
 90
      127
280
         0
281
         1
  0
CLASS
  1
OLE2FRAME
  2
AcDbOle2Frame
  3
""
 90
        0
280
         0
281
         1
  0
CLASS
  1
HATCH
  2
AcDbHatch
  3
"ACAD_SEDONA"
 90
        0
280
         0
281
         1
  0
CLASS
  1
DICTIONARYVAR
  2
AcDbDictionaryVar
  3
"AutoCAD"
 90
        0
280
         0
281
         0
  0
CLASS
  1
RASTERVARIABLES
  2
AcDbRasterVariables
  3
ISM
 90
        0
280
         0
281
         0
  0
CLASS
  1
IMAGEDEF
  2
AcDbRasterImageDef
  3
ISM
 90
        0
280
         0
281
         0
  0
CLASS
  1
IMAGEDEF_REACTOR
  2
AcDbRasterImageDefReactor
  3
ISM
 90
        1
280
         0
281
         0
  0
CLASS
  1
IDBUFFER
  2
AcDbIdBuffer
  3
"Acad"
 90
        0
280
         0
281
         0
  0
CLASS
  1
SPATIAL_FILTER
  2
AcDbSpatialFilter
  3
"Acad"
 90
        0
280
         0
281
         0
  0
CLASS
  1
XRECORD
  2
AcDbXrecord
  3
"<Built In>"
 90
        0
280
         0
281
         0
  0
CLASS
  1
SORTENTSTABLE
  2
AcDbSortentsTable
  3
"AutoCAD"
 90
        0
280
         0
281
         0
  0
CLASS
  1
LAYER_INDEX
  2
AcDbLayerIndex
  3
"Acad"
 90
        0
280
         0
281
         0
  0
CLASS
  1
SPATIAL_INDEX
  2
AcDbSpatialIndex
  3
"Acad"
 90
        0
280
         0
281
         0
  0
CLASS
  1
OBJECT_PTR
  2
CAseDLPNTableRecord
  3
"ASE-LPNTableRecord"
 90
        1
280
         0
281
         0
  0
CLASS
  1
LAYOUT
  2
AcDbLayout
  3
"AutoCAD 2000"
 90
        1
280
         0
281
         0
  0
CLASS
  1
PLOTSETTINGS
  2
AcDbPlotSettings
  3
"AutoCAD 2000"
 90
        1
280
         0
281
         0
  0
CLASS
  1
ACDBDICTIONARYWDFLT
  2
AcDbDictionaryWithDefault
  3
"AutoCAD 2000"
 90
        1
280
         0
281
         0
  0
CLASS
  1
ACDBPLACEHOLDER
  2
AcDbPlaceHolder
  3
"AutoCAD 2000"
 90
        1
280
         0
281
         0
  0
CLASS
  1
VBA_PROJECT
  2
AcDbVbaProject
  3
"acadvba"
 90
        1
280
         0
281
         0
  0
CLASS
  1
WIPEOUT
  2
AcDbWipeout
  3
WipeOut|AutoCAD Express Tool|expresstools@autodesk.com
 90
      127
280
         0
281
         1
  0
CLASS
  1
WIPEOUTVARIABLES
  2
AcDbWipeoutVariables
  3
WipeOut|AutoCAD Express Tool|expresstools@autodesk.com
 90
        0
280
         0
281
         0
  0
CLASS
  1
RTEXT
  2
RText
  3
RText|AutoCAD Express Tool|expresstools@autodesk.com
 90
        0
280
         0
281
         1
  0
CLASS
  1
ARCALIGNEDTEXT
  2
AcDbArcAlignedText
  3
ATEXT|AutoCAD Express Tool|expresstools@autodesk.com
 90
        0
280
         0
281
         1
  0
ENDSEC
  0
SECTION
  2
TABLES
  0
TABLE
  2
VPORT
  5
7
100
AcDbSymbolTable
 70
         1
  0
VPORT
  5
15
100
AcDbSymbolTableRecord
100
AcDbViewportTableRecord
  2
*ACTIVE
 70
         0
 10
0.0
 20
0.0
 11
1.0
 21
1.0
 12
210.0
 22
148.5
 13
0.0
 23
0.0
 14
1.0
 24
1.0
 15
0.0
 25
0.0
 16
0.0
 26
0.0
 36
1.0
 17
0.0
 27
0.0
 37
0.0
 40
297.0
 41
1.604229
 42
50.0
 43
0.0
 44
0.0
 50
0.0
 51
0.0
 71
         0
 72
       100
 73
         1
 74
         1
 75
         0
 76
         0
 77
         0
 78
         0
  0
ENDTAB
  0
TABLE
  2
LTYPE
  5
4
100
AcDbSymbolTable
 70
         7
  0
LTYPE
  5
11
100
AcDbSymbolTableRecord
100
AcDbLinetypeTableRecord
  2
ByBlock
 70
        64
  3

 72
        65
 73
         0
 40
0.0
  0
LTYPE
  5
12
100
AcDbSymbolTableRecord
100
AcDbLinetypeTableRecord
  2
ByLayer
 70
        64
  3

 72
        65
 73
         0
 40
0.0
  0
LTYPE
  5
13
100
AcDbSymbolTableRecord
100
AcDbLinetypeTableRecord
  2
CONTINUOUS
 70
         0
  3
Solid line
 72
        65
 73
         0
 40
0.0
  0
LTYPE
  5
28
100
AcDbSymbolTableRecord
100
AcDbLinetypeTableRecord
  2
HIDDEN2
 70
        64
  3
_ _ _ _ _ _ _ _ _ _ _ _ _ _ _ _ _ _ _ _ _ _ _ _
 72
        65
 73
         2
 40
0.1875
 49
0.125
 74
         0
 49
-0.0625
 74
         0
  0
LTYPE
  5
29
100
AcDbSymbolTableRecord
100
AcDbLinetypeTableRecord
  2
CENTER2
 70
        64
  3
___ _ ___ _ ___ _ ___ _ ___ _ ___ _ ___ _ ___ _
 72
        65
 73
         4
 40
1.125
 49
0.75
 74
         0
 49
-0.125
 74
         0
 49
0.125
 74
         0
 49
-0.125
 74
         0
  0
LTYPE
  5
2A
100
AcDbSymbolTableRecord
100
AcDbLinetypeTableRecord
  2
PHANTOM2
 70
        64
  3
___ _ _ ___ _ _ ___ _ _ ___ _ _ ___ _ _ ___ _ _
 72
        65
 73
         6
 40
1.25
 49
0.625
 74
         0
 49
-0.125
 74
         0
 49
0.125
 74
         0
 49
-0.125
 74
         0
 49
0.125
 74
         0
 49
-0.125
 74
         0
  0
LTYPE
  5
2B
100
AcDbSymbolTableRecord
100
AcDbLinetypeTableRecord
  2
DOT2
 70
        64
  3
...............................................
 72
        65
 73
         2
 40
0.125
 49
0.0
 74
         0
 49
-0.125
 74
         0
  0
ENDTAB
  0
TABLE
  2
LAYER
  5
2
100
AcDbSymbolTable
 70
         3
  0
LAYER
  5
14
100
AcDbSymbolTableRecord
100
AcDbLayerTableRecord
  2
0
 70
         0
 62
         7
  6
CONTINUOUS
  0
LAYER
  5
2D
100
AcDbSymbolTableRecord
100
AcDbLayerTableRecord
  2
DEFAULT
 70
         0
 62
         7
  6
CONTINUOUS
  0
LAYER
  5
37
100
AcDbSymbolTableRecord
100
AcDbLayerTableRecord
  2
51060040
 70
         0
 62
         7
  6
CONTINUOUS
  0
ENDTAB
  0
TABLE
  2
STYLE
  5
3
100
AcDbSymbolTable
 70
         1
  0
STYLE
  5
17
100
AcDbSymbolTableRecord
100
AcDbTextStyleTableRecord
  2
Standard
 70
         0
 40
0.0
 41
1.0
 50
0.0
 71
         0
 42
0.2
  3
txt
  4

  0
ENDTAB
  0
TABLE
  2
VIEW
  5
5
100
AcDbSymbolTable
 70
         0
  0
ENDTAB
  0
TABLE
  2
UCS
  5
6
100
AcDbSymbolTable
 70
         0
  0
ENDTAB
  0
TABLE
  2
APPID
  5
8
100
AcDbSymbolTable
 70
         1
  0
APPID
  5
16
100
AcDbSymbolTableRecord
100
AcDbRegAppTableRecord
  2
ACAD
 70
         0
  0
ENDTAB
  0
TABLE
  2
DIMSTYLE
  5
9
100
AcDbSymbolTable
 70
         1
  0
DIMSTYLE
105
18
100
AcDbSymbolTableRecord
100
AcDbDimStyleTableRecord
  2
Standard
 70
         0
  3

  4

  5

  6

  7

 40
1.0
 41
0.18
 42
0.0625
 43
0.38
 44
0.18
 45
0.0
 46
0.0
 47
0.0
 48
0.0
 71
         0
 72
         0
 73
         1
 74
         1
 75
         0
 76
         0
 77
         0
 78
         0
140
0.18
141
0.09
142
0.0
143
25.4
144
1.0
145
0.0
146
1.0
147
0.09
170
         0
171
         2
172
         0
173
         0
174
         0
175
         0
176
         0
177
         0
178
         0
270
         2
271
         4
272
         4
273
         2
274
         2
275
         0
280
         0
281
         0
282
         0
283
         1
284
         0
285
         0
286
         0
287
         0
288
         0
340
17
  0
ENDTAB
  0
TABLE
  2
BLOCK_RECORD
  5
1
100
AcDbSymbolTable
 70
         8
  0
BLOCK_RECORD
  5
A
100
AcDbSymbolTableRecord
100
AcDbBlockTableRecord
  2
*MODEL_SPACE
  0
BLOCK_RECORD
  5
B
100
AcDbSymbolTableRecord
100
AcDbBlockTableRecord
  2
*PAPER_SPACE
  0
BLOCK_RECORD
  5
38
100
AcDbSymbolTableRecord
100
AcDbBlockTableRecord
  2
SE0
  0
BLOCK_RECORD
  5
39
100
AcDbSymbolTableRecord
100
AcDbBlockTableRecord
  2
SE1
  0
BLOCK_RECORD
  5
3F
100
AcDbSymbolTableRecord
100
AcDbBlockTableRecord
  2
SE2
  0
BLOCK_RECORD
  5
40
100
AcDbSymbolTableRecord
100
AcDbBlockTableRecord
  2
SE3
  0
BLOCK_RECORD
  5
46
100
AcDbSymbolTableRecord
100
AcDbBlockTableRecord
  2
SE4
  0
BLOCK_RECORD
  5
47
100
AcDbSymbolTableRecord
100
AcDbBlockTableRecord
  2
SE5
  0
BLOCK_RECORD
  5
4D
100
AcDbSymbolTableRecord
100
AcDbBlockTableRecord
  2
SE6
  0
BLOCK_RECORD
  5
4E
100
AcDbSymbolTableRecord
100
AcDbBlockTableRecord
  2
SE7
  0
ENDTAB
  0
ENDSEC
  0
SECTION
  2
BLOCKS
  0
BLOCK
  5
D
100
AcDbEntity
  8
0
100
AcDbBlockBegin
  2
*MODEL_SPACE
 70
         0
 10
0.0
 20
0.0
 30
0.0
  3
*MODEL_SPACE
  1

  0
ENDBLK
  5
E
100
AcDbEntity
  8
0
100
AcDbBlockEnd
  0
BLOCK
  5
F
100
AcDbEntity
 67
         1
  8
0
100
AcDbBlockBegin
  2
*PAPER_SPACE
 70
         0
 10
0.0
 20
0.0
 30
0.0
  3
*PAPER_SPACE
  1

  0
ENDBLK
  5
10
100
AcDbEntity
 67
         1
  8
0
100
AcDbBlockEnd
  0
BLOCK
  5
DC
100
AcDbEntity
  8
0
 62
         1
 48
0.0
100
AcDbBlockBegin
  2
SE0
 70
         0
 10
0.0
 20
0.0
 30
0.0
  3
SE0
  1

  0
ENDBLK
  5
DD
100
AcDbEntity
  8
0
 62
         1
 48
0.0
100
AcDbBlockEnd
  0
BLOCK
  5
54
100
AcDbEntity
  8
0
 62
         1
 48
0.0
100
AcDbBlockBegin
  2
SE1
 70
         0
 10
0.0
 20
0.0
 30
0.0
  3
SE1
  1

  0
ARC
  5
55
100
AcDbEntity
  8
51060040
  6
CONTINUOUS
 62
         7
100
AcDbCircle
 10
20.9063091055
 20
65.2453586244
 30
0.0
 40
12.6762050942
100
AcDbArc
 50
158.7377372552
 51
201.2622627448
  0
ARC
  5
56
100
AcDbEntity
  8
51060040
  6
CONTINUOUS
 62
         7
100
AcDbCircle
 10
-52.0093832365
 20
49.5506717201
 30
0.0
 40
71.5909388258
100
AcDbArc
 50
351.0822121515
 51
8.9177878485
  0
ARC
  5
57
100
AcDbEntity
  8
51060040
  6
CONTINUOUS
 62
         7
100
AcDbCircle
 10
17.4001750915
 20
49.5506717201
 30
0.0
 40
71.5909388258
100
AcDbArc
 50
351.0822121515
 51
8.9177878485
  0
ARC
  5
58
100
AcDbEntity
  8
51060040
  6
CONTINUOUS
 62
         7
100
AcDbCircle
 10
76.3123680969
 20
11.6603457387
 30
0.0
 40
12.6762050942
100
AcDbArc
 50
338.7377372552
 51
21.2622627448
  0
ARC
  5
59
100
AcDbEntity
  8
51060040
  6
CONTINUOUS
 62
         7
100
AcDbCircle
 10
17.4001750915
 20
27.355032643
 30
0.0
 40
71.5909388258
100
AcDbArc
 50
351.0822121515
 51
8.9177878485
  0
ARC
  5
5A
100
AcDbEntity
  8
51060040
  6
CONTINUOUS
 62
         7
100
AcDbCircle
 10
6.9028097689
 20
11.6603457387
 30
0.0
 40
12.6762050942
100
AcDbArc
 50
338.7377372552
 51
21.2622627448
  0
ARC
  5
5B
100
AcDbEntity
  8
51060040
  6
CONTINUOUS
 62
         7
100
AcDbCircle
 10
76.3123680969
 20
65.2453586244
 30
0.0
 40
12.6762050942
100
AcDbArc
 50
338.7377372552
 51
21.2622627448
  0
ARC
  5
5C
100
AcDbEntity
  8
51060040
  6
CONTINUOUS
 62
         7
100
AcDbCircle
 10
-52.0093832365
 20
27.355032643
 30
0.0
 40
71.5909388258
100
AcDbArc
 50
351.0822121515
 51
8.9177878485
  0
ARC
  5
5D
100
AcDbEntity
  8
51060040
  6
CONTINUOUS
 62
         7
100
AcDbCircle
 10
20.9063091055
 20
11.6603457387
 30
0.0
 40
12.6762050942
100
AcDbArc
 50
158.7377372552
 51
201.2622627448
  0
ARC
  5
5E
100
AcDbEntity
  8
51060040
  6
CONTINUOUS
 62
         7
100
AcDbCircle
 10
79.818502111
 20
27.355032643
 30
0.0
 40
71.5909388258
100
AcDbArc
 50
171.0822121515
 51
188.9177878485
  0
ARC
  5
5F
100
AcDbEntity
  8
51060040
  6
CONTINUOUS
 62
         7
100
AcDbCircle
 10
90.3158674335
 20
11.6603457387
 30
0.0
 40
12.6762050942
100
AcDbArc
 50
158.7377372552
 51
201.2622627448
  0
LINE
  5
60
100
AcDbEntity
  8
51060040
  6
CONTINUOUS
 62
         7
100
AcDbLine
 10
88.1257074221
 20
16.2572131044
 30
0.0
 11
78.5025281083
 21
16.2572131044
 31
0.0
  0
LINE
  5
61
100
AcDbEntity
  8
51060040
  6
CONTINUOUS
 62
         7
100
AcDbLine
 10
88.1257074221
 20
7.0634783731
 30
0.0
 11
78.5025281083
 21
7.0634783731
 31
0.0
  0
LINE
  5
62
100
AcDbEntity
  8
51060040
  6
CONTINUOUS
 62
         7
100
AcDbLine
 10
88.1257074221
 20
69.84222599
 30
0.0
 11
78.5025281083
 21
69.84222599
 31
0.0
  0
LINE
  5
63
100
AcDbEntity
  8
51060040
  6
CONTINUOUS
 62
         7
100
AcDbLine
 10
88.1257074221
 20
38.4528521815
 30
0.0
 11
78.5025281083
 21
38.4528521815
 31
0.0
  0
LINE
  5
64
100
AcDbEntity
  8
51060040
  6
CONTINUOUS
 62
         7
100
AcDbLine
 10
86.6093386012
 20
176.2528521815
 30
0.0
 11
10.6093386012
 21
176.2528521815
 31
0.0
  0
LINE
  5
65
100
AcDbEntity
  8
51060040
  6
CONTINUOUS
 62
         7
100
AcDbLine
 10
17.8593386012
 20
88.9528521815
 30
0.0
 11
17.8593386012
 21
79.9528521815
 31
0.0
  0
LINE
  5
66
100
AcDbEntity
  8
51060040
  6
CONTINUOUS
 62
         7
100
AcDbLine
 10
79.3593386012
 20
88.9528521815
 30
0.0
 11
80.1093386012
 21
89.3858648834
 31
0.0
  0
LINE
  5
67
100
AcDbEntity
  8
51060040
  6
CONTINUOUS
 62
         7
100
AcDbLine
 10
17.1093386012
 20
94.4528521815
 30
0.0
 11
17.1093386012
 21
89.3858648834
 31
0.0
  0
LINE
  5
68
100
AcDbEntity
  8
51060040
  6
CONTINUOUS
 62
         7
100
AcDbLine
 10
17.6093386012
 20
94.9528521815
 30
0.0
 11
17.1093386012
 21
94.4528521815
 31
0.0
  0
LINE
  5
69
100
AcDbEntity
  8
51060040
  6
CONTINUOUS
 62
         7
100
AcDbLine
 10
7.8593386012
 20
10.4528521815
 30
0.0
 11
9.0929697803
 21
7.0634783731
 31
0.0
  0
LINE
  5
6A
100
AcDbEntity
  8
51060040
  6
CONTINUOUS
 62
         7
100
AcDbLine
 10
76.7593386012
 20
11.8528521815
 30
0.0
 11
78.5025281083
 21
7.0634783731
 31
0.0
  0
LINE
  5
6B
100
AcDbEntity
  8
51060040
  6
CONTINUOUS
 62
         7
100
AcDbLine
 10
36.6093386012
 20
127.4528521815
 30
0.0
 11
36.6093386012
 21
114.5528521815
 31
0.0
  0
LINE
  5
6C
100
AcDbEntity
  8
51060040
  6
CONTINUOUS
 62
         7
100
AcDbLine
 10
17.1093386012
 20
98.4528521815
 30
0.0
 11
17.1093386012
 21
94.9528521815
 31
0.0
  0
LINE
  5
6D
100
AcDbEntity
  8
51060040
  6
CONTINUOUS
 62
         7
100
AcDbLine
 10
42.7093386012
 20
151.2528521815
 30
0.0
 11
42.7093386012
 21
142.9528521815
 31
0.0
  0
LINE
  5
6E
100
AcDbEntity
  8
51060040
  6
CONTINUOUS
 62
         7
100
AcDbLine
 10
20.4593386012
 20
11.8528521815
 30
0.0
 11
35.6093386012
 21
11.8528521815
 31
0.0
  0
LINE
  5
6F
100
AcDbEntity
  8
51060040
  6
CONTINUOUS
 62
         7
100
AcDbLine
 10
67.6093386012
 20
73.1689865186
 30
0.0
 11
79.3593386012
 21
79.9528521815
 31
0.0
  0
LINE
  5
70
100
AcDbEntity
  8
51060040
  6
CONTINUOUS
 62
         7
100
AcDbLine
 10
61.6093386012
 20
11.8528521815
 30
0.0
 11
76.7593386012
 21
11.8528521815
 31
0.0
  0
LINE
  5
71
100
AcDbEntity
  8
51060040
  6
CONTINUOUS
 62
         7
100
AcDbLine
 10
20.4593386012
 20
65.0528521815
 30
0.0
 11
18.7161490942
 21
69.84222599
 31
0.0
  0
LINE
  5
72
100
AcDbEntity
  8
51060040
  6
CONTINUOUS
 62
         7
100
AcDbLine
 10
89.3593386012
 20
66.4528521815
 30
0.0
 11
88.1257074221
 21
69.84222599
 31
0.0
  0
LINE
  5
73
100
AcDbEntity
  8
51060040
  6
CONTINUOUS
 62
         7
100
AcDbLine
 10
67.6093386012
 20
65.0471966873
 30
0.0
 11
67.6093386012
 21
73.1689865186
 31
0.0
  0
LINE
  5
74
100
AcDbEntity
  8
51060040
  6
CONTINUOUS
 62
         7
100
AcDbLine
 10
79.3593386012
 20
79.9528521815
 30
0.0
 11
79.3593386012
 21
88.9528521815
 31
0.0
  0
LINE
  5
75
100
AcDbEntity
  8
51060040
  6
CONTINUOUS
 62
         7
100
AcDbLine
 10
17.1093386012
 20
89.3858648834
 30
0.0
 11
17.8593386012
 21
88.9528521815
 31
0.0
  0
LINE
  5
76
100
AcDbEntity
  8
51060040
  6
CONTINUOUS
 62
         7
100
AcDbLine
 10
80.1093386012
 20
89.3858648834
 30
0.0
 11
80.1093386012
 21
94.4528521815
 31
0.0
  0
LINE
  5
77
100
AcDbEntity
  8
51060040
  6
CONTINUOUS
 62
         7
100
AcDbLine
 10
80.1093386012
 20
94.4528521815
 30
0.0
 11
79.6093386012
 21
94.9528521815
 31
0.0
  0
LINE
  5
78
100
AcDbEntity
  8
51060040
  6
CONTINUOUS
 62
         7
100
AcDbLine
 10
9.0929697803
 20
69.84222599
 30
0.0
 11
7.8593386012
 21
66.4528521815
 31
0.0
  0
LINE
  5
79
100
AcDbEntity
  8
51060040
  6
CONTINUOUS
 62
         7
100
AcDbLine
 10
78.5025281083
 20
69.84222599
 30
0.0
 11
76.7593386012
 21
65.0528521815
 31
0.0
  0
LINE
  5
7A
100
AcDbEntity
  8
51060040
  6
CONTINUOUS
 62
         7
100
AcDbLine
 10
60.6093386012
 20
114.5528521815
 30
0.0
 11
60.6093386012
 21
127.4528521815
 31
0.0
  0
LINE
  5
7B
100
AcDbEntity
  8
51060040
  6
CONTINUOUS
 62
         7
100
AcDbLine
 10
80.1093386012
 20
94.9528521815
 30
0.0
 11
80.1093386012
 21
98.4528521815
 31
0.0
  0
LINE
  5
7C
100
AcDbEntity
  8
51060040
  6
CONTINUOUS
 62
         7
100
AcDbLine
 10
54.5093386012
 20
142.9528521815
 30
0.0
 11
54.5093386012
 21
151.2528521815
 31
0.0
  0
ARC
  5
7D
100
AcDbEntity
  8
51060040
  6
CONTINUOUS
 62
         7
100
AcDbCircle
 10
86.6093386012
 20
169.2528521815
 30
0.0
 40
7.0
100
AcDbArc
 50
75.4394680825
 51
90.0
  0
LINE
  5
7E
100
AcDbEntity
  8
51060040
  6
CONTINUOUS
 62
         7
100
AcDbLine
 10
29.6351842685
 20
65.0528521815
 30
0.0
 11
20.4593386012
 21
65.0528521815
 31
0.0
  0
LINE
  5
7F
100
AcDbEntity
  8
51060040
  6
CONTINUOUS
 62
         7
100
AcDbLine
 10
35.6093386012
 20
10.6528521815
 30
0.0
 11
61.6093386012
 21
10.6528521815
 31
0.0
  0
LINE
  5
80
100
AcDbEntity
  8
51060040
  6
CONTINUOUS
 62
         7
100
AcDbLine
 10
17.8593386012
 20
79.9528521815
 30
0.0
 11
29.6093386012
 21
73.1689865186
 31
0.0
  0
LINE
  5
81
100
AcDbEntity
  8
51060040
  6
CONTINUOUS
 62
         7
100
AcDbLine
 10
29.6093386012
 20
73.1689865186
 30
0.0
 11
29.6093386012
 21
65.0340536757
 31
0.0
  0
LINE
  5
82
100
AcDbEntity
  8
51060040
  6
CONTINUOUS
 62
         7
100
AcDbLine
 10
76.7593386012
 20
65.0528521815
 30
0.0
 11
67.6018052746
 21
65.0528521815
 31
0.0
  0
LINE
  5
83
100
AcDbEntity
  8
51060040
  6
CONTINUOUS
 62
         7
100
AcDbLine
 10
50.8687045955
 20
63.4528521815
 30
0.0
 11
51.4953747553
 21
65.5173007013
 31
0.0
  0
LINE
  5
84
100
AcDbEntity
  8
51060040
  6
CONTINUOUS
 62
         7
100
AcDbLine
 10
46.903286728
 20
63.4528521815
 30
0.0
 11
50.8687045955
 21
63.4528521815
 31
0.0
  0
LINE
  5
85
100
AcDbEntity
  8
51060040
  6
CONTINUOUS
 62
         7
100
AcDbLine
 10
51.4953747553
 20
65.5173007013
 30
0.0
 11
49.9339390728
 21
65.5173007013
 31
0.0
  0
LINE
  5
86
100
AcDbEntity
  8
51060040
  6
CONTINUOUS
 62
         7
100
AcDbLine
 10
50.8687045955
 20
69.4701432478
 30
0.0
 11
52.3064829554
 21
63.4528521815
 31
0.0
  0
LINE
  5
87
100
AcDbEntity
  8
51060040
  6
CONTINUOUS
 62
         7
100
AcDbLine
 10
52.3064829554
 20
63.4528521815
 30
0.0
 11
54.8320265761
 21
63.4528521815
 31
0.0
  0
LINE
  5
88
100
AcDbEntity
  8
51060040
  6
CONTINUOUS
 62
         7
100
AcDbLine
 10
49.9339390728
 20
65.5173007013
 30
0.0
 11
50.8687045955
 21
69.4701432478
 31
0.0
  0
LINE
  5
89
100
AcDbEntity
  8
51060040
  6
CONTINUOUS
 62
         7
100
AcDbLine
 10
49.2758306107
 20
71.4528521815
 30
0.0
 11
46.903286728
 21
63.4528521815
 31
0.0
  0
LINE
  5
8A
100
AcDbEntity
  8
51060040
  6
CONTINUOUS
 62
         7
100
AcDbLine
 10
54.8320265761
 20
63.4528521815
 30
0.0
 11
52.4594826935
 21
71.4528521815
 31
0.0
  0
LINE
  5
8B
100
AcDbEntity
  8
51060040
  6
CONTINUOUS
 62
         7
100
AcDbLine
 10
52.4594826935
 20
71.4528521815
 30
0.0
 11
49.2758306107
 21
71.4528521815
 31
0.0
  0
LINE
  5
8C
100
AcDbEntity
  8
51060040
  6
CONTINUOUS
 62
         7
100
AcDbLine
 10
44.2750446531
 20
69.243787471
 30
0.0
 11
42.5186914962
 21
69.243787471
 31
0.0
  0
LINE
  5
8D
100
AcDbEntity
  8
51060040
  6
CONTINUOUS
 62
         7
100
AcDbLine
 10
44.2750446531
 20
63.4528521815
 30
0.0
 11
44.2750446531
 21
69.243787471
 31
0.0
  0
LINE
  5
8E
100
AcDbEntity
  8
51060040
  6
CONTINUOUS
 62
         7
100
AcDbLine
 10
46.6580679698
 20
69.243787471
 30
0.0
 11
46.6580679698
 21
63.4528521815
 31
0.0
  0
LINE
  5
8F
100
AcDbEntity
  8
51060040
  6
CONTINUOUS
 62
         7
100
AcDbLine
 10
47.9512301391
 20
69.243787471
 30
0.0
 11
46.6580679698
 21
69.243787471
 31
0.0
  0
LINE
  5
90
100
AcDbEntity
  8
51060040
  6
CONTINUOUS
 62
         7
100
AcDbLine
 10
46.6580679698
 20
63.4528521815
 30
0.0
 11
44.2750446531
 21
63.4528521815
 31
0.0
  0
LINE
  5
91
100
AcDbEntity
  8
51060040
  6
CONTINUOUS
 62
         7
100
AcDbLine
 10
48.6093386012
 20
71.4528521815
 30
0.0
 11
47.9512301391
 21
69.243787471
 31
0.0
  0
LINE
  5
92
100
AcDbEntity
  8
51060040
  6
CONTINUOUS
 62
         7
100
AcDbLine
 10
43.1663205242
 20
71.4528521815
 30
0.0
 11
48.6093386012
 21
71.4528521815
 31
0.0
  0
LINE
  5
93
100
AcDbEntity
  8
51060040
  6
CONTINUOUS
 62
         7
100
AcDbLine
 10
42.5186914962
 20
69.243787471
 30
0.0
 11
43.1663205242
 21
71.4528521815
 31
0.0
  0
LINE
  5
94
100
AcDbEntity
  8
51060040
  6
CONTINUOUS
 62
         7
100
AcDbLine
 10
18.7161490942
 20
7.0634783731
 30
0.0
 11
20.4593386012
 21
11.8528521815
 31
0.0
  0
LINE
  5
95
100
AcDbEntity
  8
51060040
  6
CONTINUOUS
 62
         7
100
AcDbLine
 10
42.8593386012
 20
151.2528521815
 30
0.0
 11
47.2874081946
 21
151.2528521815
 31
0.0
  0
LINE
  5
96
100
AcDbEntity
  8
51060040
  6
CONTINUOUS
 62
         7
100
AcDbLine
 10
54.3593386012
 20
160.7528521815
 30
0.0
 11
54.3593386012
 21
151.2528521815
 31
0.0
  0
LINE
  5
97
100
AcDbEntity
  8
51060040
  6
CONTINUOUS
 62
         7
100
AcDbLine
 10
42.8593386012
 20
160.7528521815
 30
0.0
 11
42.8593386012
 21
151.2528521815
 31
0.0
  0
LINE
  5
98
100
AcDbEntity
  8
51060040
  6
CONTINUOUS
 62
         7
100
AcDbLine
 10
88.1257074221
 20
7.0634783731
 30
0.0
 11
89.3593386012
 21
10.4528521815
 31
0.0
  0
LINE
  5
99
100
AcDbEntity
  8
51060040
  6
CONTINUOUS
 62
         7
100
AcDbLine
 10
90.219610297
 20
169.2528521815
 30
0.0
 11
90.219610297
 21
160.7528521815
 31
0.0
  0
LINE
  5
9A
100
AcDbEntity
  8
51060040
  6
CONTINUOUS
 62
         7
100
AcDbLine
 10
84.2532401341
 20
169.2528521815
 30
0.0
 11
84.2532401341
 21
160.7528521815
 31
0.0
  0
LINE
  5
9B
100
AcDbEntity
  8
51060040
  6
CONTINUOUS
 62
         7
100
AcDbLine
 10
54.5757087641
 20
169.2528521815
 30
0.0
 11
54.5757087641
 21
160.7528521815
 31
0.0
  0
LINE
  5
9C
100
AcDbEntity
  8
51060040
  6
CONTINUOUS
 62
         7
100
AcDbLine
 10
84.2532401341
 20
160.7528521815
 30
0.0
 11
54.5757087641
 21
160.7528521815
 31
0.0
  0
LINE
  5
9D
100
AcDbEntity
  8
51060040
  6
CONTINUOUS
 62
         7
100
AcDbLine
 10
6.9990669055
 20
169.2528521815
 30
0.0
 11
6.9990669055
 21
160.7528521815
 31
0.0
  0
LINE
  5
9E
100
AcDbEntity
  8
51060040
  6
CONTINUOUS
 62
         7
100
AcDbLine
 10
42.6429684384
 20
169.2528521815
 30
0.0
 11
42.6429684384
 21
160.7528521815
 31
0.0
  0
LINE
  5
9F
100
AcDbEntity
  8
51060040
  6
CONTINUOUS
 62
         7
100
AcDbLine
 10
12.9654370683
 20
169.2528521815
 30
0.0
 11
12.9654370683
 21
160.7528521815
 31
0.0
  0
LINE
  5
A0
100
AcDbEntity
  8
51060040
  6
CONTINUOUS
 62
         7
100
AcDbLine
 10
42.6429684384
 20
160.7528521815
 30
0.0
 11
12.9654370683
 21
160.7528521815
 31
0.0
  0
ARC
  5
A1
100
AcDbEntity
  8
51060040
  6
PHANTOM2
 62
         7
100
AcDbCircle
 10
17.5642826778
 20
170.0012184787
 30
0.0
 40
10.591687138
100
AcDbArc
 50
145.3083212305
 51
153.0170548867
  0
ARC
  5
A2
100
AcDbEntity
  8
51060040
  6
CONTINUOUS
 62
         7
100
AcDbCircle
 10
17.5642826778
 20
170.0012184787
 30
0.0
 40
10.591687138
100
AcDbArc
 50
153.0171427356
 51
184.0516668222
  0
SPLINE
  5
A3
100
AcDbEntity
  8
51060040
  6
CONTINUOUS
 62
         7
100
AcDbSpline
210
0.0
220
0.0
230
1.0
 70
         8
 71
         3
 72
        26
 73
        22
 74
         0
 42
0.0
 43
0.0
 40
0.0
 40
0.0
 40
0.0
 40
0.0
 40
0.0624999999999999
 40
0.0624999999999999
 40
0.1249999999999999
 40
0.1249999999999999
 40
0.2499999999999999
 40
0.2499999999999999
 40
0.3749999999999999
 40
0.3749999999999999
 40
0.4999999999999998
 40
0.4999999999999998
 40
0.6249999999999997
 40
0.6249999999999997
 40
0.7499999999999996
 40
0.7499999999999996
 40
0.8749999999999994
 40
0.8749999999999994
 40
0.9374999999999997
 40
0.9374999999999997
 40
1.0
 40
1.0
 40
1.0
 40
1.0
 10
54.575708764089249
 20
169.25285218154391
 30
0.0
 10
54.575708764089164
 20
170.11383125123459
 30
0.0
 10
54.787323689373167
 20
170.94295246629284
 30
0.0
 10
55.48547907097327
 20
172.35790325055729
 30
0.0
 10
55.963661661612271
 20
172.94439947178691
 30
0.0
 10
57.567944949805174
 20
174.37326529188167
 30
0.0
 10
58.843371404245715
 20
174.90634017470134
 30
0.0
 10
61.47474248459153
 20
175.61520304664577
 30
0.0
 10
62.831411117556513
 20
175.78538493074927
 30
0.0
 10
65.612187306063532
 20
175.99425194230244
 30
0.0
 10
67.036438866773096
 20
176.029708082974
 30
0.0
 10
69.949140621836918
 20
176.02946061535948
 30
0.0
 10
71.430847522678619
 20
175.99367579653261
 30
0.0
 10
74.426146811958745
 20
175.7830946467526
 30
0.0
 10
75.942075617609433
 20
175.61162675492125
 30
0.0
 10
78.990908014242763
 20
174.89653899321704
 30
0.0
 10
80.520302831737794
 20
174.3587122016462
 30
0.0
 10
82.49093888806587
 20
172.93797307411162
 30
0.0
 10
83.091996227696697
 20
172.35543506713111
 30
0.0
 10
83.983904087840585
 20
170.9334603074885
 30
0.0
 10
84.253240134123416
 20
170.10806815921617
 30
0.0
 10
84.253240134121995
 20
169.25285218154391
 30
0.0
  0
ARC
  5
A4
100
AcDbEntity
  8
51060040
  6
CONTINUOUS
 62
         7
100
AcDbCircle
 10
79.6543945247
 20
170.0012184787
 30
0.0
 40
10.591687138
100
AcDbArc
 50
355.9483331778
 51
26.9829451133
  0
ARC
  5
A5
100
AcDbEntity
  8
51060040
  6
PHANTOM2
 62
         7
100
AcDbCircle
 10
79.6543945247
 20
170.0012184787
 30
0.0
 40
10.591687138
100
AcDbArc
 50
26.9829451133
 51
34.6916787695
  0
LINE
  5
A6
100
AcDbEntity
  8
51060040
  6
CONTINUOUS
 62
         7
100
AcDbLine
 10
62.1093385793
 20
127.4528521815
 30
0.0
 11
48.6093386012
 21
127.4528521815
 31
0.0
  0
LINE
  5
A7
100
AcDbEntity
  8
51060040
  6
CONTINUOUS
 62
         7
100
AcDbLine
 10
48.6093386012
 20
127.4528521815
 30
0.0
 11
35.1093385793
 21
127.4528521815
 31
0.0
  0
LINE
  5
A8
100
AcDbEntity
  8
51060040
  6
CONTINUOUS
 62
         7
100
AcDbLine
 10
62.1093385793
 20
142.9528521815
 30
0.0
 11
62.1093385793
 21
127.4528521815
 31
0.0
  0
LINE
  5
A9
100
AcDbEntity
  8
51060040
  6
CONTINUOUS
 62
         7
100
AcDbLine
 10
62.1093385793
 20
142.9528521815
 30
0.0
 11
48.6093386012
 21
142.9528521815
 31
0.0
  0
LINE
  5
AA
100
AcDbEntity
  8
51060040
  6
CONTINUOUS
 62
         7
100
AcDbLine
 10
48.6093386012
 20
142.9528521815
 30
0.0
 11
48.6093386012
 21
127.4528521815
 31
0.0
  0
LINE
  5
AB
100
AcDbEntity
  8
51060040
  6
CONTINUOUS
 62
         7
100
AcDbLine
 10
48.6093386012
 20
142.9528521815
 30
0.0
 11
35.1093385793
 21
142.9528521815
 31
0.0
  0
LINE
  5
AC
100
AcDbEntity
  8
51060040
  6
CONTINUOUS
 62
         7
100
AcDbLine
 10
35.1093385793
 20
142.9528521815
 30
0.0
 11
35.1093385793
 21
127.4528521815
 31
0.0
  0
LINE
  5
AD
100
AcDbEntity
  8
51060040
  6
CONTINUOUS
 62
         7
100
AcDbLine
 10
72.1093386012
 20
114.5528521815
 30
0.0
 11
48.6093386012
 21
114.5528521815
 31
0.0
  0
LINE
  5
AE
100
AcDbEntity
  8
51060040
  6
CONTINUOUS
 62
         7
100
AcDbLine
 10
72.1093386012
 20
98.4528521815
 30
0.0
 11
72.1093386012
 21
114.5528521815
 31
0.0
  0
LINE
  5
AF
100
AcDbEntity
  8
51060040
  6
CONTINUOUS
 62
         7
100
AcDbLine
 10
48.6093386012
 20
98.4528521815
 30
0.0
 11
48.6093386012
 21
114.5528521815
 31
0.0
  0
LINE
  5
B0
100
AcDbEntity
  8
51060040
  6
CONTINUOUS
 62
         7
100
AcDbLine
 10
48.6093386012
 20
114.5528521815
 30
0.0
 11
25.1093386012
 21
114.5528521815
 31
0.0
  0
LINE
  5
B1
100
AcDbEntity
  8
51060040
  6
CONTINUOUS
 62
         7
100
AcDbLine
 10
25.1093386012
 20
98.4528521815
 30
0.0
 11
25.1093386012
 21
114.5528521815
 31
0.0
  0
LINE
  5
B2
100
AcDbEntity
  8
51060040
  6
CONTINUOUS
 62
         7
100
AcDbLine
 10
35.6093386012
 20
73.1689865186
 30
0.0
 11
29.6093386012
 21
73.1689865186
 31
0.0
  0
LINE
  5
B3
100
AcDbEntity
  8
51060040
  6
CONTINUOUS
 62
         7
100
AcDbLine
 10
17.8593386012
 20
79.9528521815
 30
0.0
 11
79.3593386012
 21
79.9528521815
 31
0.0
  0
LINE
  5
B4
100
AcDbEntity
  8
51060040
  6
CONTINUOUS
 62
         7
100
AcDbLine
 10
17.8593386012
 20
88.9528521815
 30
0.0
 11
79.3593386012
 21
88.9528521815
 31
0.0
  0
LINE
  5
B5
100
AcDbEntity
  8
51060040
  6
CONTINUOUS
 62
         7
100
AcDbLine
 10
17.1093386012
 20
89.3858648834
 30
0.0
 11
80.1093386012
 21
89.3858648834
 31
0.0
  0
LINE
  5
B6
100
AcDbEntity
  8
51060040
  6
CONTINUOUS
 62
         7
100
AcDbLine
 10
17.1093386012
 20
98.4528521815
 30
0.0
 11
80.1093386012
 21
98.4528521815
 31
0.0
  0
LINE
  5
B7
100
AcDbEntity
  8
51060040
  6
CONTINUOUS
 62
         7
100
AcDbLine
 10
17.1093386012
 20
94.9528521815
 30
0.0
 11
80.1093386012
 21
94.9528521815
 31
0.0
  0
ARC
  5
B8
100
AcDbEntity
  8
51060040
  6
CONTINUOUS
 62
         7
100
AcDbCircle
 10
25.1704071551
 20
123.8737583417
 30
0.0
 40
72.5324886376
100
AcDbArc
 50
300.1576394847
 51
305.8102226886
  0
LINE
  5
B9
100
AcDbEntity
  8
51060040
  6
CONTINUOUS
 62
         7
100
AcDbLine
 10
17.1093386012
 20
94.4528521815
 30
0.0
 11
80.1093386012
 21
94.4528521815
 31
0.0
  0
ARC
  5
BA
100
AcDbEntity
  8
51060040
  6
CONTINUOUS
 62
         7
100
AcDbCircle
 10
48.6093386012
 20
129.9850305417
 30
0.0
 40
51.7273661085
100
AcDbArc
 50
255.4445024805
 51
284.5554975195
  0
LINE
  5
BB
100
AcDbEntity
  8
51060040
  6
CONTINUOUS
 62
         7
100
AcDbLine
 10
35.6093386012
 20
10.6528521815
 30
0.0
 11
35.6093386012
 21
38.4528521815
 31
0.0
  0
LINE
  5
BC
100
AcDbEntity
  8
51060040
  6
CONTINUOUS
 62
         7
100
AcDbLine
 10
61.6093386012
 20
10.6528521815
 30
0.0
 11
61.6093386012
 21
38.4528521815
 31
0.0
  0
LINE
  5
BD
100
AcDbEntity
  8
51060040
  6
CONTINUOUS
 62
         7
100
AcDbLine
 10
61.6093386012
 20
38.4528521815
 30
0.0
 11
61.6093386012
 21
79.9178715997
 31
0.0
  0
LINE
  5
BE
100
AcDbEntity
  8
51060040
  6
CONTINUOUS
 62
         7
100
AcDbLine
 10
35.6093386012
 20
38.4528521815
 30
0.0
 11
35.6093386012
 21
79.9178715997
 31
0.0
  0
ARC
  5
BF
100
AcDbEntity
  8
51060040
  6
CONTINUOUS
 62
         7
100
AcDbCircle
 10
79.818502111
 20
49.5506717201
 30
0.0
 40
71.5909388258
100
AcDbArc
 50
171.0822121515
 51
188.9177878485
  0
LINE
  5
C0
100
AcDbEntity
  8
51060040
  6
CONTINUOUS
 62
         7
100
AcDbLine
 10
7.8593386012
 20
66.4528521815
 30
0.0
 11
7.8593386012
 21
10.4528521815
 31
0.0
  0
LINE
  5
C1
100
AcDbEntity
  8
51060040
  6
CONTINUOUS
 62
         7
100
AcDbLine
 10
20.4593386012
 20
65.0528521815
 30
0.0
 11
20.4593386012
 21
11.8528521815
 31
0.0
  0
LINE
  5
C2
100
AcDbEntity
  8
51060040
  6
CONTINUOUS
 62
         7
100
AcDbLine
 10
76.7593386012
 20
65.0528521815
 30
0.0
 11
76.7593386012
 21
11.8528521815
 31
0.0
  0
LINE
  5
C3
100
AcDbEntity
  8
51060040
  6
CONTINUOUS
 62
         7
100
AcDbLine
 10
89.3593386012
 20
66.4528521815
 30
0.0
 11
89.3593386012
 21
10.4528521815
 31
0.0
  0
ARC
  5
C4
100
AcDbEntity
  8
51060040
  6
CONTINUOUS
 62
         7
100
AcDbCircle
 10
6.9028097689
 20
65.2453586244
 30
0.0
 40
12.6762050942
100
AcDbArc
 50
338.7377372552
 51
21.2622627448
  0
ARC
  5
C5
100
AcDbEntity
  8
51060040
  6
CONTINUOUS
 62
         7
100
AcDbCircle
 10
90.3158674335
 20
65.2453586244
 30
0.0
 40
12.6762050942
100
AcDbArc
 50
158.7377372552
 51
201.2622627448
  0
ARC
  5
C6
100
AcDbEntity
  8
51060040
  6
CONTINUOUS
 62
         7
100
AcDbCircle
 10
149.2280604389
 20
27.355032643
 30
0.0
 40
71.5909388258
100
AcDbArc
 50
171.0822121515
 51
188.9177878485
  0
LINE
  5
C7
100
AcDbEntity
  8
51060040
  6
CONTINUOUS
 62
         7
100
AcDbLine
 10
18.7161490942
 20
7.0634783731
 30
0.0
 11
9.0929697803
 21
7.0634783731
 31
0.0
  0
LINE
  5
C8
100
AcDbEntity
  8
51060040
  6
CONTINUOUS
 62
         7
100
AcDbLine
 10
88.1257074221
 20
60.6484912587
 30
0.0
 11
78.5025281083
 21
60.6484912587
 31
0.0
  0
LINE
  5
C9
100
AcDbEntity
  8
51060040
  6
CONTINUOUS
 62
         7
100
AcDbLine
 10
18.7161490942
 20
60.6484912587
 30
0.0
 11
9.0929697803
 21
60.6484912587
 31
0.0
  0
LINE
  5
CA
100
AcDbEntity
  8
51060040
  6
CONTINUOUS
 62
         7
100
AcDbLine
 10
18.7161490942
 20
38.4528521815
 30
0.0
 11
9.0929697803
 21
38.4528521815
 31
0.0
  0
LINE
  5
CB
100
AcDbEntity
  8
51060040
  6
CONTINUOUS
 62
         7
100
AcDbLine
 10
18.7161490942
 20
16.2572131044
 30
0.0
 11
9.0929697803
 21
16.2572131044
 31
0.0
  0
LINE
  5
CC
100
AcDbEntity
  8
51060040
  6
CONTINUOUS
 62
         7
100
AcDbLine
 10
18.7161490942
 20
69.84222599
 30
0.0
 11
9.0929697803
 21
69.84222599
 31
0.0
  0
ARC
  5
CD
100
AcDbEntity
  8
51060040
  6
CONTINUOUS
 62
         7
100
AcDbCircle
 10
149.2280604389
 20
49.5506717201
 30
0.0
 40
71.5909388258
100
AcDbArc
 50
171.0822121515
 51
188.9177878485
  0
ARC
  5
CE
100
AcDbEntity
  8
51060040
  6
CONTINUOUS
 62
         7
100
AcDbCircle
 10
72.0455523409
 20
123.8695719387
 30
0.0
 40
72.5275035558
100
AcDbArc
 50
234.1895838974
 51
239.8425553946
  0
LINE
  5
CF
100
AcDbEntity
  8
51060040
  6
CONTINUOUS
 62
         7
100
AcDbLine
 10
49.9312690079
 20
151.2528521815
 30
0.0
 11
47.2874081946
 21
151.2528521815
 31
0.0
  0
LINE
  5
D0
100
AcDbEntity
  8
51060040
  6
CONTINUOUS
 62
         7
100
AcDbLine
 10
54.3593386012
 20
151.2528521815
 30
0.0
 11
54.5093386012
 21
151.2528521815
 31
0.0
  0
LINE
  5
D1
100
AcDbEntity
  8
51060040
  6
CONTINUOUS
 62
         7
100
AcDbLine
 10
42.8593386012
 20
151.2528521815
 30
0.0
 11
42.7093386012
 21
151.2528521815
 31
0.0
  0
LINE
  5
D2
100
AcDbEntity
  8
51060040
  6
CONTINUOUS
 62
         7
100
AcDbLine
 10
49.9312690079
 20
151.2528521815
 30
0.0
 11
54.3593386012
 21
151.2528521815
 31
0.0
  0
ARC
  5
D3
100
AcDbEntity
  8
51060040
  6
PHANTOM2
 62
         7
100
AcDbCircle
 10
-1.0409031904
 20
131.9222121538
 30
0.0
 40
45.1171212144
100
AcDbArc
 50
43.98662005
 51
43.9917963779
  0
ARC
  5
D4
100
AcDbEntity
  8
51060040
  6
PHANTOM2
 62
         7
100
AcDbCircle
 10
98.2461921736
 20
131.9419632263
 30
0.0
 40
45.0935636021
100
AcDbArc
 50
136.0144444276
 51
136.019622878
  0
LINE
  5
D5
100
AcDbEntity
  8
51060040
  6
CONTINUOUS
 62
         7
100
AcDbLine
 10
12.9654370683
 20
160.7528521815
 30
0.0
 11
6.9990669055
 21
160.7528521815
 31
0.0
  0
LINE
  5
D6
100
AcDbEntity
  8
51060040
  6
CONTINUOUS
 62
         7
100
AcDbLine
 10
90.219610297
 20
160.7528521815
 30
0.0
 11
84.2532401341
 21
160.7528521815
 31
0.0
  0
LINE
  5
D7
100
AcDbEntity
  8
51060040
  6
CONTINUOUS
 62
         7
100
AcDbLine
 10
54.5757087641
 20
160.7528521815
 30
0.0
 11
42.6429684384
 21
160.7528521815
 31
0.0
  0
SPLINE
  5
D8
100
AcDbEntity
  8
51060040
  6
CONTINUOUS
 62
         7
100
AcDbSpline
210
0.0
220
0.0
230
1.0
 70
         8
 71
         3
 72
        26
 73
        22
 74
         0
 42
0.0
 43
0.0
 40
0.0
 40
0.0
 40
0.0
 40
0.0
 40
0.0624999999999999
 40
0.0624999999999999
 40
0.1249999999999998
 40
0.1249999999999998
 40
0.2499999999999996
 40
0.2499999999999996
 40
0.3749999999999994
 40
0.3749999999999994
 40
0.4999999999999993
 40
0.4999999999999993
 40
0.6249999999999991
 40
0.6249999999999991
 40
0.7499999999999991
 40
0.7499999999999991
 40
0.8749999999999991
 40
0.8749999999999991
 40
0.9374999999999996
 40
0.9374999999999996
 40
1.0
 40
1.0
 40
1.0
 40
1.0
 10
12.965437068346061
 20
169.25285218154391
 30
0.0
 10
12.965437068345922
 20
170.11383125123453
 30
0.0
 10
13.239399593396206
 20
170.94295246629281
 30
0.0
 10
14.129567667950676
 20
172.35790325055726
 30
0.0
 10
14.733973063953535
 20
172.94439947178688
 30
0.0
 10
16.723995955842412
 20
174.37326529188164
 30
0.0
 10
18.25924116574102
 20
174.90634017470134
 30
0.0
 10
21.302361575346701
 20
175.61520304664577
 30
0.0
 10
22.815606752595137
 20
175.7853849307493
 30
0.0
 10
25.805656266927702
 20
175.99425194230247
 30
0.0
 10
27.282773582444381
 20
176.029708082974
 30
0.0
 10
30.195157911843648
 20
176.02946061535937
 30
0.0
 10
31.623527017251433
 20
175.99367579653259
 30
0.0
 10
34.408262818430252
 20
175.7830946467526
 30
0.0
 10
35.766806703573309
 20
175.61162675492125
 30
0.0
 10
38.401910688173018
 20
174.89653899321695
 30
0.0
 10
39.671601836726772
 20
174.3587122016462
 30
0.0
 10
41.259933002920711
 20
172.93797307411157
 30
0.0
 10
41.735483208655829
 20
172.35543506713117
 30
0.0
 10
42.434960809553012
 20
170.9334603074885
 30
0.0
 10
42.642968438379853
 20
170.1080681592162
 30
0.0
 10
42.642968438378752
 20
169.25285218154391
 30
0.0
  0
ARC
  5
D9
100
AcDbEntity
  8
51060040
  6
CONTINUOUS
 62
         7
100
AcDbCircle
 10
10.6093386012
 20
169.2528521815
 30
0.0
 40
7.0
100
AcDbArc
 50
90.0
 51
104.5561085835
  0
LINE
  5
DA
100
AcDbEntity
  8
51060040
  6
CONTINUOUS
 62
         7
100
AcDbLine
 10
61.6093386012
 20
73.1689865186
 30
0.0
 11
67.6093386012
 21
73.1689865186
 31
0.0
  0
ENDBLK
  5
DB
100
AcDbEntity
  8
51060040
  6
CONTINUOUS
 62
         7
100
AcDbBlockEnd
  0
BLOCK
  5
138
100
AcDbEntity
  8
0
 62
         1
 48
0.0
100
AcDbBlockBegin
  2
SE2
 70
         0
 10
0.0
 20
0.0
 30
0.0
  3
SE2
  1

  0
ENDBLK
  5
139
100
AcDbEntity
  8
0
 62
         1
 48
0.0
100
AcDbBlockEnd
  0
BLOCK
  5
DE
100
AcDbEntity
  8
0
 62
         1
 48
0.0
100
AcDbBlockBegin
  2
SE3
 70
         0
 10
0.0
 20
0.0
 30
0.0
  3
SE3
  1

  0
ARC
  5
DF
100
AcDbEntity
  8
51060040
  6
CONTINUOUS
 62
         7
100
AcDbCircle
 10
76.3123680969
 20
273.615385873
 30
0.0
 40
12.6762050942
100
AcDbArc
 50
338.7377372552
 51
21.2622627448
  0
ARC
  5
E0
100
AcDbEntity
  8
51060040
  6
CONTINUOUS
 62
         7
100
AcDbCircle
 10
17.4001750915
 20
257.9206989688
 30
0.0
 40
71.5909388258
100
AcDbArc
 50
351.0822121515
 51
8.9177878485
  0
ARC
  5
E1
100
AcDbEntity
  8
51060040
  6
CONTINUOUS
 62
         7
100
AcDbCircle
 10
76.3123680969
 20
220.0303729874
 30
0.0
 40
12.6762050942
100
AcDbArc
 50
338.7377372552
 51
21.2622627448
  0
ARC
  5
E2
100
AcDbEntity
  8
51060040
  6
CONTINUOUS
 62
         7
100
AcDbCircle
 10
-52.0093832365
 20
257.9206989688
 30
0.0
 40
71.5909388258
100
AcDbArc
 50
351.0822121515
 51
8.9177878485
  0
ARC
  5
E3
100
AcDbEntity
  8
51060040
  6
CONTINUOUS
 62
         7
100
AcDbCircle
 10
-52.0093832365
 20
235.7250598916
 30
0.0
 40
71.5909388258
100
AcDbArc
 50
351.0822121515
 51
8.9177878485
  0
ARC
  5
E4
100
AcDbEntity
  8
51060040
  6
CONTINUOUS
 62
         7
100
AcDbCircle
 10
6.9028097689
 20
220.0303729874
 30
0.0
 40
12.6762050942
100
AcDbArc
 50
338.7377372552
 51
21.2622627448
  0
ARC
  5
E5
100
AcDbEntity
  8
51060040
  6
CONTINUOUS
 62
         7
100
AcDbCircle
 10
6.9028097689
 20
273.615385873
 30
0.0
 40
12.6762050942
100
AcDbArc
 50
338.7377372552
 51
21.2622627448
  0
ARC
  5
E6
100
AcDbEntity
  8
51060040
  6
CONTINUOUS
 62
         7
100
AcDbCircle
 10
79.818502111
 20
235.7250598916
 30
0.0
 40
71.5909388258
100
AcDbArc
 50
171.0822121515
 51
188.9177878485
  0
ARC
  5
E7
100
AcDbEntity
  8
51060040
  6
CONTINUOUS
 62
         7
100
AcDbCircle
 10
20.9063091055
 20
273.615385873
 30
0.0
 40
12.6762050942
100
AcDbArc
 50
158.7377372552
 51
201.2622627448
  0
ARC
  5
E8
100
AcDbEntity
  8
51060040
  6
CONTINUOUS
 62
         7
100
AcDbCircle
 10
20.9063091055
 20
220.0303729874
 30
0.0
 40
12.6762050942
100
AcDbArc
 50
158.7377372552
 51
201.2622627448
  0
ARC
  5
E9
100
AcDbEntity
  8
51060040
  6
CONTINUOUS
 62
         7
100
AcDbCircle
 10
79.818502111
 20
257.9206989688
 30
0.0
 40
71.5909388258
100
AcDbArc
 50
171.0822121515
 51
188.9177878485
  0
ARC
  5
EA
100
AcDbEntity
  8
51060040
  6
CONTINUOUS
 62
         7
100
AcDbCircle
 10
149.2280604389
 20
235.7250598916
 30
0.0
 40
71.5909388258
100
AcDbArc
 50
171.0822121515
 51
188.9177878485
  0
ARC
  5
EB
100
AcDbEntity
  8
51060040
  6
CONTINUOUS
 62
         7
100
AcDbCircle
 10
149.2280604389
 20
257.9206989688
 30
0.0
 40
71.5909388258
100
AcDbArc
 50
171.0822121515
 51
188.9177878485
  0
ARC
  5
EC
100
AcDbEntity
  8
51060040
  6
CONTINUOUS
 62
         7
100
AcDbCircle
 10
90.3158674335
 20
220.0303729874
 30
0.0
 40
12.6762050942
100
AcDbArc
 50
158.7377372552
 51
201.2622627448
  0
LINE
  5
ED
100
AcDbEntity
  8
51060040
  6
CONTINUOUS
 62
         7
100
AcDbLine
 10
88.1257074221
 20
269.0185185074
 30
0.0
 11
78.5025281083
 21
269.0185185074
 31
0.0
  0
ARC
  5
EE
100
AcDbEntity
  8
51060040
  6
CONTINUOUS
 62
         7
100
AcDbCircle
 10
17.4001750915
 20
235.7250598916
 30
0.0
 40
71.5909388258
100
AcDbArc
 50
351.0822121515
 51
8.9177878485
  0
LINE
  5
EF
100
AcDbEntity
  8
51060040
  6
CONTINUOUS
 62
         7
100
AcDbLine
 10
88.1257074221
 20
246.8228794302
 30
0.0
 11
78.5025281083
 21
246.8228794302
 31
0.0
  0
LINE
  5
F0
100
AcDbEntity
  8
51060040
  6
CONTINUOUS
 62
         7
100
AcDbLine
 10
88.1257074221
 20
224.627240353
 30
0.0
 11
78.5025281083
 21
224.627240353
 31
0.0
  0
LINE
  5
F1
100
AcDbEntity
  8
51060040
  6
CONTINUOUS
 62
         7
100
AcDbLine
 10
88.1257074221
 20
278.2122532387
 30
0.0
 11
78.5025281083
 21
278.2122532387
 31
0.0
  0
LINE
  5
F2
100
AcDbEntity
  8
51060040
  6
CONTINUOUS
 62
         7
100
AcDbLine
 10
88.1257074221
 20
215.4335056217
 30
0.0
 11
78.5025281083
 21
215.4335056217
 31
0.0
  0
LINE
  5
F3
100
AcDbEntity
  8
51060040
  6
CONTINUOUS
 62
         7
100
AcDbLine
 10
7.8593386012
 20
218.8228794302
 30
0.0
 11
9.0929697803
 21
215.4335056217
 31
0.0
  0
LINE
  5
F4
100
AcDbEntity
  8
51060040
  6
CONTINUOUS
 62
         7
100
AcDbLine
 10
76.7593386012
 20
220.2228794302
 30
0.0
 11
78.5025281083
 21
215.4335056217
 31
0.0
  0
LINE
  5
F5
100
AcDbEntity
  8
51060040
  6
CONTINUOUS
 62
         7
100
AcDbLine
 10
20.4593386012
 20
220.2228794302
 30
0.0
 11
35.6093386012
 21
220.2228794302
 31
0.0
  0
LINE
  5
F6
100
AcDbEntity
  8
51060040
  6
CONTINUOUS
 62
         7
100
AcDbLine
 10
61.6093386012
 20
220.2228794302
 30
0.0
 11
76.7593386012
 21
220.2228794302
 31
0.0
  0
LINE
  5
F7
100
AcDbEntity
  8
51060040
  6
CONTINUOUS
 62
         7
100
AcDbLine
 10
20.4593386012
 20
273.4228794302
 30
0.0
 11
18.7161490942
 21
278.2122532387
 31
0.0
  0
LINE
  5
F8
100
AcDbEntity
  8
51060040
  6
CONTINUOUS
 62
         7
100
AcDbLine
 10
89.3593386012
 20
274.8228794302
 30
0.0
 11
88.1257074221
 21
278.2122532387
 31
0.0
  0
LINE
  5
F9
100
AcDbEntity
  8
51060040
  6
CONTINUOUS
 62
         7
100
AcDbLine
 10
9.0929697803
 20
278.2122532387
 30
0.0
 11
7.8593386012
 21
274.8228794302
 31
0.0
  0
LINE
  5
FA
100
AcDbEntity
  8
51060040
  6
CONTINUOUS
 62
         7
100
AcDbLine
 10
78.5025281083
 20
278.2122532387
 30
0.0
 11
76.7593386012
 21
273.4228794302
 31
0.0
  0
LINE
  5
FB
100
AcDbEntity
  8
51060040
  6
CONTINUOUS
 62
         7
100
AcDbLine
 10
35.6093386012
 20
273.4228794302
 30
0.0
 11
20.4593386012
 21
273.4228794302
 31
0.0
  0
LINE
  5
FC
100
AcDbEntity
  8
51060040
  6
CONTINUOUS
 62
         7
100
AcDbLine
 10
76.7593386012
 20
273.4228794302
 30
0.0
 11
61.6093386012
 21
273.4228794302
 31
0.0
  0
LINE
  5
FD
100
AcDbEntity
  8
51060040
  6
CONTINUOUS
 62
         7
100
AcDbLine
 10
46.903286728
 20
275.2228794302
 30
0.0
 11
46.903286728
 21
274.6228794302
 31
0.0
  0
LINE
  5
FE
100
AcDbEntity
  8
51060040
  6
CONTINUOUS
 62
         7
100
AcDbLine
 10
46.903286728
 20
275.2228794302
 30
0.0
 11
50.8687045955
 21
275.2228794302
 31
0.0
  0
LINE
  5
FF
100
AcDbEntity
  8
51060040
  6
CONTINUOUS
 62
         7
100
AcDbLine
 10
50.8687045955
 20
275.2228794302
 30
0.0
 11
51.4953747553
 21
275.2228794302
 31
0.0
  0
LINE
  5
100
100
AcDbEntity
  8
51060040
  6
CONTINUOUS
 62
         7
100
AcDbLine
 10
52.3064829554
 20
275.2228794302
 30
0.0
 11
54.8320265761
 21
275.2228794302
 31
0.0
  0
LINE
  5
101
100
AcDbEntity
  8
51060040
  6
CONTINUOUS
 62
         7
100
AcDbLine
 10
51.4953747553
 20
275.2228794302
 30
0.0
 11
52.3064829554
 21
275.2228794302
 31
0.0
  0
LINE
  5
102
100
AcDbEntity
  8
51060040
  6
CONTINUOUS
 62
         7
100
AcDbLine
 10
54.8320265761
 20
275.2228794302
 30
0.0
 11
54.8320265761
 21
274.6228794302
 31
0.0
  0
LINE
  5
103
100
AcDbEntity
  8
51060040
  6
CONTINUOUS
 62
         7
100
AcDbLine
 10
52.3064829554
 20
275.2228794302
 30
0.0
 11
52.3064829554
 21
274.6228794302
 31
0.0
  0
LINE
  5
104
100
AcDbEntity
  8
51060040
  6
CONTINUOUS
 62
         7
100
AcDbLine
 10
51.4953747553
 20
275.2228794302
 30
0.0
 11
51.4953747553
 21
274.6228794302
 31
0.0
  0
LINE
  5
105
100
AcDbEntity
  8
51060040
  6
CONTINUOUS
 62
         7
100
AcDbLine
 10
50.8687045955
 20
275.2228794302
 30
0.0
 11
50.8687045955
 21
274.6228794302
 31
0.0
  0
LINE
  5
106
100
AcDbEntity
  8
51060040
  6
CONTINUOUS
 62
         7
100
AcDbLine
 10
44.2750446531
 20
275.2228794302
 30
0.0
 11
42.5186914962
 21
275.2228794302
 31
0.0
  0
LINE
  5
107
100
AcDbEntity
  8
51060040
  6
CONTINUOUS
 62
         7
100
AcDbLine
 10
46.903286728
 20
275.2228794302
 30
0.0
 11
46.6580679698
 21
275.2228794302
 31
0.0
  0
LINE
  5
108
100
AcDbEntity
  8
51060040
  6
CONTINUOUS
 62
         7
100
AcDbLine
 10
46.6580679698
 20
275.2228794302
 30
0.0
 11
44.2750446531
 21
275.2228794302
 31
0.0
  0
LINE
  5
109
100
AcDbEntity
  8
51060040
  6
CONTINUOUS
 62
         7
100
AcDbLine
 10
44.2750446531
 20
275.2228794302
 30
0.0
 11
44.2750446531
 21
274.6228794302
 31
0.0
  0
LINE
  5
10A
100
AcDbEntity
  8
51060040
  6
CONTINUOUS
 62
         7
100
AcDbLine
 10
18.7161490942
 20
215.4335056217
 30
0.0
 11
20.4593386012
 21
220.2228794302
 31
0.0
  0
LINE
  5
10B
100
AcDbEntity
  8
51060040
  6
CONTINUOUS
 62
         7
100
AcDbLine
 10
42.5186914962
 20
275.2228794302
 30
0.0
 11
42.5186914962
 21
274.6228794302
 31
0.0
  0
LINE
  5
10C
100
AcDbEntity
  8
51060040
  6
CONTINUOUS
 62
         7
100
AcDbLine
 10
46.6580679698
 20
275.2228794302
 30
0.0
 11
46.6580679698
 21
274.6228794302
 31
0.0
  0
ARC
  5
10D
100
AcDbEntity
  8
51060040
  6
CONTINUOUS
 62
         7
100
AcDbCircle
 10
-11.2675732192
 20
350.5327329035
 30
0.0
 40
81.25
100
AcDbArc
 50
292.4268381712
 51
312.0884760089
  0
ARC
  5
10E
100
AcDbEntity
  8
51060040
  6
CONTINUOUS
 62
         7
100
AcDbCircle
 10
48.6093386012
 20
246.8228794302
 30
0.0
 40
43.75
100
AcDbArc
 50
82.8877119563
 51
97.1122880437
  0
ARC
  5
10F
100
AcDbEntity
  8
51060040
  6
CONTINUOUS
 62
         7
100
AcDbCircle
 10
108.4862504216
 20
350.5327329035
 30
0.0
 40
81.25
100
AcDbArc
 50
227.9115239911
 51
247.5731618288
  0
ARC
  5
110
100
AcDbEntity
  8
51060040
  6
CONTINUOUS
 62
         7
100
AcDbCircle
 10
108.4862504216
 20
143.1130259569
 30
0.0
 40
81.25
100
AcDbArc
 50
112.4268381712
 51
132.0884760089
  0
ARC
  5
111
100
AcDbEntity
  8
51060040
  6
CONTINUOUS
 62
         7
100
AcDbCircle
 10
48.6093386012
 20
246.8228794302
 30
0.0
 40
43.75
100
AcDbArc
 50
262.8877119563
 51
277.1122880437
  0
ARC
  5
112
100
AcDbEntity
  8
51060040
  6
CONTINUOUS
 62
         7
100
AcDbCircle
 10
-11.2675732192
 20
143.1130259569
 30
0.0
 40
81.25
100
AcDbArc
 50
47.9115239911
 51
67.5731618288
  0
ARC
  5
113
100
AcDbEntity
  8
51060040
  6
CONTINUOUS
 62
         7
100
AcDbCircle
 10
-11.2675732192
 20
143.1130259569
 30
0.0
 40
80.0
100
AcDbArc
 50
47.6326266291
 51
67.5352192544
  0
LINE
  5
114
100
AcDbEntity
  8
51060040
  6
CONTINUOUS
 62
         7
100
AcDbLine
 10
88.1257074221
 20
215.4335056217
 30
0.0
 11
89.3593386012
 21
218.8228794302
 31
0.0
  0
ARC
  5
115
100
AcDbEntity
  8
51060040
  6
CONTINUOUS
 62
         7
100
AcDbCircle
 10
108.4862504216
 20
143.1130259569
 30
0.0
 40
80.0
100
AcDbArc
 50
112.4647807456
 51
132.3673733709
  0
ARC
  5
116
100
AcDbEntity
  8
51060040
  6
CONTINUOUS
 62
         7
100
AcDbCircle
 10
168.3631622421
 20
246.8228794302
 30
0.0
 40
80.0
100
AcDbArc
 50
167.6326266291
 51
170.948669043
  0
ARC
  5
117
100
AcDbEntity
  8
51060040
  6
CONTINUOUS
 62
         7
100
AcDbCircle
 10
168.3631622421
 20
246.8228794302
 30
0.0
 40
80.0
100
AcDbArc
 50
189.051330957
 51
192.3673733709
  0
ARC
  5
118
100
AcDbEntity
  8
51060040
  6
CONTINUOUS
 62
         7
100
AcDbCircle
 10
108.4862504216
 20
350.5327329035
 30
0.0
 40
80.0
100
AcDbArc
 50
227.6326266291
 51
247.5352192544
  0
ARC
  5
119
100
AcDbEntity
  8
51060040
  6
CONTINUOUS
 62
         7
100
AcDbCircle
 10
-11.2675732192
 20
350.5327329035
 30
0.0
 40
80.0
100
AcDbArc
 50
292.4647807456
 51
312.3673733709
  0
ARC
  5
11A
100
AcDbEntity
  8
51060040
  6
CONTINUOUS
 62
         7
100
AcDbCircle
 10
-71.1444850396
 20
246.8228794302
 30
0.0
 40
80.0
100
AcDbArc
 50
347.6326266291
 51
350.948669043
  0
ARC
  5
11B
100
AcDbEntity
  8
51060040
  6
CONTINUOUS
 62
         7
100
AcDbCircle
 10
-71.1444850396
 20
246.8228794302
 30
0.0
 40
80.0
100
AcDbArc
 50
9.051330957
 51
12.3673733709
  0
ARC
  5
11C
100
AcDbEntity
  8
51060040
  6
CONTINUOUS
 62
         7
100
AcDbCircle
 10
48.6093386012
 20
246.8228794302
 30
0.0
 40
45.0
100
AcDbArc
 50
202.3809467537
 51
205.1017887078
  0
ARC
  5
11D
100
AcDbEntity
  8
51060040
  6
CONTINUOUS
 62
         7
100
AcDbCircle
 10
39.5529321407
 20
252.0515981381
 30
0.0
 40
23.5275275298
100
AcDbArc
 50
101.9613823567
 51
114.6197852344
  0
ARC
  5
11E
100
AcDbEntity
  8
51060040
  6
CONTINUOUS
 62
         7
100
AcDbCircle
 10
57.6657450618
 20
252.0515981381
 30
0.0
 40
23.5275275298
100
AcDbArc
 50
65.4148905151
 51
78.0819564022
  0
ARC
  5
11F
100
AcDbEntity
  8
51060040
  6
CONTINUOUS
 62
         7
100
AcDbCircle
 10
48.6093386012
 20
246.8228794302
 30
0.0
 40
31.5
100
AcDbArc
 50
57.6124614669
 51
122.3875385331
  0
ARC
  5
120
100
AcDbEntity
  8
51060040
  6
CONTINUOUS
 62
         7
100
AcDbCircle
 10
48.6093386012
 20
246.8228794302
 30
0.0
 40
31.5
100
AcDbArc
 50
237.6124614669
 51
302.3875385331
  0
ARC
  5
121
100
AcDbEntity
  8
51060040
  6
CONTINUOUS
 62
         7
100
AcDbCircle
 10
48.6093386012
 20
246.8228794302
 30
0.0
 40
30.75
100
AcDbArc
 50
59.8873473213
 51
120.1126526787
  0
ARC
  5
122
100
AcDbEntity
  8
51060040
  6
CONTINUOUS
 62
         7
100
AcDbCircle
 10
48.6093386012
 20
246.8228794302
 30
0.0
 40
30.75
100
AcDbArc
 50
239.8873473213
 51
300.1126526787
  0
LINE
  5
123
100
AcDbEntity
  8
51060040
  6
CONTINUOUS
 62
         7
100
AcDbLine
 10
61.6093386012
 20
219.0228794302
 30
0.0
 11
61.6093386012
 21
274.6228794302
 31
0.0
  0
LINE
  5
124
100
AcDbEntity
  8
51060040
  6
CONTINUOUS
 62
         7
100
AcDbLine
 10
61.6093386012
 20
274.6228794302
 30
0.0
 11
35.6093386012
 21
274.6228794302
 31
0.0
  0
LINE
  5
125
100
AcDbEntity
  8
51060040
  6
CONTINUOUS
 62
         7
100
AcDbLine
 10
35.6093386012
 20
219.0228794302
 30
0.0
 11
35.6093386012
 21
274.6228794302
 31
0.0
  0
LINE
  5
126
100
AcDbEntity
  8
51060040
  6
CONTINUOUS
 62
         7
100
AcDbLine
 10
61.6093386012
 20
219.0228794302
 30
0.0
 11
35.6093386012
 21
219.0228794302
 31
0.0
  0
LINE
  5
127
100
AcDbEntity
  8
51060040
  6
CONTINUOUS
 62
         7
100
AcDbLine
 10
7.8593386012
 20
218.8228794302
 30
0.0
 11
7.8593386012
 21
274.8228794302
 31
0.0
  0
LINE
  5
128
100
AcDbEntity
  8
51060040
  6
CONTINUOUS
 62
         7
100
AcDbLine
 10
89.3593386012
 20
218.8228794302
 30
0.0
 11
89.3593386012
 21
274.8228794302
 31
0.0
  0
LINE
  5
129
100
AcDbEntity
  8
51060040
  6
CONTINUOUS
 62
         7
100
AcDbLine
 10
76.7593386012
 20
220.2228794302
 30
0.0
 11
76.7593386012
 21
273.4228794302
 31
0.0
  0
LINE
  5
12A
100
AcDbEntity
  8
51060040
  6
CONTINUOUS
 62
         7
100
AcDbLine
 10
20.4593386012
 20
220.2228794302
 30
0.0
 11
20.4593386012
 21
273.4228794302
 31
0.0
  0
ARC
  5
12B
100
AcDbEntity
  8
51060040
  6
CONTINUOUS
 62
         7
100
AcDbCircle
 10
90.3158674335
 20
273.615385873
 30
0.0
 40
12.6762050942
100
AcDbArc
 50
158.7377372552
 51
201.2622627448
  0
LINE
  5
12C
100
AcDbEntity
  8
51060040
  6
CONTINUOUS
 62
         7
100
AcDbLine
 10
18.7161490942
 20
278.2122532387
 30
0.0
 11
9.0929697803
 21
278.2122532387
 31
0.0
  0
LINE
  5
12D
100
AcDbEntity
  8
51060040
  6
CONTINUOUS
 62
         7
100
AcDbLine
 10
18.7161490942
 20
215.4335056217
 30
0.0
 11
9.0929697803
 21
215.4335056217
 31
0.0
  0
LINE
  5
12E
100
AcDbEntity
  8
51060040
  6
CONTINUOUS
 62
         7
100
AcDbLine
 10
18.7161490942
 20
224.627240353
 30
0.0
 11
9.0929697803
 21
224.627240353
 31
0.0
  0
LINE
  5
12F
100
AcDbEntity
  8
51060040
  6
CONTINUOUS
 62
         7
100
AcDbLine
 10
18.7161490942
 20
269.0185185074
 30
0.0
 11
9.0929697803
 21
269.0185185074
 31
0.0
  0
LINE
  5
130
100
AcDbEntity
  8
51060040
  6
CONTINUOUS
 62
         7
100
AcDbLine
 10
18.7161490942
 20
246.8228794302
 30
0.0
 11
9.0929697803
 21
246.8228794302
 31
0.0
  0
ARC
  5
131
100
AcDbEntity
  8
51060040
  6
CONTINUOUS
 62
         7
100
AcDbCircle
 10
48.6093386012
 20
236.3654420144
 30
0.0
 40
23.5275275298
100
AcDbArc
 50
223.3740365741
 51
316.6205774445
  0
ARC
  5
132
100
AcDbEntity
  8
51060040
  6
CONTINUOUS
 62
         7
100
AcDbCircle
 10
48.6093386012
 20
246.8228794302
 30
0.0
 40
45.0
100
AcDbArc
 50
22.3809467537
 51
25.1017887078
  0
ARC
  5
133
100
AcDbEntity
  8
51060040
  6
CONTINUOUS
 62
         7
100
AcDbCircle
 10
48.6093386012
 20
246.8228794302
 30
0.0
 40
45.0
100
AcDbArc
 50
82.3809467537
 51
97.6190532463
  0
ARC
  5
134
100
AcDbEntity
  8
51060040
  6
CONTINUOUS
 62
         7
100
AcDbCircle
 10
48.6093386012
 20
246.8228794302
 30
0.0
 40
45.0
100
AcDbArc
 50
154.8982112922
 51
157.6190532463
  0
ARC
  5
135
100
AcDbEntity
  8
51060040
  6
CONTINUOUS
 62
         7
100
AcDbCircle
 10
48.6093386012
 20
246.8228794302
 30
0.0
 40
45.0
100
AcDbArc
 50
262.3809467537
 51
277.6190532463
  0
ARC
  5
136
100
AcDbEntity
  8
51060040
  6
CONTINUOUS
 62
         7
100
AcDbCircle
 10
48.6093386012
 20
246.8228794302
 30
0.0
 40
45.0
100
AcDbArc
 50
334.8982112922
 51
337.6190532463
  0
ENDBLK
  5
137
100
AcDbEntity
  8
51060040
  6
CONTINUOUS
 62
         7
100
AcDbBlockEnd
  0
BLOCK
  5
1B1
100
AcDbEntity
  8
0
 62
         1
 48
0.0
100
AcDbBlockBegin
  2
SE4
 70
         0
 10
0.0
 20
0.0
 30
0.0
  3
SE4
  1

  0
ENDBLK
  5
1B2
100
AcDbEntity
  8
0
 62
         1
 48
0.0
100
AcDbBlockEnd
  0
BLOCK
  5
13A
100
AcDbEntity
  8
0
 62
         1
 48
0.0
100
AcDbBlockBegin
  2
SE5
 70
         0
 10
0.0
 20
0.0
 30
0.0
  3
SE5
  1

  0
ARC
  5
13B
100
AcDbEntity
  8
51060040
  6
CONTINUOUS
 62
         7
100
AcDbCircle
 10
270.8504985222
 20
11.6603457387
 30
0.0
 40
12.6762050942
100
AcDbArc
 50
158.7377372552
 51
201.2622627448
  0
ARC
  5
13C
100
AcDbEntity
  8
51060040
  6
CONTINUOUS
 62
         7
100
AcDbCircle
 10
260.3531331996
 20
27.355032643
 30
0.0
 40
71.5909388258
100
AcDbArc
 50
171.0822121515
 51
188.9177878485
  0
ARC
  5
13D
100
AcDbEntity
  8
51060040
  6
CONTINUOUS
 62
         7
100
AcDbCircle
 10
260.3531331996
 20
49.5506717201
 30
0.0
 40
71.5909388258
100
AcDbArc
 50
171.0822121515
 51
188.9177878485
  0
ARC
  5
13E
100
AcDbEntity
  8
51060040
  6
CONTINUOUS
 62
         7
100
AcDbCircle
 10
329.7626915276
 20
27.355032643
 30
0.0
 40
71.5909388258
100
AcDbArc
 50
171.0822121515
 51
188.9177878485
  0
ARC
  5
13F
100
AcDbEntity
  8
51060040
  6
CONTINUOUS
 62
         7
100
AcDbCircle
 10
201.4409401942
 20
65.2453586244
 30
0.0
 40
12.6762050942
100
AcDbArc
 50
158.7377372552
 51
201.2622627448
  0
ARC
  5
140
100
AcDbEntity
  8
51060040
  6
CONTINUOUS
 62
         7
100
AcDbCircle
 10
256.8469991856
 20
11.6603457387
 30
0.0
 40
12.6762050942
100
AcDbArc
 50
338.7377372552
 51
21.2622627448
  0
ARC
  5
141
100
AcDbEntity
  8
51060040
  6
CONTINUOUS
 62
         7
100
AcDbCircle
 10
197.9348061802
 20
49.5506717201
 30
0.0
 40
71.5909388258
100
AcDbArc
 50
351.0822121515
 51
8.9177878485
  0
ARC
  5
142
100
AcDbEntity
  8
51060040
  6
CONTINUOUS
 62
         7
100
AcDbCircle
 10
197.9348061802
 20
27.355032643
 30
0.0
 40
71.5909388258
100
AcDbArc
 50
351.0822121515
 51
8.9177878485
  0
ARC
  5
143
100
AcDbEntity
  8
51060040
  6
CONTINUOUS
 62
         7
100
AcDbCircle
 10
329.7626915276
 20
49.5506717201
 30
0.0
 40
71.5909388258
100
AcDbArc
 50
171.0822121515
 51
188.9177878485
  0
LINE
  5
144
100
AcDbEntity
  8
51060040
  6
CONTINUOUS
 62
         7
100
AcDbLine
 10
189.627600869
 20
60.6484912587
 30
0.0
 11
199.2507801828
 21
60.6484912587
 31
0.0
  0
ARC
  5
145
100
AcDbEntity
  8
51060040
  6
CONTINUOUS
 62
         7
100
AcDbCircle
 10
187.4374408576
 20
11.6603457387
 30
0.0
 40
12.6762050942
100
AcDbArc
 50
338.7377372552
 51
21.2622627448
  0
ARC
  5
146
100
AcDbEntity
  8
51060040
  6
CONTINUOUS
 62
         7
100
AcDbCircle
 10
128.5252478522
 20
27.355032643
 30
0.0
 40
71.5909388258
100
AcDbArc
 50
351.0822121515
 51
8.9177878485
  0
ARC
  5
147
100
AcDbEntity
  8
51060040
  6
CONTINUOUS
 62
         7
100
AcDbCircle
 10
201.4409401942
 20
11.6603457387
 30
0.0
 40
12.6762050942
100
AcDbArc
 50
158.7377372552
 51
201.2622627448
  0
LINE
  5
148
100
AcDbEntity
  8
51060040
  6
CONTINUOUS
 62
         7
100
AcDbLine
 10
189.627600869
 20
7.0634783731
 30
0.0
 11
199.2507801828
 21
7.0634783731
 31
0.0
  0
LINE
  5
149
100
AcDbEntity
  8
51060040
  6
CONTINUOUS
 62
         7
100
AcDbLine
 10
189.627600869
 20
16.2572131044
 30
0.0
 11
199.2507801828
 21
16.2572131044
 31
0.0
  0
LINE
  5
14A
100
AcDbEntity
  8
51060040
  6
CONTINUOUS
 62
         7
100
AcDbLine
 10
189.627600869
 20
69.84222599
 30
0.0
 11
199.2507801828
 21
69.84222599
 31
0.0
  0
LINE
  5
14B
100
AcDbEntity
  8
51060040
  6
CONTINUOUS
 62
         7
100
AcDbLine
 10
189.627600869
 20
38.4528521815
 30
0.0
 11
199.2507801828
 21
38.4528521815
 31
0.0
  0
LINE
  5
14C
100
AcDbEntity
  8
51060040
  6
CONTINUOUS
 62
         7
100
AcDbLine
 10
267.1439696899
 20
176.2528521815
 30
0.0
 11
191.1439696899
 21
176.2528521815
 31
0.0
  0
LINE
  5
14D
100
AcDbEntity
  8
51060040
  6
CONTINUOUS
 62
         7
100
AcDbLine
 10
198.3939696899
 20
88.9528521815
 30
0.0
 11
198.3939696899
 21
79.9528521815
 31
0.0
  0
LINE
  5
14E
100
AcDbEntity
  8
51060040
  6
CONTINUOUS
 62
         7
100
AcDbLine
 10
197.6439696899
 20
94.4528521815
 30
0.0
 11
197.6439696899
 21
89.3858648834
 31
0.0
  0
LINE
  5
14F
100
AcDbEntity
  8
51060040
  6
CONTINUOUS
 62
         7
100
AcDbLine
 10
198.1439696899
 20
94.9528521815
 30
0.0
 11
197.6439696899
 21
94.4528521815
 31
0.0
  0
LINE
  5
150
100
AcDbEntity
  8
51060040
  6
CONTINUOUS
 62
         7
100
AcDbLine
 10
259.8939696899
 20
88.9528521815
 30
0.0
 11
260.6439696899
 21
89.3858648834
 31
0.0
  0
LINE
  5
151
100
AcDbEntity
  8
51060040
  6
CONTINUOUS
 62
         7
100
AcDbLine
 10
269.8939696899
 20
66.4528521815
 30
0.0
 11
268.6603385108
 21
69.84222599
 31
0.0
  0
LINE
  5
152
100
AcDbEntity
  8
51060040
  6
CONTINUOUS
 62
         7
100
AcDbLine
 10
200.9939696899
 20
65.0528521815
 30
0.0
 11
199.2507801828
 21
69.84222599
 31
0.0
  0
LINE
  5
153
100
AcDbEntity
  8
51060040
  6
CONTINUOUS
 62
         7
100
AcDbLine
 10
217.1439696899
 20
127.4528521815
 30
0.0
 11
217.1439696899
 21
114.5528521815
 31
0.0
  0
LINE
  5
154
100
AcDbEntity
  8
51060040
  6
CONTINUOUS
 62
         7
100
AcDbLine
 10
197.6439696899
 20
98.4528521815
 30
0.0
 11
197.6439696899
 21
94.9528521815
 31
0.0
  0
LINE
  5
155
100
AcDbEntity
  8
51060040
  6
CONTINUOUS
 62
         7
100
AcDbLine
 10
223.2439696899
 20
151.2528521815
 30
0.0
 11
223.2439696899
 21
142.9528521815
 31
0.0
  0
LINE
  5
156
100
AcDbEntity
  8
51060040
  6
CONTINUOUS
 62
         7
100
AcDbLine
 10
257.2939696899
 20
65.0528521815
 30
0.0
 11
248.1181240227
 21
65.0528521815
 31
0.0
  0
LINE
  5
157
100
AcDbEntity
  8
51060040
  6
CONTINUOUS
 62
         7
100
AcDbLine
 10
248.1439696899
 20
73.1689865186
 30
0.0
 11
259.8939696899
 21
79.9528521815
 31
0.0
  0
LINE
  5
158
100
AcDbEntity
  8
51060040
  6
CONTINUOUS
 62
         7
100
AcDbLine
 10
210.1515030165
 20
65.0528521815
 30
0.0
 11
200.9939696899
 21
65.0528521815
 31
0.0
  0
LINE
  5
159
100
AcDbEntity
  8
51060040
  6
CONTINUOUS
 62
         7
100
AcDbLine
 10
257.2939696899
 20
11.8528521815
 30
0.0
 11
259.0371591969
 21
7.0634783731
 31
0.0
  0
LINE
  5
15A
100
AcDbEntity
  8
51060040
  6
CONTINUOUS
 62
         7
100
AcDbLine
 10
188.3939696899
 20
10.4528521815
 30
0.0
 11
189.627600869
 21
7.0634783731
 31
0.0
  0
LINE
  5
15B
100
AcDbEntity
  8
51060040
  6
CONTINUOUS
 62
         7
100
AcDbLine
 10
210.1439696899
 20
73.1689865186
 30
0.0
 11
210.1439696899
 21
65.0471966873
 31
0.0
  0
LINE
  5
15C
100
AcDbEntity
  8
51060040
  6
CONTINUOUS
 62
         7
100
AcDbLine
 10
259.8939696899
 20
79.9528521815
 30
0.0
 11
259.8939696899
 21
88.9528521815
 31
0.0
  0
LINE
  5
15D
100
AcDbEntity
  8
51060040
  6
CONTINUOUS
 62
         7
100
AcDbLine
 10
260.6439696899
 20
89.3858648834
 30
0.0
 11
260.6439696899
 21
94.4528521815
 31
0.0
  0
LINE
  5
15E
100
AcDbEntity
  8
51060040
  6
CONTINUOUS
 62
         7
100
AcDbLine
 10
260.6439696899
 20
94.4528521815
 30
0.0
 11
260.1439696899
 21
94.9528521815
 31
0.0
  0
LINE
  5
15F
100
AcDbEntity
  8
51060040
  6
CONTINUOUS
 62
         7
100
AcDbLine
 10
197.6439696899
 20
89.3858648834
 30
0.0
 11
198.3939696899
 21
88.9528521815
 31
0.0
  0
LINE
  5
160
100
AcDbEntity
  8
51060040
  6
CONTINUOUS
 62
         7
100
AcDbLine
 10
268.6603385108
 20
7.0634783731
 30
0.0
 11
269.8939696899
 21
10.4528521815
 31
0.0
  0
LINE
  5
161
100
AcDbEntity
  8
51060040
  6
CONTINUOUS
 62
         7
100
AcDbLine
 10
199.2507801828
 20
7.0634783731
 30
0.0
 11
200.9939696899
 21
11.8528521815
 31
0.0
  0
LINE
  5
162
100
AcDbEntity
  8
51060040
  6
CONTINUOUS
 62
         7
100
AcDbLine
 10
241.1439696899
 20
114.5528521815
 30
0.0
 11
241.1439696899
 21
127.4528521815
 31
0.0
  0
LINE
  5
163
100
AcDbEntity
  8
51060040
  6
CONTINUOUS
 62
         7
100
AcDbLine
 10
260.6439696899
 20
94.9528521815
 30
0.0
 11
260.6439696899
 21
98.4528521815
 31
0.0
  0
LINE
  5
164
100
AcDbEntity
  8
51060040
  6
CONTINUOUS
 62
         7
100
AcDbLine
 10
235.0439696899
 20
142.9528521815
 30
0.0
 11
235.0439696899
 21
151.2528521815
 31
0.0
  0
ARC
  5
165
100
AcDbEntity
  8
51060040
  6
CONTINUOUS
 62
         7
100
AcDbCircle
 10
267.1439696899
 20
169.2528521815
 30
0.0
 40
7.0
100
AcDbArc
 50
75.4394680825
 51
90.0
  0
LINE
  5
166
100
AcDbEntity
  8
51060040
  6
CONTINUOUS
 62
         7
100
AcDbLine
 10
242.1439696899
 20
11.8528521815
 30
0.0
 11
257.2939696899
 21
11.8528521815
 31
0.0
  0
LINE
  5
167
100
AcDbEntity
  8
51060040
  6
CONTINUOUS
 62
         7
100
AcDbLine
 10
216.1439696899
 20
10.6528521815
 30
0.0
 11
242.1439696899
 21
10.6528521815
 31
0.0
  0
LINE
  5
168
100
AcDbEntity
  8
51060040
  6
CONTINUOUS
 62
         7
100
AcDbLine
 10
198.3939696899
 20
79.9528521815
 30
0.0
 11
210.1439696899
 21
73.1689865186
 31
0.0
  0
LINE
  5
169
100
AcDbEntity
  8
51060040
  6
CONTINUOUS
 62
         7
100
AcDbLine
 10
248.1439696899
 20
65.0340536757
 30
0.0
 11
248.1439696899
 21
73.1689865186
 31
0.0
  0
LINE
  5
16A
100
AcDbEntity
  8
51060040
  6
CONTINUOUS
 62
         7
100
AcDbLine
 10
200.9939696899
 20
11.8528521815
 30
0.0
 11
216.1439696899
 21
11.8528521815
 31
0.0
  0
LINE
  5
16B
100
AcDbEntity
  8
51060040
  6
CONTINUOUS
 62
         7
100
AcDbLine
 10
259.0371591969
 20
69.84222599
 30
0.0
 11
257.2939696899
 21
65.0528521815
 31
0.0
  0
LINE
  5
16C
100
AcDbEntity
  8
51060040
  6
CONTINUOUS
 62
         7
100
AcDbLine
 10
234.8939696899
 20
160.7528521815
 30
0.0
 11
234.8939696899
 21
151.2528521815
 31
0.0
  0
LINE
  5
16D
100
AcDbEntity
  8
51060040
  6
CONTINUOUS
 62
         7
100
AcDbLine
 10
223.3939696899
 20
160.7528521815
 30
0.0
 11
223.3939696899
 21
151.2528521815
 31
0.0
  0
LINE
  5
16E
100
AcDbEntity
  8
51060040
  6
CONTINUOUS
 62
         7
100
AcDbLine
 10
223.3939696899
 20
151.2528521815
 30
0.0
 11
227.8220392832
 21
151.2528521815
 31
0.0
  0
LINE
  5
16F
100
AcDbEntity
  8
51060040
  6
CONTINUOUS
 62
         7
100
AcDbLine
 10
189.627600869
 20
69.84222599
 30
0.0
 11
188.3939696899
 21
66.4528521815
 31
0.0
  0
LINE
  5
170
100
AcDbEntity
  8
51060040
  6
CONTINUOUS
 62
         7
100
AcDbLine
 10
264.7878712228
 20
169.2528521815
 30
0.0
 11
264.7878712228
 21
160.7528521815
 31
0.0
  0
LINE
  5
171
100
AcDbEntity
  8
51060040
  6
CONTINUOUS
 62
         7
100
AcDbLine
 10
235.1103398527
 20
169.2528521815
 30
0.0
 11
235.1103398527
 21
160.7528521815
 31
0.0
  0
LINE
  5
172
100
AcDbEntity
  8
51060040
  6
CONTINUOUS
 62
         7
100
AcDbLine
 10
264.7878712228
 20
160.7528521815
 30
0.0
 11
235.1103398527
 21
160.7528521815
 31
0.0
  0
LINE
  5
173
100
AcDbEntity
  8
51060040
  6
CONTINUOUS
 62
         7
100
AcDbLine
 10
193.500068157
 20
169.2528521815
 30
0.0
 11
193.500068157
 21
160.7528521815
 31
0.0
  0
LINE
  5
174
100
AcDbEntity
  8
51060040
  6
CONTINUOUS
 62
         7
100
AcDbLine
 10
187.5336979941
 20
169.2528521815
 30
0.0
 11
187.5336979941
 21
160.7528521815
 31
0.0
  0
LINE
  5
175
100
AcDbEntity
  8
51060040
  6
CONTINUOUS
 62
         7
100
AcDbLine
 10
223.177599527
 20
169.2528521815
 30
0.0
 11
223.177599527
 21
160.7528521815
 31
0.0
  0
LINE
  5
176
100
AcDbEntity
  8
51060040
  6
CONTINUOUS
 62
         7
100
AcDbLine
 10
223.177599527
 20
160.7528521815
 30
0.0
 11
193.500068157
 21
160.7528521815
 31
0.0
  0
LINE
  5
177
100
AcDbEntity
  8
51060040
  6
CONTINUOUS
 62
         7
100
AcDbLine
 10
270.7542413856
 20
169.2528521815
 30
0.0
 11
270.7542413856
 21
160.7528521815
 31
0.0
  0
LINE
  5
178
100
AcDbEntity
  8
51060040
  6
CONTINUOUS
 62
         7
100
AcDbLine
 10
270.7542413856
 20
160.7528521815
 30
0.0
 11
264.7878712228
 21
160.7528521815
 31
0.0
  0
ARC
  5
179
100
AcDbEntity
  8
51060040
  6
CONTINUOUS
 62
         7
100
AcDbCircle
 10
260.1890256133
 20
170.0012184787
 30
0.0
 40
10.591687138
100
AcDbArc
 50
355.9483331778
 51
26.9829451133
  0
ARC
  5
17A
100
AcDbEntity
  8
51060040
  6
PHANTOM2
 62
         7
100
AcDbCircle
 10
260.1890256133
 20
170.0012184787
 30
0.0
 40
10.591687138
100
AcDbArc
 50
26.9829451133
 51
34.6916787695
  0
SPLINE
  5
17B
100
AcDbEntity
  8
51060040
  6
CONTINUOUS
 62
         7
100
AcDbSpline
210
0.0
220
0.0
230
1.0
 70
         8
 71
         3
 72
        26
 73
        22
 74
         0
 42
0.0
 43
0.0
 40
0.0
 40
0.0
 40
0.0
 40
0.0
 40
0.0624999999999999
 40
0.0624999999999999
 40
0.1249999999999998
 40
0.1249999999999998
 40
0.2499999999999997
 40
0.2499999999999997
 40
0.3749999999999995
 40
0.3749999999999995
 40
0.4999999999999993
 40
0.4999999999999993
 40
0.6249999999999991
 40
0.6249999999999991
 40
0.749999999999999
 40
0.749999999999999
 40
0.8749999999999989
 40
0.8749999999999989
 40
0.9374999999999994
 40
0.9374999999999994
 40
1.0
 40
1.0
 40
1.0
 40
1.0
 10
235.11033985274011
 20
169.25285218154389
 30
0.0
 10
235.11033985274
 20
170.11383125123456
 30
0.0
 10
235.32195477802398
 20
170.94295246629281
 30
0.0
 10
236.0201101596241
 20
172.35790325055729
 30
0.0
 10
236.49829275026309
 20
172.94439947178691
 30
0.0
 10
238.10257603845599
 20
174.37326529188164
 30
0.0
 10
239.37800249289654
 20
174.90634017470134
 30
0.0
 10
242.00937357324236
 20
175.61520304664577
 30
0.0
 10
243.36604220620737
 20
175.7853849307493
 30
0.0
 10
246.14681839471439
 20
175.99425194230241
 30
0.0
 10
247.57106995542395
 20
176.02970808297397
 30
0.0
 10
250.48377171048782
 20
176.02946061535945
 30
0.0
 10
251.96547861132944
 20
175.99367579653259
 30
0.0
 10
254.96077790060963
 20
175.7830946467526
 30
0.0
 10
256.4767067062603
 20
175.61162675492128
 30
0.0
 10
259.52553910289362
 20
174.89653899321701
 30
0.0
 10
261.05493392038863
 20
174.3587122016462
 30
0.0
 10
263.02556997671678
 20
172.93797307411162
 30
0.0
 10
263.62662731634754
 20
172.35543506713108
 30
0.0
 10
264.51853517649141
 20
170.93346030748847
 30
0.0
 10
264.78787122277424
 20
170.10806815921612
 30
0.0
 10
264.78787122277288
 20
169.25285218154389
 30
0.0
  0
ARC
  5
17C
100
AcDbEntity
  8
51060040
  6
PHANTOM2
 62
         7
100
AcDbCircle
 10
198.0989137664
 20
170.0012184787
 30
0.0
 40
10.591687138
100
AcDbArc
 50
145.3083212305
 51
153.0170548867
  0
ARC
  5
17D
100
AcDbEntity
  8
51060040
  6
CONTINUOUS
 62
         7
100
AcDbCircle
 10
198.0989137664
 20
170.0012184787
 30
0.0
 40
10.591687138
100
AcDbArc
 50
153.0171427356
 51
184.0516668222
  0
SPLINE
  5
17E
100
AcDbEntity
  8
51060040
  6
CONTINUOUS
 62
         7
100
AcDbSpline
210
0.0
220
0.0
230
1.0
 70
         8
 71
         3
 72
        26
 73
        22
 74
         0
 42
0.0
 43
0.0
 40
0.0
 40
0.0
 40
0.0
 40
0.0
 40
0.0624999999999998
 40
0.0624999999999998
 40
0.1249999999999996
 40
0.1249999999999996
 40
0.2499999999999996
 40
0.2499999999999996
 40
0.3749999999999994
 40
0.3749999999999994
 40
0.4999999999999991
 40
0.4999999999999991
 40
0.6249999999999989
 40
0.6249999999999989
 40
0.7499999999999988
 40
0.7499999999999988
 40
0.8749999999999986
 40
0.8749999999999986
 40
0.9374999999999993
 40
0.9374999999999993
 40
1.0
 40
1.0
 40
1.0
 40
1.0
 10
193.50006815699695
 20
169.25285218154389
 30
0.0
 10
193.50006815699678
 20
170.11383125123459
 30
0.0
 10
193.77403068204708
 20
170.94295246629281
 30
0.0
 10
194.66419875660151
 20
172.35790325055726
 30
0.0
 10
195.26860415260435
 20
172.94439947178691
 30
0.0
 10
197.25862704449324
 20
174.37326529188167
 30
0.0
 10
198.79387225439186
 20
174.90634017470131
 30
0.0
 10
201.83699266399753
 20
175.6152030466458
 30
0.0
 10
203.35023784124598
 20
175.78538493074925
 30
0.0
 10
206.34028735557854
 20
175.99425194230247
 30
0.0
 10
207.81740467109523
 20
176.02970808297405
 30
0.0
 10
210.72978900049449
 20
176.02946061535943
 30
0.0
 10
212.15815810590229
 20
175.99367579653256
 30
0.0
 10
214.9428939070811
 20
175.78309464675257
 30
0.0
 10
216.30143779222416
 20
175.61162675492125
 30
0.0
 10
218.93654177682387
 20
174.89653899321692
 30
0.0
 10
220.20623292537763
 20
174.35871220164617
 30
0.0
 10
221.79456409157154
 20
172.93797307411165
 30
0.0
 10
222.27011429730666
 20
172.35543506713114
 30
0.0
 10
222.96959189820384
 20
170.9334603074885
 30
0.0
 10
223.17759952703071
 20
170.10806815921617
 30
0.0
 10
223.1775995270296
 20
169.25285218154389
 30
0.0
  0
LINE
  5
17F
100
AcDbEntity
  8
51060040
  6
CONTINUOUS
 62
         7
100
AcDbLine
 10
242.6439697118
 20
127.4528521815
 30
0.0
 11
229.1439696899
 21
127.4528521815
 31
0.0
  0
LINE
  5
180
100
AcDbEntity
  8
51060040
  6
CONTINUOUS
 62
         7
100
AcDbLine
 10
229.1439696899
 20
127.4528521815
 30
0.0
 11
215.6439697118
 21
127.4528521815
 31
0.0
  0
LINE
  5
181
100
AcDbEntity
  8
51060040
  6
CONTINUOUS
 62
         7
100
AcDbLine
 10
242.6439697118
 20
142.9528521815
 30
0.0
 11
229.1439696899
 21
142.9528521815
 31
0.0
  0
LINE
  5
182
100
AcDbEntity
  8
51060040
  6
CONTINUOUS
 62
         7
100
AcDbLine
 10
229.1439696899
 20
142.9528521815
 30
0.0
 11
215.6439697118
 21
142.9528521815
 31
0.0
  0
LINE
  5
183
100
AcDbEntity
  8
51060040
  6
CONTINUOUS
 62
         7
100
AcDbLine
 10
242.6439697118
 20
142.9528521815
 30
0.0
 11
242.6439697118
 21
127.4528521815
 31
0.0
  0
LINE
  5
184
100
AcDbEntity
  8
51060040
  6
CONTINUOUS
 62
         7
100
AcDbLine
 10
229.1439696899
 20
142.9528521815
 30
0.0
 11
229.1439696899
 21
127.4528521815
 31
0.0
  0
LINE
  5
185
100
AcDbEntity
  8
51060040
  6
CONTINUOUS
 62
         7
100
AcDbLine
 10
215.6439697118
 20
142.9528521815
 30
0.0
 11
215.6439697118
 21
127.4528521815
 31
0.0
  0
LINE
  5
186
100
AcDbEntity
  8
51060040
  6
CONTINUOUS
 62
         7
100
AcDbLine
 10
229.1439696899
 20
114.5528521815
 30
0.0
 11
205.6439696899
 21
114.5528521815
 31
0.0
  0
LINE
  5
187
100
AcDbEntity
  8
51060040
  6
CONTINUOUS
 62
         7
100
AcDbLine
 10
252.6439696899
 20
114.5528521815
 30
0.0
 11
229.1439696899
 21
114.5528521815
 31
0.0
  0
LINE
  5
188
100
AcDbEntity
  8
51060040
  6
CONTINUOUS
 62
         7
100
AcDbLine
 10
205.6439696899
 20
98.4528521815
 30
0.0
 11
205.6439696899
 21
114.5528521815
 31
0.0
  0
LINE
  5
189
100
AcDbEntity
  8
51060040
  6
CONTINUOUS
 62
         7
100
AcDbLine
 10
252.6439696899
 20
98.4528521815
 30
0.0
 11
252.6439696899
 21
114.5528521815
 31
0.0
  0
LINE
  5
18A
100
AcDbEntity
  8
51060040
  6
CONTINUOUS
 62
         7
100
AcDbLine
 10
229.1439696899
 20
98.4528521815
 30
0.0
 11
229.1439696899
 21
114.5528521815
 31
0.0
  0
LINE
  5
18B
100
AcDbEntity
  8
51060040
  6
CONTINUOUS
 62
         7
100
AcDbLine
 10
242.1439696899
 20
73.1689865186
 30
0.0
 11
248.1439696899
 21
73.1689865186
 31
0.0
  0
LINE
  5
18C
100
AcDbEntity
  8
51060040
  6
CONTINUOUS
 62
         7
100
AcDbLine
 10
259.8939696899
 20
79.9528521815
 30
0.0
 11
198.3939696899
 21
79.9528521815
 31
0.0
  0
LINE
  5
18D
100
AcDbEntity
  8
51060040
  6
CONTINUOUS
 62
         7
100
AcDbLine
 10
259.8939696899
 20
88.9528521815
 30
0.0
 11
198.3939696899
 21
88.9528521815
 31
0.0
  0
LINE
  5
18E
100
AcDbEntity
  8
51060040
  6
CONTINUOUS
 62
         7
100
AcDbLine
 10
260.6439696899
 20
89.3858648834
 30
0.0
 11
197.6439696899
 21
89.3858648834
 31
0.0
  0
LINE
  5
18F
100
AcDbEntity
  8
51060040
  6
CONTINUOUS
 62
         7
100
AcDbLine
 10
260.6439696899
 20
98.4528521815
 30
0.0
 11
197.6439696899
 21
98.4528521815
 31
0.0
  0
LINE
  5
190
100
AcDbEntity
  8
51060040
  6
CONTINUOUS
 62
         7
100
AcDbLine
 10
260.6439696899
 20
94.9528521815
 30
0.0
 11
197.6439696899
 21
94.9528521815
 31
0.0
  0
ARC
  5
191
100
AcDbEntity
  8
51060040
  6
CONTINUOUS
 62
         7
100
AcDbCircle
 10
252.5829011361
 20
123.8737583418
 30
0.0
 40
72.5324886376
100
AcDbArc
 50
234.1897773114
 51
239.8423605153
  0
LINE
  5
192
100
AcDbEntity
  8
51060040
  6
CONTINUOUS
 62
         7
100
AcDbLine
 10
260.6439696899
 20
94.4528521815
 30
0.0
 11
197.6439696899
 21
94.4528521815
 31
0.0
  0
LINE
  5
193
100
AcDbEntity
  8
51060040
  6
CONTINUOUS
 62
         7
100
AcDbLine
 10
216.1439696899
 20
10.6528521815
 30
0.0
 11
216.1439696899
 21
38.4528521815
 31
0.0
  0
LINE
  5
194
100
AcDbEntity
  8
51060040
  6
CONTINUOUS
 62
         7
100
AcDbLine
 10
242.1439696899
 20
10.6528521815
 30
0.0
 11
242.1439696899
 21
38.4528521815
 31
0.0
  0
LINE
  5
195
100
AcDbEntity
  8
51060040
  6
CONTINUOUS
 62
         7
100
AcDbLine
 10
242.1439696899
 20
79.9178715997
 30
0.0
 11
242.1439696899
 21
38.4528521815
 31
0.0
  0
LINE
  5
196
100
AcDbEntity
  8
51060040
  6
CONTINUOUS
 62
         7
100
AcDbLine
 10
216.1439696899
 20
79.9178715997
 30
0.0
 11
216.1439696899
 21
38.4528521815
 31
0.0
  0
LINE
  5
197
100
AcDbEntity
  8
51060040
  6
CONTINUOUS
 62
         7
100
AcDbLine
 10
257.2939696899
 20
65.0528521815
 30
0.0
 11
257.2939696899
 21
11.8528521815
 31
0.0
  0
LINE
  5
198
100
AcDbEntity
  8
51060040
  6
CONTINUOUS
 62
         7
100
AcDbLine
 10
269.8939696899
 20
66.4528521815
 30
0.0
 11
269.8939696899
 21
10.4528521815
 31
0.0
  0
LINE
  5
199
100
AcDbEntity
  8
51060040
  6
CONTINUOUS
 62
         7
100
AcDbLine
 10
188.3939696899
 20
66.4528521815
 30
0.0
 11
188.3939696899
 21
10.4528521815
 31
0.0
  0
LINE
  5
19A
100
AcDbEntity
  8
51060040
  6
CONTINUOUS
 62
         7
100
AcDbLine
 10
200.9939696899
 20
65.0528521815
 30
0.0
 11
200.9939696899
 21
11.8528521815
 31
0.0
  0
ARC
  5
19B
100
AcDbEntity
  8
51060040
  6
CONTINUOUS
 62
         7
100
AcDbCircle
 10
270.8504985222
 20
65.2453586244
 30
0.0
 40
12.6762050942
100
AcDbArc
 50
158.7377372552
 51
201.2622627448
  0
ARC
  5
19C
100
AcDbEntity
  8
51060040
  6
CONTINUOUS
 62
         7
100
AcDbCircle
 10
256.8469991856
 20
65.2453586244
 30
0.0
 40
12.6762050942
100
AcDbArc
 50
338.7377372552
 51
21.2622627448
  0
ARC
  5
19D
100
AcDbEntity
  8
51060040
  6
CONTINUOUS
 62
         7
100
AcDbCircle
 10
187.4374408576
 20
65.2453586244
 30
0.0
 40
12.6762050942
100
AcDbArc
 50
338.7377372552
 51
21.2622627448
  0
ARC
  5
19E
100
AcDbEntity
  8
51060040
  6
CONTINUOUS
 62
         7
100
AcDbCircle
 10
128.5252478522
 20
49.5506717201
 30
0.0
 40
71.5909388258
100
AcDbArc
 50
351.0822121515
 51
8.9177878485
  0
LINE
  5
19F
100
AcDbEntity
  8
51060040
  6
CONTINUOUS
 62
         7
100
AcDbLine
 10
259.0371591969
 20
7.0634783731
 30
0.0
 11
268.6603385108
 21
7.0634783731
 31
0.0
  0
LINE
  5
1A0
100
AcDbEntity
  8
51060040
  6
CONTINUOUS
 62
         7
100
AcDbLine
 10
259.0371591969
 20
16.2572131044
 30
0.0
 11
268.6603385108
 21
16.2572131044
 31
0.0
  0
LINE
  5
1A1
100
AcDbEntity
  8
51060040
  6
CONTINUOUS
 62
         7
100
AcDbLine
 10
259.0371591969
 20
38.4528521815
 30
0.0
 11
268.6603385108
 21
38.4528521815
 31
0.0
  0
LINE
  5
1A2
100
AcDbEntity
  8
51060040
  6
CONTINUOUS
 62
         7
100
AcDbLine
 10
259.0371591969
 20
69.84222599
 30
0.0
 11
268.6603385108
 21
69.84222599
 31
0.0
  0
LINE
  5
1A3
100
AcDbEntity
  8
51060040
  6
CONTINUOUS
 62
         7
100
AcDbLine
 10
259.0371591969
 20
60.6484912587
 30
0.0
 11
268.6603385108
 21
60.6484912587
 31
0.0
  0
ARC
  5
1A4
100
AcDbEntity
  8
51060040
  6
CONTINUOUS
 62
         7
100
AcDbCircle
 10
205.7077559503
 20
123.8695719387
 30
0.0
 40
72.5275035557
100
AcDbArc
 50
300.1574446053
 51
305.8104161026
  0
ARC
  5
1A5
100
AcDbEntity
  8
51060040
  6
CONTINUOUS
 62
         7
100
AcDbCircle
 10
229.1439696899
 20
129.9850305417
 30
0.0
 40
51.7273661085
100
AcDbArc
 50
255.4445024805
 51
284.5554975195
  0
LINE
  5
1A6
100
AcDbEntity
  8
51060040
  6
CONTINUOUS
 62
         7
100
AcDbLine
 10
230.4659000965
 20
151.2528521815
 30
0.0
 11
234.8939696899
 21
151.2528521815
 31
0.0
  0
LINE
  5
1A7
100
AcDbEntity
  8
51060040
  6
CONTINUOUS
 62
         7
100
AcDbLine
 10
230.4659000965
 20
151.2528521815
 30
0.0
 11
227.8220392832
 21
151.2528521815
 31
0.0
  0
LINE
  5
1A8
100
AcDbEntity
  8
51060040
  6
CONTINUOUS
 62
         7
100
AcDbLine
 10
223.3939696899
 20
151.2528521815
 30
0.0
 11
223.2439696899
 21
151.2528521815
 31
0.0
  0
LINE
  5
1A9
100
AcDbEntity
  8
51060040
  6
CONTINUOUS
 62
         7
100
AcDbLine
 10
234.8939696899
 20
151.2528521815
 30
0.0
 11
235.0439696899
 21
151.2528521815
 31
0.0
  0
ARC
  5
1AA
100
AcDbEntity
  8
51060040
  6
PHANTOM2
 62
         7
100
AcDbCircle
 10
278.7944681886
 20
131.9223317863
 30
0.0
 40
45.1171212144
100
AcDbArc
 50
136.0085394093
 51
136.0137121848
  0
ARC
  5
1AB
100
AcDbEntity
  8
51060040
  6
PHANTOM2
 62
         7
100
AcDbCircle
 10
179.5074241689
 20
131.9418197001
 30
0.0
 40
45.0935636021
100
AcDbArc
 50
43.9807739337
 51
43.9859586835
  0
LINE
  5
1AC
100
AcDbEntity
  8
51060040
  6
CONTINUOUS
 62
         7
100
AcDbLine
 10
193.500068157
 20
160.7528521815
 30
0.0
 11
187.5336979941
 21
160.7528521815
 31
0.0
  0
LINE
  5
1AD
100
AcDbEntity
  8
51060040
  6
CONTINUOUS
 62
         7
100
AcDbLine
 10
235.1103398527
 20
160.7528521815
 30
0.0
 11
223.177599527
 21
160.7528521815
 31
0.0
  0
ARC
  5
1AE
100
AcDbEntity
  8
51060040
  6
CONTINUOUS
 62
         7
100
AcDbCircle
 10
191.1439696899
 20
169.2528521815
 30
0.0
 40
7.0
100
AcDbArc
 50
90.0
 51
104.5561085835
  0
LINE
  5
1AF
100
AcDbEntity
  8
51060040
  6
CONTINUOUS
 62
         7
100
AcDbLine
 10
216.1439696899
 20
73.1689865186
 30
0.0
 11
210.1439696899
 21
73.1689865186
 31
0.0
  0
ENDBLK
  5
1B0
100
AcDbEntity
  8
51060040
  6
CONTINUOUS
 62
         7
100
AcDbBlockEnd
  0
BLOCK
  5
20D
100
AcDbEntity
  8
0
 62
         1
 48
0.0
100
AcDbBlockBegin
  2
SE6
 70
         0
 10
0.0
 20
0.0
 30
0.0
  3
SE6
  1

  0
ENDBLK
  5
20E
100
AcDbEntity
  8
0
 62
         1
 48
0.0
100
AcDbBlockEnd
  0
BLOCK
  5
1B3
100
AcDbEntity
  8
0
 62
         1
 48
0.0
100
AcDbBlockBegin
  2
SE7
 70
         0
 10
0.0
 20
0.0
 30
0.0
  3
SE7
  1

  0
LINE
  5
1B4
100
AcDbEntity
  8
51060040
  6
CONTINUOUS
 62
         7
100
AcDbLine
 10
265.6327963559
 20
269.0185185074
 30
0.0
 11
256.4390616246
 21
246.8228794302
 31
0.0
  0
LINE
  5
1B5
100
AcDbEntity
  8
51060040
  6
CONTINUOUS
 62
         7
100
AcDbLine
 10
310.0240745103
 20
224.627240353
 30
0.0
 11
319.2178092416
 21
246.8228794302
 31
0.0
  0
LINE
  5
1B6
100
AcDbEntity
  8
51060040
  6
CONTINUOUS
 62
         7
100
AcDbLine
 10
319.2178092416
 20
246.8228794302
 30
0.0
 11
310.0240745103
 21
269.0185185074
 31
0.0
  0
LINE
  5
1B7
100
AcDbEntity
  8
51060040
  6
CONTINUOUS
 62
         7
100
AcDbLine
 10
310.0240745103
 20
269.0185185074
 30
0.0
 11
287.8284354331
 21
278.2122532387
 31
0.0
  0
LINE
  5
1B8
100
AcDbEntity
  8
51060040
  6
CONTINUOUS
 62
         7
100
AcDbLine
 10
265.6327963559
 20
224.627240353
 30
0.0
 11
287.8284354331
 21
215.4335056217
 31
0.0
  0
LINE
  5
1B9
100
AcDbEntity
  8
51060040
  6
CONTINUOUS
 62
         7
100
AcDbLine
 10
287.8284354331
 20
215.4335056217
 30
0.0
 11
310.0240745103
 21
224.627240353
 31
0.0
  0
LINE
  5
1BA
100
AcDbEntity
  8
51060040
  6
CONTINUOUS
 62
         7
100
AcDbLine
 10
150.0284354331
 20
284.8228794302
 30
0.0
 11
150.0284354331
 21
208.8228794302
 31
0.0
  0
LINE
  5
1BB
100
AcDbEntity
  8
51060040
  6
CONTINUOUS
 62
         7
100
AcDbLine
 10
237.3284354331
 20
216.0728794302
 30
0.0
 11
246.3284354331
 21
216.0728794302
 31
0.0
  0
LINE
  5
1BC
100
AcDbEntity
  8
51060040
  6
CONTINUOUS
 62
         7
100
AcDbLine
 10
231.8284354331
 20
215.3228794302
 30
0.0
 11
236.8954227312
 21
215.3228794302
 31
0.0
  0
LINE
  5
1BD
100
AcDbEntity
  8
51060040
  6
CONTINUOUS
 62
         7
100
AcDbLine
 10
237.3284354331
 20
277.5728794302
 30
0.0
 11
236.8954227312
 21
278.3228794302
 31
0.0
  0
LINE
  5
1BE
100
AcDbEntity
  8
51060040
  6
CONTINUOUS
 62
         7
100
AcDbLine
 10
231.3284354331
 20
215.8228794302
 30
0.0
 11
231.8284354331
 21
215.3228794302
 31
0.0
  0
LINE
  5
1BF
100
AcDbEntity
  8
51060040
  6
CONTINUOUS
 62
         7
100
AcDbLine
 10
198.8284354331
 20
234.8228794302
 30
0.0
 11
211.7284354331
 21
234.8228794302
 31
0.0
  0
LINE
  5
1C0
100
AcDbEntity
  8
51060040
  6
CONTINUOUS
 62
         7
100
AcDbLine
 10
227.8284354331
 20
215.3228794302
 30
0.0
 11
231.3284354331
 21
215.3228794302
 31
0.0
  0
LINE
  5
1C1
100
AcDbEntity
  8
51060040
  6
CONTINUOUS
 62
         7
100
AcDbLine
 10
175.0284354331
 20
240.9228794302
 30
0.0
 11
183.3284354331
 21
240.9228794302
 31
0.0
  0
LINE
  5
1C2
100
AcDbEntity
  8
51060040
  6
CONTINUOUS
 62
         7
100
AcDbLine
 10
248.0270544346
 20
274.6307850169
 30
0.0
 11
246.3284354331
 21
277.5728794302
 31
0.0
  0
LINE
  5
1C3
100
AcDbEntity
  8
51060040
  6
CONTINUOUS
 62
         7
100
AcDbLine
 10
246.3284354331
 20
277.5728794302
 30
0.0
 11
237.3284354331
 21
277.5728794302
 31
0.0
  0
LINE
  5
1C4
100
AcDbEntity
  8
51060040
  6
CONTINUOUS
 62
         7
100
AcDbLine
 10
236.8954227312
 20
278.3228794302
 30
0.0
 11
231.8284354331
 21
278.3228794302
 31
0.0
  0
LINE
  5
1C5
100
AcDbEntity
  8
51060040
  6
CONTINUOUS
 62
         7
100
AcDbLine
 10
236.8954227312
 20
215.3228794302
 30
0.0
 11
237.3284354331
 21
216.0728794302
 31
0.0
  0
LINE
  5
1C6
100
AcDbEntity
  8
51060040
  6
CONTINUOUS
 62
         7
100
AcDbLine
 10
231.8284354331
 20
278.3228794302
 30
0.0
 11
231.3284354331
 21
277.8228794302
 31
0.0
  0
LINE
  5
1C7
100
AcDbEntity
  8
51060040
  6
CONTINUOUS
 62
         7
100
AcDbLine
 10
211.7284354331
 20
258.8228794302
 30
0.0
 11
198.8284354331
 21
258.8228794302
 31
0.0
  0
LINE
  5
1C8
100
AcDbEntity
  8
51060040
  6
CONTINUOUS
 62
         7
100
AcDbLine
 10
231.3284354331
 20
278.3228794302
 30
0.0
 11
227.8284354331
 21
278.3228794302
 31
0.0
  0
LINE
  5
1C9
100
AcDbEntity
  8
51060040
  6
CONTINUOUS
 62
         7
100
AcDbLine
 10
183.3284354331
 20
252.7228794302
 30
0.0
 11
175.0284354331
 21
252.7228794302
 31
0.0
  0
LINE
  5
1CA
100
AcDbEntity
  8
51060040
  6
CONTINUOUS
 62
         7
100
AcDbLine
 10
157.0284354331
 20
201.8228794302
 30
0.0
 11
165.5284354331
 21
201.8228794302
 31
0.0
  0
ARC
  5
1CB
100
AcDbEntity
  8
51060040
  6
CONTINUOUS
 62
         7
100
AcDbCircle
 10
157.0284354331
 20
284.8228794302
 30
0.0
 40
7.0
100
AcDbArc
 50
90.0
 51
180.0
  0
LINE
  5
1CC
100
AcDbEntity
  8
51060040
  6
CONTINUOUS
 62
         7
100
AcDbLine
 10
165.5284354331
 20
291.8228794302
 30
0.0
 11
157.0284354331
 21
291.8228794302
 31
0.0
  0
LINE
  5
1CD
100
AcDbEntity
  8
51060040
  6
CONTINUOUS
 62
         7
100
AcDbLine
 10
246.3284354331
 20
216.0728794302
 30
0.0
 11
248.0267967633
 21
219.0145275436
 31
0.0
  0
LINE
  5
1CE
100
AcDbEntity
  8
51060040
  6
CONTINUOUS
 62
         7
100
AcDbLine
 10
262.8284354331
 20
275.2228794302
 30
0.0
 11
257.0375001436
 21
275.2228794302
 31
0.0
  0
LINE
  5
1CF
100
AcDbEntity
  8
51060040
  6
CONTINUOUS
 62
         7
100
AcDbLine
 10
262.8284354331
 20
275.2228794302
 30
0.0
 11
262.8284354331
 21
274.6228794302
 31
0.0
  0
LINE
  5
1D0
100
AcDbEntity
  8
51060040
  6
CONTINUOUS
 62
         7
100
AcDbLine
 10
257.0375001436
 20
275.2228794302
 30
0.0
 11
254.8284354331
 21
275.2228794302
 31
0.0
  0
LINE
  5
1D1
100
AcDbEntity
  8
51060040
  6
CONTINUOUS
 62
         7
100
AcDbLine
 10
257.0375001436
 20
275.2228794302
 30
0.0
 11
257.0375001436
 21
274.6228794302
 31
0.0
  0
LINE
  5
1D2
100
AcDbEntity
  8
51060040
  6
CONTINUOUS
 62
         7
100
AcDbLine
 10
254.8284354331
 20
275.2228794302
 30
0.0
 11
254.8284354331
 21
274.6228794302
 31
0.0
  0
LINE
  5
1D3
100
AcDbEntity
  8
51060040
  6
CONTINUOUS
 62
         7
100
AcDbLine
 10
165.5284354331
 20
252.5728794302
 30
0.0
 11
175.0284354331
 21
252.5728794302
 31
0.0
  0
LINE
  5
1D4
100
AcDbEntity
  8
51060040
  6
CONTINUOUS
 62
         7
100
AcDbLine
 10
165.5284354331
 20
241.0728794302
 30
0.0
 11
175.0284354331
 21
241.0728794302
 31
0.0
  0
LINE
  5
1D5
100
AcDbEntity
  8
51060040
  6
CONTINUOUS
 62
         7
100
AcDbLine
 10
175.0284354331
 20
241.0728794302
 30
0.0
 11
175.0284354331
 21
245.5009490236
 31
0.0
  0
LINE
  5
1D6
100
AcDbEntity
  8
51060040
  6
CONTINUOUS
 62
         7
100
AcDbLine
 10
165.5284354331
 20
219.354492446
 30
0.0
 11
165.5284354331
 21
202.2201617206
 31
0.0
  0
LINE
  5
1D7
100
AcDbEntity
  8
51060040
  6
CONTINUOUS
 62
         7
100
AcDbLine
 10
157.0284354331
 20
202.2201617206
 30
0.0
 11
165.5284354331
 21
202.2201617206
 31
0.0
  0
LINE
  5
1D8
100
AcDbEntity
  8
51060040
  6
CONTINUOUS
 62
         7
100
AcDbLine
 10
157.0284354331
 20
219.354492446
 30
0.0
 11
165.5284354331
 21
219.354492446
 31
0.0
  0
LINE
  5
1D9
100
AcDbEntity
  8
51060040
  6
CONTINUOUS
 62
         7
100
AcDbLine
 10
165.5284354331
 20
291.4255971398
 30
0.0
 11
165.5284354331
 21
274.2912664144
 31
0.0
  0
LINE
  5
1DA
100
AcDbEntity
  8
51060040
  6
CONTINUOUS
 62
         7
100
AcDbLine
 10
157.0284354331
 20
291.4255971398
 30
0.0
 11
165.5284354331
 21
291.4255971398
 31
0.0
  0
LINE
  5
1DB
100
AcDbEntity
  8
51060040
  6
CONTINUOUS
 62
         7
100
AcDbLine
 10
157.0284354331
 20
274.2912664144
 30
0.0
 11
165.5284354331
 21
274.2912664144
 31
0.0
  0
LINE
  5
1DC
100
AcDbEntity
  8
51060040
  6
CONTINUOUS
 62
         7
100
AcDbLine
 10
157.0284354331
 20
263.9572101556
 30
0.0
 11
165.5284354331
 21
263.9572101556
 31
0.0
  0
LINE
  5
1DD
100
AcDbEntity
  8
51060040
  6
CONTINUOUS
 62
         7
100
AcDbLine
 10
157.0284354331
 20
229.6885487048
 30
0.0
 11
165.5284354331
 21
229.6885487048
 31
0.0
  0
LINE
  5
1DE
100
AcDbEntity
  8
51060040
  6
CONTINUOUS
 62
         7
100
AcDbLine
 10
165.5284354331
 20
263.9572101556
 30
0.0
 11
165.5284354331
 21
229.6885487048
 31
0.0
  0
LINE
  5
1DF
100
AcDbEntity
  8
51060040
  6
CONTINUOUS
 62
         7
100
AcDbLine
 10
165.5284354331
 20
229.6885487048
 30
0.0
 11
165.5284354331
 21
219.354492446
 31
0.0
  0
SPLINE
  5
1E0
100
AcDbEntity
  8
51060040
  6
CONTINUOUS
 62
         7
100
AcDbSpline
210
0.0
220
0.0
230
1.0
 70
         8
 71
         3
 72
        26
 73
        22
 74
         0
 42
0.0
 43
0.0
 40
0.0
 40
0.0
 40
0.0
 40
0.0
 40
0.0625
 40
0.0625
 40
0.1250000000000001
 40
0.1250000000000001
 40
0.2499999999999999
 40
0.2499999999999999
 40
0.3749999999999997
 40
0.3749999999999997
 40
0.4999999999999995
 40
0.4999999999999995
 40
0.6249999999999993
 40
0.6249999999999993
 40
0.7499999999999991
 40
0.7499999999999991
 40
0.874999999999999
 40
0.874999999999999
 40
0.9374999999999996
 40
0.9374999999999996
 40
1.0
 40
1.0
 40
1.0
 40
1.0
 10
157.02843543310519
 20
229.68854870484307
 30
0.0
 10
156.16745636341454
 20
229.68854870484302
 30
0.0
 10
155.33833514835629
 20
229.9688969765059
 30
0.0
 10
153.92338436409182
 20
230.88591595147696
 30
0.0
 10
153.33688814286216
 20
231.51094841698605
 30
0.0
 10
151.90802232276747
 20
233.58612205760625
 30
0.0
 10
151.37494743994776
 20
235.20886409961608
 30
0.0
 10
150.66608456800336
 20
238.48503328885383
 30
0.0
 10
150.49590268389977
 20
240.14197879973156
 30
0.0
 10
150.28703567234666
 20
243.47376657271241
 30
0.0
 10
150.25157953167502
 20
245.14887267442003
 30
0.0
 10
150.25182699928965
 20
248.51198769333755
 30
0.0
 10
150.28761181811649
 20
250.19212085890797
 30
0.0
 10
150.49819296789653
 20
253.52922567430991
 30
0.0
 10
150.66966085972788
 20
255.18880325611792
 30
0.0
 10
151.38474862143212
 20
258.47042545587948
 30
0.0
 10
151.92257541300285
 20
260.08647849186275
 30
0.0
 10
153.34331454053748
 20
262.14124917582285
 30
0.0
 10
153.92585254751796
 20
262.76282883195148
 30
0.0
 10
155.34782730716054
 20
263.68161565626798
 30
0.0
 10
156.1732194554329
 20
263.95721015558854
 30
0.0
 10
157.02843543310519
 20
263.95721015558706
 30
0.0
  0
SPLINE
  5
1E1
100
AcDbEntity
  8
51060040
  6
CONTINUOUS
 62
         7
100
AcDbSpline
210
0.0
220
0.0
230
1.0
 70
         8
 71
         3
 72
        26
 73
        22
 74
         0
 42
0.0
 43
0.0
 40
0.0
 40
0.0
 40
0.0
 40
0.0
 40
0.0624999999999999
 40
0.0624999999999999
 40
0.1249999999999998
 40
0.1249999999999998
 40
0.2499999999999997
 40
0.2499999999999997
 40
0.3749999999999995
 40
0.3749999999999995
 40
0.4999999999999993
 40
0.4999999999999993
 40
0.6249999999999991
 40
0.6249999999999991
 40
0.749999999999999
 40
0.749999999999999
 40
0.8749999999999989
 40
0.8749999999999989
 40
0.9374999999999994
 40
0.9374999999999994
 40
1.0
 40
1.0
 40
1.0
 40
1.0
 10
157.02843543310519
 20
202.22016172064286
 30
0.0
 10
156.16745636341454
 20
202.22016172064278
 30
0.0
 10
155.33833514835626
 20
202.4143304617368
 30
0.0
 10
153.92338436409182
 20
203.03912781916986
 30
0.0
 10
153.33688814286216
 20
203.46095620790646
 30
0.0
 10
151.90802232276747
 20
204.83260332426298
 30
0.0
 10
151.37494743994776
 20
205.86898398787429
 30
0.0
 10
150.66608456800333
 20
207.86365396162338
 30
0.0
 10
150.49590268389977
 20
208.82772598204852
 30
0.0
 10
150.28703567234666
 20
210.67485588503831
 30
0.0
 10
150.25157953167511
 20
211.55819202254531
 30
0.0
 10
150.25182699928962
 20
213.23947463331476
 30
0.0
 10
150.28761181811652
 20
214.03334933027236
 30
0.0
 10
150.4981929678965
 20
215.51954840816808
 30
0.0
 10
150.6696608597278
 20
216.2130378597399
 30
0.0
 10
151.3847486214321
 20
217.49554964453219
 30
0.0
 10
151.92257541300287
 20
218.07866618776461
 30
0.0
 10
153.34331454053745
 20
218.77496578289748
 30
0.0
 10
153.92585254751799
 20
218.97706324465193
 30
0.0
 10
155.34782730716063
 20
219.26980716384571
 30
0.0
 10
156.17321945543299
 20
219.35449244601517
 30
0.0
 10
157.02843543310519
 20
219.35449244601475
 30
0.0
  0
LINE
  5
1E2
100
AcDbEntity
  8
51060040
  6
CONTINUOUS
 62
         7
100
AcDbLine
 10
198.8284354331
 20
262.4113367237
 30
0.0
 11
198.8284354331
 21
254.6171080769
 31
0.0
  0
LINE
  5
1E3
100
AcDbEntity
  8
51060040
  6
CONTINUOUS
 62
         7
100
AcDbLine
 10
198.8284354331
 20
254.6171080769
 30
0.0
 11
198.8284354331
 21
239.0286507835
 31
0.0
  0
LINE
  5
1E4
100
AcDbEntity
  8
51060040
  6
CONTINUOUS
 62
         7
100
AcDbLine
 10
198.8284354331
 20
239.0286507835
 30
0.0
 11
198.8284354331
 21
231.2344222381
 31
0.0
  0
LINE
  5
1E5
100
AcDbEntity
  8
51060040
  6
CONTINUOUS
 62
         7
100
AcDbLine
 10
183.3284354331
 20
262.4113367237
 30
0.0
 11
183.3284354331
 21
254.6171080769
 31
0.0
  0
LINE
  5
1E6
100
AcDbEntity
  8
51060040
  6
CONTINUOUS
 62
         7
100
AcDbLine
 10
183.3284354331
 20
262.4113367237
 30
0.0
 11
198.8284354331
 21
262.4113367237
 31
0.0
  0
LINE
  5
1E7
100
AcDbEntity
  8
51060040
  6
CONTINUOUS
 62
         7
100
AcDbLine
 10
183.3284354331
 20
254.6171080769
 30
0.0
 11
183.3284354331
 21
239.0286507835
 31
0.0
  0
LINE
  5
1E8
100
AcDbEntity
  8
51060040
  6
CONTINUOUS
 62
         7
100
AcDbLine
 10
183.3284354331
 20
239.0286507835
 30
0.0
 11
183.3284354331
 21
231.2344222381
 31
0.0
  0
LINE
  5
1E9
100
AcDbEntity
  8
51060040
  6
CONTINUOUS
 62
         7
100
AcDbLine
 10
183.3284354331
 20
254.6171080769
 30
0.0
 11
198.8284354331
 21
254.6171080769
 31
0.0
  0
LINE
  5
1EA
100
AcDbEntity
  8
51060040
  6
CONTINUOUS
 62
         7
100
AcDbLine
 10
183.3284354331
 20
239.0286507835
 30
0.0
 11
198.8284354331
 21
239.0286507835
 31
0.0
  0
LINE
  5
1EB
100
AcDbEntity
  8
51060040
  6
CONTINUOUS
 62
         7
100
AcDbLine
 10
183.3284354331
 20
231.2344222381
 30
0.0
 11
198.8284354331
 21
231.2344222381
 31
0.0
  0
LINE
  5
1EC
100
AcDbEntity
  8
51060040
  6
CONTINUOUS
 62
         7
100
AcDbLine
 10
211.7284354331
 20
260.3906107562
 30
0.0
 11
211.7284354331
 21
233.2551481043
 31
0.0
  0
LINE
  5
1ED
100
AcDbEntity
  8
51060040
  6
CONTINUOUS
 62
         7
100
AcDbLine
 10
211.7284354331
 20
233.2551481043
 30
0.0
 11
211.7284354331
 21
219.6874167783
 31
0.0
  0
LINE
  5
1EE
100
AcDbEntity
  8
51060040
  6
CONTINUOUS
 62
         7
100
AcDbLine
 10
227.8284354331
 20
273.9583420821
 30
0.0
 11
211.7284354331
 21
273.9583420821
 31
0.0
  0
LINE
  5
1EF
100
AcDbEntity
  8
51060040
  6
CONTINUOUS
 62
         7
100
AcDbLine
 10
211.7284354331
 20
273.9583420821
 30
0.0
 11
211.7284354331
 21
260.3906107562
 31
0.0
  0
LINE
  5
1F0
100
AcDbEntity
  8
51060040
  6
CONTINUOUS
 62
         7
100
AcDbLine
 10
227.8284354331
 20
260.3906107562
 30
0.0
 11
211.7284354331
 21
260.3906107562
 31
0.0
  0
LINE
  5
1F1
100
AcDbEntity
  8
51060040
  6
CONTINUOUS
 62
         7
100
AcDbLine
 10
227.8284354331
 20
233.2551481043
 30
0.0
 11
211.7284354331
 21
233.2551481043
 31
0.0
  0
LINE
  5
1F2
100
AcDbEntity
  8
51060040
  6
CONTINUOUS
 62
         7
100
AcDbLine
 10
227.8284354331
 20
219.6874167783
 30
0.0
 11
211.7284354331
 21
219.6874167783
 31
0.0
  0
LINE
  5
1F3
100
AcDbEntity
  8
51060040
  6
CONTINUOUS
 62
         7
100
AcDbLine
 10
253.1123010961
 20
260.6792858908
 30
0.0
 11
253.1123010961
 21
232.9664729697
 31
0.0
  0
LINE
  5
1F4
100
AcDbEntity
  8
51060040
  6
CONTINUOUS
 62
         7
100
AcDbLine
 10
246.3284354331
 20
277.5728794302
 30
0.0
 11
246.3284354331
 21
216.0728794302
 31
0.0
  0
LINE
  5
1F5
100
AcDbEntity
  8
51060040
  6
CONTINUOUS
 62
         7
100
AcDbLine
 10
237.3284354331
 20
277.5728794302
 30
0.0
 11
237.3284354331
 21
216.0728794302
 31
0.0
  0
LINE
  5
1F6
100
AcDbEntity
  8
51060040
  6
CONTINUOUS
 62
         7
100
AcDbLine
 10
236.8954227312
 20
278.3228794302
 30
0.0
 11
236.8954227312
 21
215.3228794302
 31
0.0
  0
LINE
  5
1F7
100
AcDbEntity
  8
51060040
  6
CONTINUOUS
 62
         7
100
AcDbLine
 10
227.8284354331
 20
278.3228794302
 30
0.0
 11
227.8284354331
 21
215.3228794302
 31
0.0
  0
LINE
  5
1F8
100
AcDbEntity
  8
51060040
  6
CONTINUOUS
 62
         7
100
AcDbLine
 10
231.3284354331
 20
278.3228794302
 30
0.0
 11
231.3284354331
 21
215.3228794302
 31
0.0
  0
LINE
  5
1F9
100
AcDbEntity
  8
51060040
  6
CONTINUOUS
 62
         7
100
AcDbLine
 10
262.1785731063
 20
232.9664729697
 30
0.0
 11
253.1123010961
 21
232.9664729697
 31
0.0
  0
LINE
  5
1FA
100
AcDbEntity
  8
51060040
  6
CONTINUOUS
 62
         7
100
AcDbLine
 10
253.1123010961
 20
260.6792858908
 30
0.0
 11
262.1785731063
 21
260.6792858908
 31
0.0
  0
LINE
  5
1FB
100
AcDbEntity
  8
51060040
  6
CONTINUOUS
 62
         7
100
AcDbLine
 10
231.8284354331
 20
278.3228794302
 30
0.0
 11
231.8284354331
 21
215.3228794302
 31
0.0
  0
LINE
  5
1FC
100
AcDbEntity
  8
51060040
  6
CONTINUOUS
 62
         7
100
AcDbLine
 10
279.1629205042
 20
274.6228794302
 30
0.0
 11
246.363416015
 21
274.6228794302
 31
0.0
  0
LINE
  5
1FD
100
AcDbEntity
  8
51060040
  6
CONTINUOUS
 62
         7
100
AcDbLine
 10
246.363416015
 20
219.0228794302
 30
0.0
 11
279.1629205042
 21
219.0228794302
 31
0.0
  0
LINE
  5
1FE
100
AcDbEntity
  8
51060040
  6
CONTINUOUS
 62
         7
100
AcDbLine
 10
287.8284354331
 20
278.2122532387
 30
0.0
 11
265.6327963559
 21
269.0185185074
 31
0.0
  0
CIRCLE
  5
1FF
100
AcDbEntity
  8
51060040
  6
CONTINUOUS
 62
         7
100
AcDbCircle
 10
287.8284354331
 20
246.8228794302
 30
0.0
 40
28.0
  0
LINE
  5
200
100
AcDbEntity
  8
51060040
  6
CONTINUOUS
 62
         7
100
AcDbLine
 10
256.4390616246
 20
246.8228794302
 30
0.0
 11
265.6327963559
 21
224.627240353
 31
0.0
  0
LINE
  5
201
100
AcDbEntity
  8
51060040
  6
CONTINUOUS
 62
         7
100
AcDbLine
 10
175.0284354331
 20
241.0728794302
 30
0.0
 11
175.0284354331
 21
240.9228794302
 31
0.0
  0
LINE
  5
202
100
AcDbEntity
  8
51060040
  6
CONTINUOUS
 62
         7
100
AcDbLine
 10
175.0284354331
 20
252.7228794302
 30
0.0
 11
175.0284354331
 21
252.5728794302
 31
0.0
  0
LINE
  5
203
100
AcDbEntity
  8
51060040
  6
CONTINUOUS
 62
         7
100
AcDbLine
 10
175.0284354331
 20
248.1448098369
 30
0.0
 11
175.0284354331
 21
245.5009490236
 31
0.0
  0
LINE
  5
204
100
AcDbEntity
  8
51060040
  6
CONTINUOUS
 62
         7
100
AcDbLine
 10
175.0284354331
 20
248.1448098369
 30
0.0
 11
175.0284354331
 21
252.5728794302
 31
0.0
  0
LINE
  5
205
100
AcDbEntity
  8
51060040
  6
CONTINUOUS
 62
         7
100
AcDbLine
 10
165.5284354331
 20
291.8228794302
 30
0.0
 11
165.5284354331
 21
291.4255971398
 31
0.0
  0
LINE
  5
206
100
AcDbEntity
  8
51060040
  6
CONTINUOUS
 62
         7
100
AcDbLine
 10
165.5284354331
 20
274.2912664144
 30
0.0
 11
165.5284354331
 21
263.9572101556
 31
0.0
  0
LINE
  5
207
100
AcDbEntity
  8
51060040
  6
CONTINUOUS
 62
         7
100
AcDbLine
 10
165.5284354331
 20
201.8228794302
 30
0.0
 11
165.5284354331
 21
202.2201617206
 31
0.0
  0
SPLINE
  5
208
100
AcDbEntity
  8
51060040
  6
CONTINUOUS
 62
         7
100
AcDbSpline
210
0.0
220
0.0
230
1.0
 70
         8
 71
         3
 72
        26
 73
        22
 74
         0
 42
0.0
 43
0.0
 40
0.0
 40
0.0
 40
0.0
 40
0.0
 40
0.0624999999999999
 40
0.0624999999999999
 40
0.1249999999999998
 40
0.1249999999999998
 40
0.2499999999999996
 40
0.2499999999999996
 40
0.3749999999999994
 40
0.3749999999999994
 40
0.4999999999999993
 40
0.4999999999999993
 40
0.6249999999999991
 40
0.6249999999999991
 40
0.7499999999999991
 40
0.7499999999999991
 40
0.8749999999999991
 40
0.8749999999999991
 40
0.9374999999999996
 40
0.9374999999999996
 40
1.0
 40
1.0
 40
1.0
 40
1.0
 10
157.02843543310516
 20
274.2912664144153
 30
0.0
 10
156.16745636341454
 20
274.29126641441525
 30
0.0
 10
155.33833514835626
 20
274.37744594498412
 30
0.0
 10
153.92338436409185
 20
274.66966756252208
 30
0.0
 10
153.33688814286219
 20
274.87287163929466
 30
0.0
 10
151.90802232276747
 20
275.57639816355828
 30
0.0
 10
151.37494743994776
 20
276.16275954195686
 30
0.0
 10
150.66608456800333
 20
277.44425875744548
 30
0.0
 10
150.49590268389977
 20
278.13713224789808
 30
0.0
 10
150.2870356723466
 20
279.62179011788913
 30
0.0
 10
150.25157953167508
 20
280.4135600820897
 30
0.0
 10
150.2518269992897
 20
282.09539249023783
 30
0.0
 10
150.28761181811652
 20
282.98165095885065
 30
0.0
 10
150.4981929678965
 20
284.83255669635685
 30
0.0
 10
150.66966085972783
 20
285.79864482659303
 30
0.0
 10
151.38474862143215
 20
287.7977552415623
 30
0.0
 10
151.92257541300287
 20
288.83069173431306
 30
0.0
 10
153.34331454053751
 20
290.18916282314035
 30
0.0
 10
153.92585254751793
 20
290.60864501751456
 30
0.0
 10
155.3478273071606
 20
291.23468792263725
 30
0.0
 10
156.1732194554329
 20
291.42559713978829
 30
0.0
 10
157.02843543310516
 20
291.42559713978727
 30
0.0
  0
ARC
  5
209
100
AcDbEntity
  8
51060040
  6
CONTINUOUS
 62
         7
100
AcDbCircle
 10
157.0284354331
 20
208.8228794302
 30
0.0
 40
7.0
100
AcDbArc
 50
180.0
 51
270.0
  0
ARC
  5
20A
100
AcDbEntity
  8
51060040
  6
CONTINUOUS
 62
         7
100
AcDbCircle
 10
80.5020387187
 20
307.9070681851
 30
0.0
 40
188.1765008954
100
AcDbArc
 50
331.8133904719
 51
336.5314080954
  0
ARC
  5
20B
100
AcDbEntity
  8
51060040
  6
CONTINUOUS
 62
         7
100
AcDbCircle
 10
80.4892274099
 20
185.7324898312
 30
0.0
 40
188.190721898
100
AcDbArc
 50
23.4687702686
 51
28.1864311642
  0
ENDBLK
  5
20C
100
AcDbEntity
  8
51060040
  6
CONTINUOUS
 62
         7
100
AcDbBlockEnd
  0
ENDSEC
  0
SECTION
  2
ENTITIES
  0
INSERT
  5
3A
102
{ACAD_XDICTIONARY
360
3B
102
}
100
AcDbEntity
  8
0
 62
         0
 48
0.0
100
AcDbBlockReference
  2
SE1
 10
0.0
 20
0.0
 30
0.0
  0
INSERT
  5
3E
100
AcDbEntity
  8
0
 62
         0
 48
0.0
100
AcDbBlockReference
  2
SE0
 10
0.0
 20
0.0
 30
0.0
  0
INSERT
  5
41
102
{ACAD_XDICTIONARY
360
42
102
}
100
AcDbEntity
  8
0
 62
         0
 48
0.0
100
AcDbBlockReference
  2
SE3
 10
0.0
 20
0.0
 30
0.0
  0
INSERT
  5
45
100
AcDbEntity
  8
0
 62
         0
 48
0.0
100
AcDbBlockReference
  2
SE2
 10
0.0
 20
0.0
 30
0.0
  0
INSERT
  5
48
102
{ACAD_XDICTIONARY
360
49
102
}
100
AcDbEntity
  8
0
 62
         0
 48
0.0
100
AcDbBlockReference
  2
SE5
 10
0.0
 20
0.0
 30
0.0
  0
INSERT
  5
4C
100
AcDbEntity
  8
0
 62
         0
 48
0.0
100
AcDbBlockReference
  2
SE4
 10
0.0
 20
0.0
 30
0.0
  0
INSERT
  5
4F
102
{ACAD_XDICTIONARY
360
50
102
}
100
AcDbEntity
  8
0
 62
         0
 48
0.0
100
AcDbBlockReference
  2
SE7
 10
0.0
 20
0.0
 30
0.0
  0
INSERT
  5
53
100
AcDbEntity
  8
0
 62
         0
 48
0.0
100
AcDbBlockReference
  2
SE6
 10
0.0
 20
0.0
 30
0.0
  0
ENDSEC
  0
SECTION
  2
OBJECTS
  0
DICTIONARY
  5
19
100
AcDbDictionary
  3
ACAD_GROUP
350
1A
  3
ACAD_MLINESTYLE
350
1B
  3
ACDBVARIABLEDICTIONARY
350
20F
  0
DICTIONARY
  5
1A
102
{ACAD_REACTORS
330
19
102
}
100
AcDbDictionary
  0
DICTIONARY
  5
1B
102
{ACAD_REACTORS
330
19
102
}
100
AcDbDictionary
  3
STANDARD
350
1C
  0
MLINESTYLE
  5
1C
102
{ACAD_REACTORS
330
1B
102
}
100
AcDbMlineStyle
  2
Standard
 70
         0
  3

 62
         0
 51
90.0
 52
90.0
 71
         2
 49
0.5
 62
       256
  6
ByLayer
 49
-0.5
 62
       256
  6
ByLayer
  0
DICTIONARY
  5
22
102
{ACAD_REACTORS
330
19
102
}
100
AcDbDictionary
  0
DICTIONARY
  5
3B
100
AcDbDictionary
  3
ACAD_FILTER
350
3C
  0
DICTIONARY
  5
3C
100
AcDbDictionary
  3
SPATIAL
350
3D
  0
SPATIAL_FILTER
  5
3D
100
AcDbFilter
100
AcDbSpatialFilter
 70
         2
 10
0.6225955398
 20
0.7134783731
 10
96.5960816627
 20
182.6028521815
210
0.0
220
0.0
230
1.0
 11
0.0
 21
0.0
 31
0.0
 71
         1
 72
         0
 73
         0
 40
1.0
 40
0.0
 40
0.0
 40
0.0
 40
0.0
 40
1.0
 40
0.0
 40
0.0
 40
0.0
 40
0.0
 40
1.0
 40
0.0
 40
1.0
 40
0.0
 40
0.0
 40
0.0
 40
0.0
 40
1.0
 40
0.0
 40
0.0
 40
0.0
 40
0.0
 40
1.0
 40
0.0
  0
DICTIONARY
  5
42
100
AcDbDictionary
  3
ACAD_FILTER
350
43
  0
DICTIONARY
  5
43
100
AcDbDictionary
  3
SPATIAL
350
44
  0
SPATIAL_FILTER
  5
44
100
AcDbFilter
100
AcDbSpatialFilter
 70
         2
 10
0.6490669055
 20
195.4728794302
 10
96.569610297
 20
298.1728794302
210
0.0
220
0.0
230
1.0
 11
0.0
 21
0.0
 31
0.0
 71
         1
 72
         0
 73
         0
 40
1.0
 40
0.0
 40
0.0
 40
0.0
 40
0.0
 40
1.0
 40
0.0
 40
0.0
 40
0.0
 40
0.0
 40
1.0
 40
0.0
 40
1.0
 40
0.0
 40
0.0
 40
0.0
 40
0.0
 40
1.0
 40
0.0
 40
0.0
 40
0.0
 40
0.0
 40
1.0
 40
0.0
  0
DICTIONARY
  5
49
100
AcDbDictionary
  3
ACAD_FILTER
350
4A
  0
DICTIONARY
  5
4A
100
AcDbDictionary
  3
SPATIAL
350
4B
  0
SPATIAL_FILTER
  5
4B
100
AcDbFilter
100
AcDbSpatialFilter
 70
         2
 10
181.1572266284
 20
0.7134783731
 10
277.1307127514
 20
182.6028521815
210
0.0
220
0.0
230
1.0
 11
0.0
 21
0.0
 31
0.0
 71
         1
 72
         0
 73
         0
 40
1.0
 40
0.0
 40
0.0
 40
0.0
 40
0.0
 40
1.0
 40
0.0
 40
0.0
 40
0.0
 40
0.0
 40
1.0
 40
0.0
 40
1.0
 40
0.0
 40
0.0
 40
0.0
 40
0.0
 40
1.0
 40
0.0
 40
0.0
 40
0.0
 40
0.0
 40
1.0
 40
0.0
  0
DICTIONARY
  5
50
100
AcDbDictionary
  3
ACAD_FILTER
350
51
  0
DICTIONARY
  5
51
100
AcDbDictionary
  3
SPATIAL
350
52
  0
SPATIAL_FILTER
  5
52
100
AcDbFilter
100
AcDbSpatialFilter
 70
         2
 10
143.6784354331
 20
195.4728794302
 10
325.5678092416
 20
298.1728794302
210
0.0
220
0.0
230
1.0
 11
0.0
 21
0.0
 31
0.0
 71
         1
 72
         0
 73
         0
 40
1.0
 40
0.0
 40
0.0
 40
0.0
 40
0.0
 40
1.0
 40
0.0
 40
0.0
 40
0.0
 40
0.0
 40
1.0
 40
0.0
 40
1.0
 40
0.0
 40
0.0
 40
0.0
 40
0.0
 40
1.0
 40
0.0
 40
0.0
 40
0.0
 40
0.0
 40
1.0
 40
0.0
  0
DICTIONARY
  5
20F
100
AcDbDictionary
  3
DIMASSOC
350
210
  0
DICTIONARYVAR
  5
210
100
DictionaryVariables
280
         0
  1
2
  0
ENDSEC
  0
EOF
