  0
SECTION
  2
HEADER
  9
$ACADVER
  1
AC1014
  9
$ACADMAINTVER
 70
         0
  9
$DWGCODEPAGE
  3
ANSI_1252
  9
$INSBASE
 10
0.0
 20
0.0
 30
0.0
  9
$EXTMIN
 10
0.0
 20
0.0
 30
0.0
  9
$EXTMAX
 10
420.0
 20
297.0
 30
0.0
  9
$LIMMIN
 10
0.0
 20
0.0
  9
$LIMMAX
 10
420.0
 20
297.0
  9
$ORTHOMODE
 70
         0
  9
$REGENMODE
 70
         1
  9
$FILLMODE
 70
         1
  9
$QTEXTMODE
 70
         0
  9
$MIRRTEXT
 70
         1
  9
$DRAGMODE
 70
         2
  9
$LTSCALE
 40
25.4
  9
$OSMODE
 70
         0
  9
$ATTMODE
 70
         1
  9
$TEXTSIZE
 40
0.2
  9
$TRACEWID
 40
0.05
  9
$TEXTSTYLE
  7
Standard
  9
$CLAYER
  8
0
  9
$CELTYPE
  6
CONTINUOUS
  9
$CECOLOR
 62
       256
  9
$CELTSCALE
 40
1.0
  9
$DELOBJ
 70
         1
  9
$DISPSILH
 70
         0
  9
$DIMSCALE
 40
1.0
  9
$DIMASZ
 40
0.18
  9
$DIMEXO
 40
0.0625
  9
$DIMDLI
 40
0.38
  9
$DIMRND
 40
0.0
  9
$DIMDLE
 40
0.0
  9
$DIMEXE
 40
0.18
  9
$DIMTP
 40
0.0
  9
$DIMTM
 40
0.0
  9
$DIMTXT
 40
0.18
  9
$DIMCEN
 40
0.09
  9
$DIMTSZ
 40
0.0
  9
$DIMTOL
 70
         0
  9
$DIMLIM
 70
         0
  9
$DIMTIH
 70
         1
  9
$DIMTOH
 70
         1
  9
$DIMSE1
 70
         0
  9
$DIMSE2
 70
         0
  9
$DIMTAD
 70
         0
  9
$DIMZIN
 70
         0
  9
$DIMBLK
  1

  9
$DIMASO
 70
         1
  9
$DIMSHO
 70
         1
  9
$DIMPOST
  1

  9
$DIMAPOST
  1

  9
$DIMALT
 70
         0
  9
$DIMALTD
 70
         2
  9
$DIMALTF
 40
25.4
  9
$DIMLFAC
 40
1.0
  9
$DIMTOFL
 70
         0
  9
$DIMTVP
 40
0.0
  9
$DIMTIX
 70
         0
  9
$DIMSOXD
 70
         0
  9
$DIMSAH
 70
         0
  9
$DIMBLK1
  1

  9
$DIMBLK2
  1

  9
$DIMSTYLE
  2
Standard
  9
$DIMCLRD
 70
         0
  9
$DIMCLRE
 70
         0
  9
$DIMCLRT
 70
         0
  9
$DIMTFAC
 40
1.0
  9
$DIMGAP
 40
0.09
  9
$DIMJUST
 70
         0
  9
$DIMSD1
 70
         0
  9
$DIMSD2
 70
         0
  9
$DIMTOLJ
 70
         1
  9
$DIMTZIN
 70
         0
  9
$DIMALTZ
 70
         0
  9
$DIMALTTZ
 70
         0
  9
$DIMFIT
 70
         3
  9
$DIMUPT
 70
         0
  9
$DIMUNIT
 70
         2
  9
$DIMDEC
 70
         4
  9
$DIMTDEC
 70
         4
  9
$DIMALTU
 70
         2
  9
$DIMALTTD
 70
         2
  9
$DIMTXSTY
  7
Standard
  9
$DIMAUNIT
 70
         0
  9
$LUNITS
 70
         2
  9
$LUPREC
 70
         4
  9
$SKETCHINC
 40
0.1
  9
$FILLETRAD
 40
0.0
  9
$AUNITS
 70
         0
  9
$AUPREC
 70
         0
  9
$MENU
  1
acad
  9
$ELEVATION
 40
0.0
  9
$PELEVATION
 40
0.0
  9
$THICKNESS
 40
0.0
  9
$LIMCHECK
 70
         0
  9
$BLIPMODE
 70
         1
  9
$CHAMFERA
 40
0.0
  9
$CHAMFERB
 40
0.0
  9
$CHAMFERC
 40
0.0
  9
$CHAMFERD
 40
0.0
  9
$SKPOLY
 70
         0
  9
$TDCREATE
 40
0.000000000
  9
$TDUPDATE
 40
0.000000000
  9
$TDINDWG
 40
0.0000000000
  9
$TDUSRTIMER
 40
0.0000000000
  9
$USRTIMER
 70
         1
  9
$ANGBASE
 50
0.0
  9
$ANGDIR
 70
         0
  9
$PDMODE
 70
         0
  9
$PDSIZE
 40
0.0
  9
$PLINEWID
 40
0.0
  9
$COORDS
 70
         0
  9
$SPLFRAME
 70
         0
  9
$SPLINETYPE
 70
         6
  9
$SPLINESEGS
 70
         8
  9
$ATTDIA
 70
         0
  9
$ATTREQ
 70
         1
  9
$HANDLING
 70
         1
  9
$HANDSEED
  5
1FE
  9
$SURFTAB1
 70
         6
  9
$SURFTAB2
 70
         6
  9
$SURFTYPE
 70
         6
  9
$SURFU
 70
         6
  9
$SURFV
 70
         6
  9
$UCSNAME
  2

  9
$UCSORG
 10
0.0
 20
0.0
 30
0.0
  9
$UCSXDIR
 10
1.0
 20
0.0
 30
0.0
  9
$UCSYDIR
 10
0.0
 20
1.0
 30
0.0
  9
$PUCSNAME
  2

  9
$PUCSORG
 10
0.0
 20
0.0
 30
0.0
  9
$PUCSXDIR
 10
1.0
 20
0.0
 30
0.0
  9
$PUCSYDIR
 10
0.0
 20
1.0
 30
0.0
  9
$USERI1
 70
         0
  9
$USERI2
 70
         0
  9
$USERI3
 70
         0
  9
$USERI4
 70
         0
  9
$USERI5
 70
         0
  9
$USERR1
 40
0.0
  9
$USERR2
 40
0.0
  9
$USERR3
 40
0.0
  9
$USERR4
 40
0.0
  9
$USERR5
 40
0.0
  9
$WORLDVIEW
 70
         1
  9
$SHADEDGE
 70
         3
  9
$SHADEDIF
 70
        70
  9
$TILEMODE
 70
         1
  9
$MAXACTVP
 70
        16
  9
$PINSBASE
 10
0.0
 20
0.0
 30
0.0
  9
$PLIMCHECK
 70
         0
  9
$PEXTMIN
 10
1.0000000000E+20
 20
1.0000000000E+20
 30
1.0000000000E+20
  9
$PEXTMAX
 10
-1.0000000000E+20
 20
-1.0000000000E+20
 30
-1.0000000000E+20
  9
$PLIMMIN
 10
0.0
 20
0.0
  9
$PLIMMAX
 10
12.0
 20
9.0
  9
$UNITMODE
 70
         0
  9
$VISRETAIN
 70
         0
  9
$PLINEGEN
 70
         1
  9
$PSLTSCALE
 70
         0
  9
$TREEDEPTH
 70
      3020
  9
$PICKSTYLE
 70
         1
  9
$CMLSTYLE
  2
Standard
  9
$CMLJUST
 70
         0
  9
$CMLSCALE
 40
1.0
  9
$PROXYGRAPHICS
 70
         0
  9
$MEASUREMENT
 70
         0
  0
ENDSEC
  0
SECTION
  2
CLASSES
  0
CLASS
  1
LWPOLYLINE
  2
AcDbPolyline
  3
"AutoCAD"
 90
        0
280
         0
281
         1
  0
CLASS
  1
IMAGE
  2
AcDbRasterImage
  3
ISM
 90
      127
280
         0
281
         1
  0
CLASS
  1
OLE2FRAME
  2
AcDbOle2Frame
  3
""
 90
        0
280
         0
281
         1
  0
CLASS
  1
HATCH
  2
AcDbHatch
  3
"ACAD_SEDONA"
 90
        0
280
         0
281
         1
  0
CLASS
  1
DICTIONARYVAR
  2
AcDbDictionaryVar
  3
"AutoCAD"
 90
        0
280
         0
281
         0
  0
CLASS
  1
RASTERVARIABLES
  2
AcDbRasterVariables
  3
ISM
 90
        0
280
         0
281
         0
  0
CLASS
  1
IMAGEDEF
  2
AcDbRasterImageDef
  3
ISM
 90
        0
280
         0
281
         0
  0
CLASS
  1
IMAGEDEF_REACTOR
  2
AcDbRasterImageDefReactor
  3
ISM
 90
        1
280
         0
281
         0
  0
CLASS
  1
IDBUFFER
  2
AcDbIdBuffer
  3
"Acad"
 90
        0
280
         0
281
         0
  0
CLASS
  1
SPATIAL_FILTER
  2
AcDbSpatialFilter
  3
"Acad"
 90
        0
280
         0
281
         0
  0
CLASS
  1
XRECORD
  2
AcDbXrecord
  3
"<Built In>"
 90
        0
280
         0
281
         0
  0
CLASS
  1
SORTENTSTABLE
  2
AcDbSortentsTable
  3
"AutoCAD"
 90
        0
280
         0
281
         0
  0
CLASS
  1
LAYER_INDEX
  2
AcDbLayerIndex
  3
"Acad"
 90
        0
280
         0
281
         0
  0
CLASS
  1
SPATIAL_INDEX
  2
AcDbSpatialIndex
  3
"Acad"
 90
        0
280
         0
281
         0
  0
CLASS
  1
OBJECT_PTR
  2
CAseDLPNTableRecord
  3
"ASE-LPNTableRecord"
 90
        1
280
         0
281
         0
  0
CLASS
  1
LAYOUT
  2
AcDbLayout
  3
"AutoCAD 2000"
 90
        1
280
         0
281
         0
  0
CLASS
  1
PLOTSETTINGS
  2
AcDbPlotSettings
  3
"AutoCAD 2000"
 90
        1
280
         0
281
         0
  0
CLASS
  1
ACDBDICTIONARYWDFLT
  2
AcDbDictionaryWithDefault
  3
"AutoCAD 2000"
 90
        1
280
         0
281
         0
  0
CLASS
  1
ACDBPLACEHOLDER
  2
AcDbPlaceHolder
  3
"AutoCAD 2000"
 90
        1
280
         0
281
         0
  0
CLASS
  1
VBA_PROJECT
  2
AcDbVbaProject
  3
"acadvba"
 90
        1
280
         0
281
         0
  0
CLASS
  1
WIPEOUT
  2
AcDbWipeout
  3
WipeOut|AutoCAD Express Tool|expresstools@autodesk.com
 90
      127
280
         0
281
         1
  0
CLASS
  1
WIPEOUTVARIABLES
  2
AcDbWipeoutVariables
  3
WipeOut|AutoCAD Express Tool|expresstools@autodesk.com
 90
        0
280
         0
281
         0
  0
CLASS
  1
RTEXT
  2
RText
  3
RText|AutoCAD Express Tool|expresstools@autodesk.com
 90
        0
280
         0
281
         1
  0
CLASS
  1
ARCALIGNEDTEXT
  2
AcDbArcAlignedText
  3
ATEXT|AutoCAD Express Tool|expresstools@autodesk.com
 90
        0
280
         0
281
         1
  0
ENDSEC
  0
SECTION
  2
TABLES
  0
TABLE
  2
VPORT
  5
7
100
AcDbSymbolTable
 70
         1
  0
VPORT
  5
15
100
AcDbSymbolTableRecord
100
AcDbViewportTableRecord
  2
*ACTIVE
 70
         0
 10
0.0
 20
0.0
 11
1.0
 21
1.0
 12
210.0
 22
148.5
 13
0.0
 23
0.0
 14
1.0
 24
1.0
 15
0.0
 25
0.0
 16
0.0
 26
0.0
 36
1.0
 17
0.0
 27
0.0
 37
0.0
 40
297.0
 41
1.604229
 42
50.0
 43
0.0
 44
0.0
 50
0.0
 51
0.0
 71
         0
 72
       100
 73
         1
 74
         1
 75
         0
 76
         0
 77
         0
 78
         0
  0
ENDTAB
  0
TABLE
  2
LTYPE
  5
4
100
AcDbSymbolTable
 70
         7
  0
LTYPE
  5
11
100
AcDbSymbolTableRecord
100
AcDbLinetypeTableRecord
  2
ByBlock
 70
        64
  3

 72
        65
 73
         0
 40
0.0
  0
LTYPE
  5
12
100
AcDbSymbolTableRecord
100
AcDbLinetypeTableRecord
  2
ByLayer
 70
        64
  3

 72
        65
 73
         0
 40
0.0
  0
LTYPE
  5
13
100
AcDbSymbolTableRecord
100
AcDbLinetypeTableRecord
  2
CONTINUOUS
 70
         0
  3
Solid line
 72
        65
 73
         0
 40
0.0
  0
LTYPE
  5
28
100
AcDbSymbolTableRecord
100
AcDbLinetypeTableRecord
  2
HIDDEN2
 70
        64
  3
_ _ _ _ _ _ _ _ _ _ _ _ _ _ _ _ _ _ _ _ _ _ _ _
 72
        65
 73
         2
 40
0.1875
 49
0.125
 74
         0
 49
-0.0625
 74
         0
  0
LTYPE
  5
29
100
AcDbSymbolTableRecord
100
AcDbLinetypeTableRecord
  2
CENTER2
 70
        64
  3
___ _ ___ _ ___ _ ___ _ ___ _ ___ _ ___ _ ___ _
 72
        65
 73
         4
 40
1.125
 49
0.75
 74
         0
 49
-0.125
 74
         0
 49
0.125
 74
         0
 49
-0.125
 74
         0
  0
LTYPE
  5
2A
100
AcDbSymbolTableRecord
100
AcDbLinetypeTableRecord
  2
PHANTOM2
 70
        64
  3
___ _ _ ___ _ _ ___ _ _ ___ _ _ ___ _ _ ___ _ _
 72
        65
 73
         6
 40
1.25
 49
0.625
 74
         0
 49
-0.125
 74
         0
 49
0.125
 74
         0
 49
-0.125
 74
         0
 49
0.125
 74
         0
 49
-0.125
 74
         0
  0
LTYPE
  5
2B
100
AcDbSymbolTableRecord
100
AcDbLinetypeTableRecord
  2
DOT2
 70
        64
  3
...............................................
 72
        65
 73
         2
 40
0.125
 49
0.0
 74
         0
 49
-0.125
 74
         0
  0
ENDTAB
  0
TABLE
  2
LAYER
  5
2
100
AcDbSymbolTable
 70
         3
  0
LAYER
  5
14
100
AcDbSymbolTableRecord
100
AcDbLayerTableRecord
  2
0
 70
         0
 62
         7
  6
CONTINUOUS
  0
LAYER
  5
2D
100
AcDbSymbolTableRecord
100
AcDbLayerTableRecord
  2
DEFAULT
 70
         0
 62
         7
  6
CONTINUOUS
  0
LAYER
  5
37
100
AcDbSymbolTableRecord
100
AcDbLayerTableRecord
  2
51060015
 70
         0
 62
         7
  6
CONTINUOUS
  0
ENDTAB
  0
TABLE
  2
STYLE
  5
3
100
AcDbSymbolTable
 70
         1
  0
STYLE
  5
17
100
AcDbSymbolTableRecord
100
AcDbTextStyleTableRecord
  2
Standard
 70
         0
 40
0.0
 41
1.0
 50
0.0
 71
         0
 42
0.2
  3
txt
  4

  0
ENDTAB
  0
TABLE
  2
VIEW
  5
5
100
AcDbSymbolTable
 70
         0
  0
ENDTAB
  0
TABLE
  2
UCS
  5
6
100
AcDbSymbolTable
 70
         0
  0
ENDTAB
  0
TABLE
  2
APPID
  5
8
100
AcDbSymbolTable
 70
         1
  0
APPID
  5
16
100
AcDbSymbolTableRecord
100
AcDbRegAppTableRecord
  2
ACAD
 70
         0
  0
ENDTAB
  0
TABLE
  2
DIMSTYLE
  5
9
100
AcDbSymbolTable
 70
         1
  0
DIMSTYLE
105
18
100
AcDbSymbolTableRecord
100
AcDbDimStyleTableRecord
  2
Standard
 70
         0
  3

  4

  5

  6

  7

 40
1.0
 41
0.18
 42
0.0625
 43
0.38
 44
0.18
 45
0.0
 46
0.0
 47
0.0
 48
0.0
 71
         0
 72
         0
 73
         1
 74
         1
 75
         0
 76
         0
 77
         0
 78
         0
140
0.18
141
0.09
142
0.0
143
25.4
144
1.0
145
0.0
146
1.0
147
0.09
170
         0
171
         2
172
         0
173
         0
174
         0
175
         0
176
         0
177
         0
178
         0
270
         2
271
         4
272
         4
273
         2
274
         2
275
         0
280
         0
281
         0
282
         0
283
         1
284
         0
285
         0
286
         0
287
         0
288
         0
340
17
  0
ENDTAB
  0
TABLE
  2
BLOCK_RECORD
  5
1
100
AcDbSymbolTable
 70
         8
  0
BLOCK_RECORD
  5
A
100
AcDbSymbolTableRecord
100
AcDbBlockTableRecord
  2
*MODEL_SPACE
  0
BLOCK_RECORD
  5
B
100
AcDbSymbolTableRecord
100
AcDbBlockTableRecord
  2
*PAPER_SPACE
  0
BLOCK_RECORD
  5
38
100
AcDbSymbolTableRecord
100
AcDbBlockTableRecord
  2
SE0
  0
BLOCK_RECORD
  5
39
100
AcDbSymbolTableRecord
100
AcDbBlockTableRecord
  2
SE1
  0
BLOCK_RECORD
  5
3F
100
AcDbSymbolTableRecord
100
AcDbBlockTableRecord
  2
SE2
  0
BLOCK_RECORD
  5
40
100
AcDbSymbolTableRecord
100
AcDbBlockTableRecord
  2
SE3
  0
BLOCK_RECORD
  5
46
100
AcDbSymbolTableRecord
100
AcDbBlockTableRecord
  2
SE4
  0
BLOCK_RECORD
  5
47
100
AcDbSymbolTableRecord
100
AcDbBlockTableRecord
  2
SE5
  0
BLOCK_RECORD
  5
4D
100
AcDbSymbolTableRecord
100
AcDbBlockTableRecord
  2
SE6
  0
BLOCK_RECORD
  5
4E
100
AcDbSymbolTableRecord
100
AcDbBlockTableRecord
  2
SE7
  0
ENDTAB
  0
ENDSEC
  0
SECTION
  2
BLOCKS
  0
BLOCK
  5
D
100
AcDbEntity
  8
0
100
AcDbBlockBegin
  2
*MODEL_SPACE
 70
         0
 10
0.0
 20
0.0
 30
0.0
  3
*MODEL_SPACE
  1

  0
ENDBLK
  5
E
100
AcDbEntity
  8
0
100
AcDbBlockEnd
  0
BLOCK
  5
F
100
AcDbEntity
 67
         1
  8
0
100
AcDbBlockBegin
  2
*PAPER_SPACE
 70
         0
 10
0.0
 20
0.0
 30
0.0
  3
*PAPER_SPACE
  1

  0
ENDBLK
  5
10
100
AcDbEntity
 67
         1
  8
0
100
AcDbBlockEnd
  0
BLOCK
  5
CF
100
AcDbEntity
  8
0
 62
         1
 48
0.0
100
AcDbBlockBegin
  2
SE0
 70
         0
 10
0.0
 20
0.0
 30
0.0
  3
SE0
  1

  0
ENDBLK
  5
D0
100
AcDbEntity
  8
0
 62
         1
 48
0.0
100
AcDbBlockEnd
  0
BLOCK
  5
54
100
AcDbEntity
  8
0
 62
         1
 48
0.0
100
AcDbBlockBegin
  2
SE1
 70
         0
 10
0.0
 20
0.0
 30
0.0
  3
SE1
  1

  0
LINE
  5
55
100
AcDbEntity
  8
51060015
  6
CONTINUOUS
 62
         7
100
AcDbLine
 10
42.5938372811
 20
40.1444323888
 30
0.0
 11
48.0938372811
 21
40.1444323888
 31
0.0
  0
ARC
  5
56
100
AcDbEntity
  8
51060015
  6
CONTINUOUS
 62
         7
100
AcDbCircle
 10
51.6721814814
 20
13.3964651107
 30
0.0
 40
10.4809989823
100
AcDbArc
 50
338.1716867869
 51
21.8283132131
  0
ARC
  5
57
100
AcDbEntity
  8
51060015
  6
PHANTOM2
 62
         7
100
AcDbCircle
 10
10.3991977648
 20
98.7536654165
 30
0.0
 40
4.8192676812
100
AcDbArc
 50
133.3035675704
 51
144.0184141363
  0
ARC
  5
58
100
AcDbEntity
  8
51060015
  6
CONTINUOUS
 62
         7
100
AcDbCircle
 10
10.3991977648
 20
98.7536654165
 30
0.0
 40
4.8192676812
100
AcDbArc
 50
144.0185544593
 51
184.3538294179
  0
SPLINE
  5
59
100
AcDbEntity
  8
51060015
  6
CONTINUOUS
 62
         7
100
AcDbSpline
210
0.0
220
0.0
230
1.0
 70
         8
 71
         3
 72
        26
 73
        22
 74
         0
 42
0.0
 43
0.0
 40
0.0
 40
0.0
 40
0.0
 40
0.0
 40
0.0625
 40
0.0625
 40
0.1250000000000001
 40
0.1250000000000001
 40
0.2500000000000003
 40
0.2500000000000003
 40
0.3750000000000005
 40
0.3750000000000005
 40
0.5000000000000007
 40
0.5000000000000007
 40
0.6250000000000009
 40
0.6250000000000009
 40
0.7500000000000011
 40
0.7500000000000011
 40
0.8750000000000012
 40
0.8750000000000012
 40
0.9375000000000007
 40
0.9375000000000007
 40
1.0
 40
1.0
 40
1.0
 40
1.0
 10
56.456327650849083
 20
98.387808061799831
 30
0.0
 10
56.4563276508486
 20
98.865980588357289
 30
0.0
 10
56.310756977179842
 20
99.32893194406239
 30
0.0
 10
55.825874157454798
 20
100.12963063688285
 30
0.0
 10
55.490817409970226
 20
100.46797707500163
 30
0.0
 10
54.379354141581203
 20
101.29280105826648
 30
0.0
 10
53.505712576050804
 20
101.60684729018479
 30
0.0
 10
51.77689355014769
 20
102.02047345612655
 30
0.0
 10
50.919577933826076
 20
102.11911616777935
 30
0.0
 10
49.233157537471712
 20
102.24029995323616
 30
0.0
 10
48.401178878775291
 20
102.26083697198185
 30
0.0
 10
46.781843548082705
 20
102.26074571294893
 30
0.0
 10
45.998417184334585
 20
102.24029207940059
 30
0.0
 10
44.485215867157727
 20
102.11918147325012
 30
0.0
 10
43.753487829667478
 20
102.02023425963434
 30
0.0
 10
42.35860747093723
 20
101.60430838871841
 30
0.0
 10
41.70194625543806
 20
101.29082053962605
 30
0.0
 10
40.900475600239382
 20
100.46699310057785
 30
0.0
 10
40.66610794061274
 20
100.13041731031001
 30
0.0
 10
40.328941036228855
 20
99.326317655743992
 30
0.0
 10
40.231346911259159
 20
98.864009817411713
 30
0.0
 10
40.231346911260246
 20
98.387808061799831
 30
0.0
  0
ARC
  5
5A
100
AcDbEntity
  8
51060015
  6
CONTINUOUS
 62
         7
100
AcDbCircle
 10
57.7884767973
 20
98.7536654165
 30
0.0
 40
4.8192676812
100
AcDbArc
 50
355.646170582
 51
46.6964324297
  0
SPLINE
  5
5B
100
AcDbEntity
  8
51060015
  6
CONTINUOUS
 62
         7
100
AcDbSpline
210
0.0
220
0.0
230
1.0
 70
         8
 71
         3
 72
        26
 73
        22
 74
         0
 42
0.0
 43
0.0
 40
0.0
 40
0.0
 40
0.0
 40
0.0
 40
0.0625000000000001
 40
0.0625000000000001
 40
0.1250000000000002
 40
0.1250000000000002
 40
0.25
 40
0.25
 40
0.3749999999999998
 40
0.3749999999999998
 40
0.4999999999999997
 40
0.4999999999999997
 40
0.6249999999999992
 40
0.6249999999999992
 40
0.7499999999999991
 40
0.7499999999999991
 40
0.8749999999999989
 40
0.8749999999999989
 40
0.9374999999999994
 40
0.9374999999999994
 40
1.0
 40
1.0
 40
1.0
 40
1.0
 10
27.956327650848923
 20
98.387808061799831
 30
0.0
 10
27.956327650848593
 20
98.865980588357303
 30
0.0
 10
27.857777820062068
 20
99.328931944062404
 30
0.0
 10
27.521755669374414
 20
100.12963063688285
 30
0.0
 10
27.286536362106041
 20
100.46797707500164
 30
0.0
 10
26.483210070554769
 20
101.29280105826648
 30
0.0
 10
25.822425165361345
 20
101.60684729018477
 30
0.0
 10
24.431499210235817
 20
102.02047345612657
 30
0.0
 10
23.70309379315799
 20
102.11911616777935
 30
0.0
 10
22.189339766251098
 20
102.24029995323617
 30
0.0
 10
21.401262469102164
 20
102.26083697198183
 30
0.0
 10
19.781759717272685
 20
102.26074571294895
 30
0.0
 10
18.954594373192073
 20
102.2402920794006
 30
0.0
 10
17.26881859969378
 20
102.11918147325015
 30
0.0
 10
16.407654758306098
 20
102.02023425963434
 30
0.0
 10
14.673490982634506
 20
101.60430838871841
 30
0.0
 10
13.804893801829456
 20
101.29082053962605
 30
0.0
 10
12.695911514515064
 20
100.46699310057781
 30
0.0
 10
12.362079223745384
 20
100.13041731030995
 30
0.0
 10
11.875532458206662
 20
99.326317655743964
 30
0.0
 10
11.731346911258461
 20
98.864009817411684
 30
0.0
 10
11.731346911260342
 20
98.387808061799831
 30
0.0
  0
LINE
  5
5C
100
AcDbEntity
  8
51060015
  6
CONTINUOUS
 62
         7
100
AcDbLine
 10
62.5938372811
 20
94.3878080618
 30
0.0
 11
56.4563276508
 21
94.3878080618
 31
0.0
  0
LINE
  5
5D
100
AcDbEntity
  8
51060015
  6
CONTINUOUS
 62
         7
100
AcDbLine
 10
11.7313469113
 20
94.3878080618
 30
0.0
 11
5.5938372811
 21
94.3878080618
 31
0.0
  0
LINE
  5
5E
100
AcDbEntity
  8
51060015
  6
CONTINUOUS
 62
         7
100
AcDbLine
 10
40.2313469113
 20
94.3878080618
 30
0.0
 11
27.9563276508
 21
94.3878080618
 31
0.0
  0
LINE
  5
5F
100
AcDbEntity
  8
51060015
  6
CONTINUOUS
 62
         7
100
AcDbLine
 10
61.4017158828
 20
9.4993507937
 30
0.0
 11
54.4679437965
 21
9.4993507937
 31
0.0
  0
ARC
  5
60
100
AcDbEntity
  8
51060015
  6
CONTINUOUS
 62
         7
100
AcDbCircle
 10
8.0938372811
 20
98.3878080618
 30
0.0
 40
4.0
100
AcDbArc
 50
90.0
 51
104.5916188581
  0
LINE
  5
61
100
AcDbEntity
  8
51060015
  6
CONTINUOUS
 62
         7
100
AcDbLine
 10
37.9438372811
 20
81.8878080618
 30
0.0
 11
37.9438372811
 21
87.3878080618
 31
0.0
  0
LINE
  5
62
100
AcDbEntity
  8
51060015
  6
CONTINUOUS
 62
         7
100
AcDbLine
 10
42.8938372811
 20
65.7878080618
 30
0.0
 11
42.8938372811
 21
70.0878080618
 31
0.0
  0
LINE
  5
63
100
AcDbEntity
  8
51060015
  6
CONTINUOUS
 62
         7
100
AcDbLine
 10
20.0938372811
 20
40.1444323888
 30
0.0
 11
20.0938372811
 21
37.5810235152
 31
0.0
  0
LINE
  5
64
100
AcDbEntity
  8
51060015
  6
CONTINUOUS
 62
         7
100
AcDbLine
 10
51.0938372811
 20
53.5878080618
 30
0.0
 11
51.0938372811
 21
56.5878080618
 31
0.0
  0
LINE
  5
65
100
AcDbEntity
  8
51060015
  6
CONTINUOUS
 62
         7
100
AcDbLine
 10
6.7859586793
 20
40.6762653299
 30
0.0
 11
5.8438372811
 21
38.0878080618
 31
0.0
  0
LINE
  5
66
100
AcDbEntity
  8
51060015
  6
CONTINUOUS
 62
         7
100
AcDbLine
 10
25.5938372811
 20
11.0878080618
 30
0.0
 11
42.5938372811
 21
11.0878080618
 31
0.0
  0
LINE
  5
67
100
AcDbEntity
  8
51060015
  6
CONTINUOUS
 62
         7
100
AcDbLine
 10
61.4017158828
 20
9.4993507937
 30
0.0
 11
62.3438372811
 21
12.0878080618
 31
0.0
  0
LINE
  5
68
100
AcDbEntity
  8
51060015
  6
CONTINUOUS
 62
         7
100
AcDbLine
 10
48.0938372811
 20
37.5806301068
 30
0.0
 11
48.0938372811
 21
40.1444323888
 31
0.0
  0
LINE
  5
69
100
AcDbEntity
  8
51060015
  6
CONTINUOUS
 62
         7
100
AcDbLine
 10
17.5938372811
 20
41.5878080618
 30
0.0
 11
20.0938372811
 21
40.1444323888
 31
0.0
  0
LINE
  5
6A
100
AcDbEntity
  8
51060015
  6
CONTINUOUS
 62
         7
100
AcDbLine
 10
51.0938372811
 20
49.3764831964
 30
0.0
 11
51.0938372811
 21
53.0878080618
 31
0.0
  0
LINE
  5
6B
100
AcDbEntity
  8
51060015
  6
CONTINUOUS
 62
         7
100
AcDbLine
 10
50.5938372811
 20
41.5878080618
 30
0.0
 11
50.5938372811
 21
49.0878080618
 31
0.0
  0
LINE
  5
6C
100
AcDbEntity
  8
51060015
  6
CONTINUOUS
 62
         7
100
AcDbLine
 10
17.0938372811
 20
49.3764831964
 30
0.0
 11
17.5938372811
 21
49.0878080618
 31
0.0
  0
LINE
  5
6D
100
AcDbEntity
  8
51060015
  6
CONTINUOUS
 62
         7
100
AcDbLine
 10
51.0938372811
 20
53.0878080618
 30
0.0
 11
50.5938372811
 21
53.5878080618
 31
0.0
  0
LINE
  5
6E
100
AcDbEntity
  8
51060015
  6
CONTINUOUS
 62
         7
100
AcDbLine
 10
20.0999635301
 20
37.5878080618
 30
0.0
 11
14.8438372811
 21
37.5878080618
 31
0.0
  0
LINE
  5
6F
100
AcDbEntity
  8
51060015
  6
CONTINUOUS
 62
         7
100
AcDbLine
 10
53.3438372811
 20
37.5878080618
 30
0.0
 11
48.0873478168
 21
37.5878080618
 31
0.0
  0
ARC
  5
70
100
AcDbEntity
  8
51060015
  6
CONTINUOUS
 62
         7
100
AcDbCircle
 10
60.0938372811
 20
98.3878080618
 30
0.0
 40
4.0
100
AcDbArc
 50
75.399318372
 51
90.0
  0
LINE
  5
71
100
AcDbEntity
  8
51060015
  6
CONTINUOUS
 62
         7
100
AcDbLine
 10
60.0938372811
 20
102.3878080618
 30
0.0
 11
8.0938372811
 21
102.3878080618
 31
0.0
  0
LINE
  5
72
100
AcDbEntity
  8
51060015
  6
CONTINUOUS
 62
         7
100
AcDbLine
 10
54.4679437965
 20
40.6762653299
 30
0.0
 11
53.3438372811
 21
37.5878080618
 31
0.0
  0
LINE
  5
73
100
AcDbEntity
  8
51060015
  6
CONTINUOUS
 62
         7
100
AcDbLine
 10
13.7197307657
 20
9.4993507937
 30
0.0
 11
14.8438372811
 21
12.5878080618
 31
0.0
  0
LINE
  5
74
100
AcDbEntity
  8
51060015
  6
CONTINUOUS
 62
         7
100
AcDbLine
 10
30.2438372811
 20
87.3878080618
 30
0.0
 11
30.2438372811
 21
81.8878080618
 31
0.0
  0
LINE
  5
75
100
AcDbEntity
  8
51060015
  6
CONTINUOUS
 62
         7
100
AcDbLine
 10
25.2938372811
 20
70.0878080618
 30
0.0
 11
25.2938372811
 21
65.7878080618
 31
0.0
  0
LINE
  5
76
100
AcDbEntity
  8
51060015
  6
CONTINUOUS
 62
         7
100
AcDbLine
 10
17.0938372811
 20
56.5878080618
 30
0.0
 11
17.0938372811
 21
53.5878080618
 31
0.0
  0
LINE
  5
77
100
AcDbEntity
  8
51060015
  6
CONTINUOUS
 62
         7
100
AcDbLine
 10
5.8438372811
 20
12.0878080618
 30
0.0
 11
6.7859586793
 21
9.4993507937
 31
0.0
  0
LINE
  5
78
100
AcDbEntity
  8
51060015
  6
CONTINUOUS
 62
         7
100
AcDbLine
 10
62.3438372811
 20
38.0878080618
 30
0.0
 11
61.4017158828
 21
40.6762653299
 31
0.0
  0
LINE
  5
79
100
AcDbEntity
  8
51060015
  6
CONTINUOUS
 62
         7
100
AcDbLine
 10
48.0938372811
 20
40.1444323888
 30
0.0
 11
50.5938372811
 21
41.5878080618
 31
0.0
  0
LINE
  5
7A
100
AcDbEntity
  8
51060015
  6
CONTINUOUS
 62
         7
100
AcDbLine
 10
17.0938372811
 20
53.0878080618
 30
0.0
 11
17.0938372811
 21
49.3764831964
 31
0.0
  0
LINE
  5
7B
100
AcDbEntity
  8
51060015
  6
CONTINUOUS
 62
         7
100
AcDbLine
 10
17.5938372811
 20
49.0878080618
 30
0.0
 11
17.5938372811
 21
41.5878080618
 31
0.0
  0
LINE
  5
7C
100
AcDbEntity
  8
51060015
  6
CONTINUOUS
 62
         7
100
AcDbLine
 10
50.5938372811
 20
49.0878080618
 30
0.0
 11
51.0938372811
 21
49.3764831964
 31
0.0
  0
LINE
  5
7D
100
AcDbEntity
  8
51060015
  6
CONTINUOUS
 62
         7
100
AcDbLine
 10
17.5938372811
 20
53.5878080618
 30
0.0
 11
17.0938372811
 21
53.0878080618
 31
0.0
  0
LINE
  5
7E
100
AcDbEntity
  8
51060015
  6
CONTINUOUS
 62
         7
100
AcDbLine
 10
14.8438372811
 20
12.5878080618
 30
0.0
 11
25.5938372811
 21
12.5878080618
 31
0.0
  0
LINE
  5
7F
100
AcDbEntity
  8
51060015
  6
CONTINUOUS
 62
         7
100
AcDbLine
 10
42.5938372811
 20
12.5878080618
 30
0.0
 11
53.3438372811
 21
12.5878080618
 31
0.0
  0
LINE
  5
80
100
AcDbEntity
  8
51060015
  6
CONTINUOUS
 62
         7
100
AcDbLine
 10
30.0938372811
 20
87.3878080618
 30
0.0
 11
38.0938372811
 21
87.3878080618
 31
0.0
  0
LINE
  5
81
100
AcDbEntity
  8
51060015
  6
CONTINUOUS
 62
         7
100
AcDbLine
 10
30.0938372811
 20
94.3878080618
 30
0.0
 11
30.0938372811
 21
87.3878080618
 31
0.0
  0
LINE
  5
82
100
AcDbEntity
  8
51060015
  6
CONTINUOUS
 62
         7
100
AcDbLine
 10
38.0938372811
 20
94.3878080618
 30
0.0
 11
38.0938372811
 21
87.3878080618
 31
0.0
  0
LINE
  5
83
100
AcDbEntity
  8
51060015
  6
CONTINUOUS
 62
         7
100
AcDbLine
 10
5.5938372811
 20
98.3878080618
 30
0.0
 11
5.5938372811
 21
94.3878080618
 31
0.0
  0
LINE
  5
84
100
AcDbEntity
  8
51060015
  6
CONTINUOUS
 62
         7
100
AcDbLine
 10
62.5938372811
 20
98.3878080618
 30
0.0
 11
62.5938372811
 21
94.3878080618
 31
0.0
  0
LINE
  5
85
100
AcDbEntity
  8
51060015
  6
CONTINUOUS
 62
         7
100
AcDbLine
 10
56.4563276508
 20
98.3878080618
 30
0.0
 11
56.4563276508
 21
94.3878080618
 31
0.0
  0
LINE
  5
86
100
AcDbEntity
  8
51060015
  6
CONTINUOUS
 62
         7
100
AcDbLine
 10
40.2313469113
 20
98.3878080618
 30
0.0
 11
40.2313469113
 21
94.3878080618
 31
0.0
  0
LINE
  5
87
100
AcDbEntity
  8
51060015
  6
CONTINUOUS
 62
         7
100
AcDbLine
 10
27.9563276508
 20
98.3878080618
 30
0.0
 11
27.9563276508
 21
94.3878080618
 31
0.0
  0
LINE
  5
88
100
AcDbEntity
  8
51060015
  6
CONTINUOUS
 62
         7
100
AcDbLine
 10
11.7313469113
 20
98.3878080618
 30
0.0
 11
11.7313469113
 21
94.3878080618
 31
0.0
  0
LINE
  5
89
100
AcDbEntity
  8
51060015
  6
CONTINUOUS
 62
         7
100
AcDbLine
 10
40.2313469113
 20
94.3878080618
 30
0.0
 11
56.4563276508
 21
94.3878080618
 31
0.0
  0
LINE
  5
8A
100
AcDbEntity
  8
51060015
  6
CONTINUOUS
 62
         7
100
AcDbLine
 10
11.7313469113
 20
94.3878080618
 30
0.0
 11
27.9563276508
 21
94.3878080618
 31
0.0
  0
ARC
  5
8B
100
AcDbEntity
  8
51060015
  6
CONTINUOUS
 62
         7
100
AcDbCircle
 10
-28.8447337908
 20
-7.624080783
 30
0.0
 40
66.6265608435
100
AcDbArc
 50
35.2074335559
 51
42.7332821354
  0
ARC
  5
8C
100
AcDbEntity
  8
51060015
  6
CONTINUOUS
 62
         7
100
AcDbCircle
 10
46.7201282868
 20
25.0878080618
 30
0.0
 40
40.6876873543
100
AcDbArc
 50
168.9560253199
 51
191.0439746801
  0
ARC
  5
8D
100
AcDbEntity
  8
51060015
  6
CONTINUOUS
 62
         7
100
AcDbCircle
 10
3.9901963643
 20
13.3964651107
 30
0.0
 40
10.4809989823
100
AcDbArc
 50
338.1716867869
 51
21.8283132131
  0
ARC
  5
8E
100
AcDbEntity
  8
51060015
  6
CONTINUOUS
 62
         7
100
AcDbCircle
 10
-26.2144404808
 20
25.0878080618
 30
0.0
 40
40.6876889629
100
AcDbArc
 50
348.956025762
 51
11.043974238
  0
ARC
  5
8F
100
AcDbEntity
  8
51060015
  6
CONTINUOUS
 62
         7
100
AcDbCircle
 10
3.9901963643
 20
36.7791510129
 30
0.0
 40
10.4809989823
100
AcDbArc
 50
338.1716867869
 51
21.8283132131
  0
LINE
  5
90
100
AcDbEntity
  8
51060015
  6
CONTINUOUS
 62
         7
100
AcDbLine
 10
61.4017158828
 20
40.6762653299
 30
0.0
 11
54.4679437965
 21
40.6762653299
 31
0.0
  0
LINE
  5
91
100
AcDbEntity
  8
51060015
  6
CONTINUOUS
 62
         7
100
AcDbLine
 10
61.4017158828
 20
32.8820366959
 30
0.0
 11
54.4679437965
 21
32.8820366959
 31
0.0
  0
LINE
  5
92
100
AcDbEntity
  8
51060015
  6
CONTINUOUS
 62
         7
100
AcDbLine
 10
13.7197307657
 20
32.8820366959
 30
0.0
 11
6.7859586793
 21
32.8820366959
 31
0.0
  0
LINE
  5
93
100
AcDbEntity
  8
51060015
  6
CONTINUOUS
 62
         7
100
AcDbLine
 10
13.7197307657
 20
17.2935794277
 30
0.0
 11
6.7859586793
 21
17.2935794277
 31
0.0
  0
ARC
  5
94
100
AcDbEntity
  8
51060015
  6
CONTINUOUS
 62
         7
100
AcDbCircle
 10
34.0938372811
 20
67.3450600594
 30
0.0
 40
27.19024429
100
AcDbArc
 50
251.7832801129
 51
288.2167198871
  0
ARC
  5
95
100
AcDbEntity
  8
51060015
  6
CONTINUOUS
 62
         7
100
AcDbCircle
 10
97.0417151249
 20
-7.6316075223
 30
0.0
 40
66.638504587
100
AcDbArc
 50
137.2673866761
 51
144.791892221
  0
LINE
  5
96
100
AcDbEntity
  8
51060015
  6
CONTINUOUS
 62
         7
100
AcDbLine
 10
45.0938372811
 20
56.5878080618
 30
0.0
 11
45.0938372811
 21
65.7878080618
 31
0.0
  0
LINE
  5
97
100
AcDbEntity
  8
51060015
  6
CONTINUOUS
 62
         7
100
AcDbLine
 10
34.0938372811
 20
56.5878080618
 30
0.0
 11
34.0938372811
 21
65.7878080618
 31
0.0
  0
LINE
  5
98
100
AcDbEntity
  8
51060015
  6
CONTINUOUS
 62
         7
100
AcDbLine
 10
23.0938372811
 20
56.5878080618
 30
0.0
 11
23.0938372811
 21
65.7878080618
 31
0.0
  0
LINE
  5
99
100
AcDbEntity
  8
51060015
  6
CONTINUOUS
 62
         7
100
AcDbLine
 10
25.5938372811
 20
40.1444323888
 30
0.0
 11
20.0938372811
 21
40.1444323888
 31
0.0
  0
LINE
  5
9A
100
AcDbEntity
  8
51060015
  6
CONTINUOUS
 62
         7
100
AcDbLine
 10
17.5938372811
 20
41.5878080618
 30
0.0
 11
50.5938372811
 21
41.5878080618
 31
0.0
  0
LINE
  5
9B
100
AcDbEntity
  8
51060015
  6
CONTINUOUS
 62
         7
100
AcDbLine
 10
17.0938372811
 20
56.5878080618
 30
0.0
 11
51.0938372811
 21
56.5878080618
 31
0.0
  0
LINE
  5
9C
100
AcDbEntity
  8
51060015
  6
CONTINUOUS
 62
         7
100
AcDbLine
 10
17.0938372811
 20
53.5878080618
 30
0.0
 11
51.0938372811
 21
53.5878080618
 31
0.0
  0
LINE
  5
9D
100
AcDbEntity
  8
51060015
  6
CONTINUOUS
 62
         7
100
AcDbLine
 10
17.5938372811
 20
49.0878080618
 30
0.0
 11
50.5938372811
 21
49.0878080618
 31
0.0
  0
LINE
  5
9E
100
AcDbEntity
  8
51060015
  6
CONTINUOUS
 62
         7
100
AcDbLine
 10
17.0938372811
 20
49.3764831964
 30
0.0
 11
51.0938372811
 21
49.3764831964
 31
0.0
  0
LINE
  5
9F
100
AcDbEntity
  8
51060015
  6
CONTINUOUS
 62
         7
100
AcDbLine
 10
17.0938372811
 20
53.0878080618
 30
0.0
 11
51.0938372811
 21
53.0878080618
 31
0.0
  0
LINE
  5
A0
100
AcDbEntity
  8
51060015
  6
CONTINUOUS
 62
         7
100
AcDbLine
 10
5.8438372811
 20
38.0878080618
 30
0.0
 11
5.8438372811
 21
12.0878080618
 31
0.0
  0
LINE
  5
A1
100
AcDbEntity
  8
51060015
  6
CONTINUOUS
 62
         7
100
AcDbLine
 10
62.3438372811
 20
38.0878080618
 30
0.0
 11
62.3438372811
 21
12.0878080618
 31
0.0
  0
ARC
  5
A2
100
AcDbEntity
  8
51060015
  6
CONTINUOUS
 62
         7
100
AcDbCircle
 10
16.5154930807
 20
36.7791510129
 30
0.0
 40
10.4809989823
100
AcDbArc
 50
158.1716867869
 51
201.8283132131
  0
LINE
  5
A3
100
AcDbEntity
  8
51060015
  6
CONTINUOUS
 62
         7
100
AcDbLine
 10
53.3438372811
 20
37.5878080618
 30
0.0
 11
53.3438372811
 21
12.5878080618
 31
0.0
  0
LINE
  5
A4
100
AcDbEntity
  8
51060015
  6
CONTINUOUS
 62
         7
100
AcDbLine
 10
53.3438372811
 20
12.5878080618
 30
0.0
 11
54.4679437965
 21
9.4993507937
 31
0.0
  0
LINE
  5
A5
100
AcDbEntity
  8
51060015
  6
CONTINUOUS
 62
         7
100
AcDbLine
 10
14.8438372811
 20
37.5878080618
 30
0.0
 11
14.8438372811
 21
12.5878080618
 31
0.0
  0
LINE
  5
A6
100
AcDbEntity
  8
51060015
  6
CONTINUOUS
 62
         7
100
AcDbLine
 10
13.7197307657
 20
40.6762653299
 30
0.0
 11
6.7859586793
 21
40.6762653299
 31
0.0
  0
ARC
  5
A7
100
AcDbEntity
  8
51060015
  6
CONTINUOUS
 62
         7
100
AcDbCircle
 10
64.1974781978
 20
13.3964651107
 30
0.0
 40
10.4809989823
100
AcDbArc
 50
158.1716867869
 51
201.8283132131
  0
LINE
  5
A8
100
AcDbEntity
  8
51060015
  6
CONTINUOUS
 62
         7
100
AcDbLine
 10
13.7197307657
 20
9.4993507937
 30
0.0
 11
6.7859586793
 21
9.4993507937
 31
0.0
  0
LINE
  5
A9
100
AcDbEntity
  8
51060015
  6
CONTINUOUS
 62
         7
100
AcDbLine
 10
14.8438372811
 20
37.5878080618
 30
0.0
 11
13.7197307657
 21
40.6762653299
 31
0.0
  0
ARC
  5
AA
100
AcDbEntity
  8
51060015
  6
CONTINUOUS
 62
         7
100
AcDbCircle
 10
94.4021150429
 20
25.0878080618
 30
0.0
 40
40.6876889629
100
AcDbArc
 50
168.956025762
 51
191.043974238
  0
ARC
  5
AB
100
AcDbEntity
  8
51060015
  6
CONTINUOUS
 62
         7
100
AcDbCircle
 10
64.1974781978
 20
36.7791510129
 30
0.0
 40
10.4809989823
100
AcDbArc
 50
158.1716867869
 51
201.8283132131
  0
LINE
  5
AC
100
AcDbEntity
  8
51060015
  6
CONTINUOUS
 62
         7
100
AcDbLine
 10
61.4017158828
 20
17.2935794277
 30
0.0
 11
54.4679437965
 21
17.2935794277
 31
0.0
  0
ARC
  5
AD
100
AcDbEntity
  8
51060015
  6
CONTINUOUS
 62
         7
100
AcDbCircle
 10
21.4675462753
 20
25.0878080618
 30
0.0
 40
40.6876873542
100
AcDbArc
 50
348.9560253199
 51
11.0439746801
  0
ARC
  5
AE
100
AcDbEntity
  8
51060015
  6
CONTINUOUS
 62
         7
100
AcDbCircle
 10
51.6721814814
 20
36.7791510129
 30
0.0
 40
10.4809989823
100
AcDbArc
 50
338.1716867869
 51
21.8283132131
  0
ARC
  5
AF
100
AcDbEntity
  8
51060015
  6
CONTINUOUS
 62
         7
100
AcDbCircle
 10
16.5154930807
 20
13.3964651107
 30
0.0
 40
10.4809989823
100
AcDbArc
 50
158.1716867869
 51
201.8283132131
  0
LINE
  5
B0
100
AcDbEntity
  8
51060015
  6
CONTINUOUS
 62
         7
100
AcDbLine
 10
33.2408113445
 20
34.0878080618
 30
0.0
 11
35.2235202782
 21
34.0878080618
 31
0.0
  0
LINE
  5
B1
100
AcDbEntity
  8
51060015
  6
CONTINUOUS
 62
         7
100
AcDbLine
 10
35.9424094582
 20
34.0878080618
 30
0.0
 11
37.2051812685
 21
34.0878080618
 31
0.0
  0
LINE
  5
B2
100
AcDbEntity
  8
51060015
  6
CONTINUOUS
 62
         7
100
AcDbLine
 10
34.4270832858
 20
38.0878080618
 30
0.0
 11
33.2408113445
 21
34.0878080618
 31
0.0
  0
LINE
  5
B3
100
AcDbEntity
  8
51060015
  6
CONTINUOUS
 62
         7
100
AcDbLine
 10
34.7561375168
 20
35.1200323217
 30
0.0
 11
35.2235202782
 21
37.0964535949
 31
0.0
  0
LINE
  5
B4
100
AcDbEntity
  8
51060015
  6
CONTINUOUS
 62
         7
100
AcDbLine
 10
35.5368553581
 20
35.1200323217
 30
0.0
 11
34.7561375168
 21
35.1200323217
 31
0.0
  0
LINE
  5
B5
100
AcDbEntity
  8
51060015
  6
CONTINUOUS
 62
         7
100
AcDbLine
 10
35.2235202782
 20
37.0964535949
 30
0.0
 11
35.9424094582
 21
34.0878080618
 31
0.0
  0
LINE
  5
B6
100
AcDbEntity
  8
51060015
  6
CONTINUOUS
 62
         7
100
AcDbLine
 10
37.2051812685
 20
34.0878080618
 30
0.0
 11
36.0189093272
 21
38.0878080618
 31
0.0
  0
LINE
  5
B7
100
AcDbEntity
  8
51060015
  6
CONTINUOUS
 62
         7
100
AcDbLine
 10
36.0189093272
 20
38.0878080618
 30
0.0
 11
34.4270832858
 21
38.0878080618
 31
0.0
  0
LINE
  5
B8
100
AcDbEntity
  8
51060015
  6
CONTINUOUS
 62
         7
100
AcDbLine
 10
35.2235202782
 20
34.0878080618
 30
0.0
 11
35.5368553581
 21
35.1200323217
 31
0.0
  0
LINE
  5
B9
100
AcDbEntity
  8
51060015
  6
CONTINUOUS
 62
         7
100
AcDbLine
 10
31.926690307
 20
36.9832757065
 30
0.0
 11
31.0485137285
 21
36.9832757065
 31
0.0
  0
LINE
  5
BA
100
AcDbEntity
  8
51060015
  6
CONTINUOUS
 62
         7
100
AcDbLine
 10
33.1182019654
 20
34.0878080618
 30
0.0
 11
31.926690307
 21
34.0878080618
 31
0.0
  0
LINE
  5
BB
100
AcDbEntity
  8
51060015
  6
CONTINUOUS
 62
         7
100
AcDbLine
 10
33.1182019654
 20
36.9832757065
 30
0.0
 11
33.1182019654
 21
34.0878080618
 31
0.0
  0
LINE
  5
BC
100
AcDbEntity
  8
51060015
  6
CONTINUOUS
 62
         7
100
AcDbLine
 10
31.3723282425
 20
38.0878080618
 30
0.0
 11
34.0938372811
 21
38.0878080618
 31
0.0
  0
LINE
  5
BD
100
AcDbEntity
  8
51060015
  6
CONTINUOUS
 62
         7
100
AcDbLine
 10
33.76478305
 20
36.9832757065
 30
0.0
 11
33.1182019654
 21
36.9832757065
 31
0.0
  0
LINE
  5
BE
100
AcDbEntity
  8
51060015
  6
CONTINUOUS
 62
         7
100
AcDbLine
 10
34.0938372811
 20
38.0878080618
 30
0.0
 11
33.76478305
 21
36.9832757065
 31
0.0
  0
LINE
  5
BF
100
AcDbEntity
  8
51060015
  6
CONTINUOUS
 62
         7
100
AcDbLine
 10
31.0485137285
 20
36.9832757065
 30
0.0
 11
31.3723282425
 21
38.0878080618
 31
0.0
  0
LINE
  5
C0
100
AcDbEntity
  8
51060015
  6
CONTINUOUS
 62
         7
100
AcDbLine
 10
31.926690307
 20
34.0878080618
 30
0.0
 11
31.926690307
 21
36.9832757065
 31
0.0
  0
LINE
  5
C1
100
AcDbEntity
  8
51060015
  6
CONTINUOUS
 62
         7
100
AcDbLine
 10
43.5938372835
 20
81.8878080618
 30
0.0
 11
34.0938372811
 21
81.8878080618
 31
0.0
  0
LINE
  5
C2
100
AcDbEntity
  8
51060015
  6
CONTINUOUS
 62
         7
100
AcDbLine
 10
34.0938372811
 20
81.8878080618
 30
0.0
 11
24.5938372835
 21
81.8878080618
 31
0.0
  0
LINE
  5
C3
100
AcDbEntity
  8
51060015
  6
CONTINUOUS
 62
         7
100
AcDbLine
 10
43.5938372835
 20
70.0878080618
 30
0.0
 11
34.0938372811
 21
70.0878080618
 31
0.0
  0
LINE
  5
C4
100
AcDbEntity
  8
51060015
  6
CONTINUOUS
 62
         7
100
AcDbLine
 10
43.5938372835
 20
70.0878080618
 30
0.0
 11
43.5938372835
 21
81.8878080618
 31
0.0
  0
LINE
  5
C5
100
AcDbEntity
  8
51060015
  6
CONTINUOUS
 62
         7
100
AcDbLine
 10
34.0938372811
 20
70.0878080618
 30
0.0
 11
24.5938372835
 21
70.0878080618
 31
0.0
  0
LINE
  5
C6
100
AcDbEntity
  8
51060015
  6
CONTINUOUS
 62
         7
100
AcDbLine
 10
34.0938372811
 20
70.0878080618
 30
0.0
 11
34.0938372811
 21
81.8878080618
 31
0.0
  0
LINE
  5
C7
100
AcDbEntity
  8
51060015
  6
CONTINUOUS
 62
         7
100
AcDbLine
 10
24.5938372835
 20
70.0878080618
 30
0.0
 11
24.5938372835
 21
81.8878080618
 31
0.0
  0
LINE
  5
C8
100
AcDbEntity
  8
51060015
  6
CONTINUOUS
 62
         7
100
AcDbLine
 10
45.0938372811
 20
65.7878080618
 30
0.0
 11
34.0938372811
 21
65.7878080618
 31
0.0
  0
LINE
  5
C9
100
AcDbEntity
  8
51060015
  6
CONTINUOUS
 62
         7
100
AcDbLine
 10
34.0938372811
 20
65.7878080618
 30
0.0
 11
23.0938372811
 21
65.7878080618
 31
0.0
  0
LINE
  5
CA
100
AcDbEntity
  8
51060015
  6
CONTINUOUS
 62
         7
100
AcDbLine
 10
25.5938372811
 20
25.0878080618
 30
0.0
 11
25.5938372811
 21
41.5175672552
 31
0.0
  0
LINE
  5
CB
100
AcDbEntity
  8
51060015
  6
CONTINUOUS
 62
         7
100
AcDbLine
 10
42.5938372811
 20
25.0878080618
 30
0.0
 11
42.5938372811
 21
41.5175672552
 31
0.0
  0
LINE
  5
CC
100
AcDbEntity
  8
51060015
  6
CONTINUOUS
 62
         7
100
AcDbLine
 10
42.5938372811
 20
11.0878080618
 30
0.0
 11
42.5938372811
 21
25.0878080618
 31
0.0
  0
LINE
  5
CD
100
AcDbEntity
  8
51060015
  6
CONTINUOUS
 62
         7
100
AcDbLine
 10
25.5938372811
 20
11.0878080618
 30
0.0
 11
25.5938372811
 21
25.0878080618
 31
0.0
  0
ENDBLK
  5
CE
100
AcDbEntity
  8
51060015
  6
CONTINUOUS
 62
         7
100
AcDbBlockEnd
  0
BLOCK
  5
133
100
AcDbEntity
  8
0
 62
         1
 48
0.0
100
AcDbBlockBegin
  2
SE2
 70
         0
 10
0.0
 20
0.0
 30
0.0
  3
SE2
  1

  0
ENDBLK
  5
134
100
AcDbEntity
  8
0
 62
         1
 48
0.0
100
AcDbBlockEnd
  0
BLOCK
  5
D1
100
AcDbEntity
  8
0
 62
         1
 48
0.0
100
AcDbBlockBegin
  2
SE3
 70
         0
 10
0.0
 20
0.0
 30
0.0
  3
SE3
  1

  0
ARC
  5
D2
100
AcDbEntity
  8
51060015
  6
CONTINUOUS
 62
         7
100
AcDbCircle
 10
31.5358382301
 20
179.9572188002
 30
0.0
 40
30.619163084
100
AcDbArc
 50
347.2645244266
 51
12.7354755734
  0
ARC
  5
D3
100
AcDbEntity
  8
51060015
  6
CONTINUOUS
 62
         7
100
AcDbCircle
 10
23.1919632687
 20
188.1537616452
 30
0.0
 40
3.5
100
AcDbArc
 50
5.7038167337
 51
109.3393059679
  0
ARC
  5
D4
100
AcDbEntity
  8
51060015
  6
CONTINUOUS
 62
         7
100
AcDbCircle
 10
27.000323737
 20
177.3026607544
 30
0.0
 40
15.0
100
AcDbArc
 50
109.3393059679
 51
144.7797233254
  0
ARC
  5
D5
100
AcDbEntity
  8
51060015
  6
CONTINUOUS
 62
         7
100
AcDbCircle
 10
44.9957112934
 20
188.1537616452
 30
0.0
 40
3.5
100
AcDbArc
 50
70.6606940322
 51
174.7364472005
  0
ARC
  5
D6
100
AcDbEntity
  8
51060015
  6
CONTINUOUS
 62
         7
100
AcDbCircle
 10
41.1873508251
 20
177.3026607544
 30
0.0
 40
15.0
100
AcDbArc
 50
35.219527974
 51
70.6606940322
  0
ARC
  5
D7
100
AcDbEntity
  8
51060015
  6
CONTINUOUS
 62
         7
100
AcDbCircle
 10
41.5869860774
 20
156.2926475341
 30
0.0
 40
3.5
100
AcDbArc
 50
310.6606940322
 51
54.7471586923
  0
ARC
  5
D8
100
AcDbEntity
  8
51060015
  6
CONTINUOUS
 62
         7
100
AcDbCircle
 10
34.0938372811
 20
165.0163348919
 30
0.0
 40
15.0
100
AcDbArc
 50
229.3393059679
 51
310.6606940322
  0
ARC
  5
D9
100
AcDbEntity
  8
51060015
  6
CONTINUOUS
 62
         7
100
AcDbCircle
 10
34.0938372811
 20
173.2072188002
 30
0.0
 40
30.0
100
AcDbArc
 50
18.1948723388
 51
19.666638215
  0
ARC
  5
DA
100
AcDbEntity
  8
51060015
  6
CONTINUOUS
 62
         7
100
AcDbCircle
 10
34.0938372811
 20
173.2072188002
 30
0.0
 40
30.0
100
AcDbArc
 50
26.7436839504
 51
41.8051276612
  0
ARC
  5
DB
100
AcDbEntity
  8
51060015
  6
CONTINUOUS
 62
         7
100
AcDbCircle
 10
34.0938372811
 20
173.2072188002
 30
0.0
 40
30.0
100
AcDbArc
 50
78.1948723388
 51
101.8051276612
  0
ARC
  5
DC
100
AcDbEntity
  8
51060015
  6
CONTINUOUS
 62
         7
100
AcDbCircle
 10
34.0938372811
 20
173.2072188002
 30
0.0
 40
30.0
100
AcDbArc
 50
138.1948723388
 51
153.2563160496
  0
ARC
  5
DD
100
AcDbEntity
  8
51060015
  6
CONTINUOUS
 62
         7
100
AcDbCircle
 10
34.0938372811
 20
173.2072188002
 30
0.0
 40
30.0
100
AcDbArc
 50
160.333361785
 51
161.8051276612
  0
ARC
  5
DE
100
AcDbEntity
  8
51060015
  6
CONTINUOUS
 62
         7
100
AcDbCircle
 10
34.0938372811
 20
173.2072188002
 30
0.0
 40
30.0
100
AcDbArc
 50
258.1948723388
 51
281.8051276612
  0
ARC
  5
DF
100
AcDbEntity
  8
51060015
  6
CONTINUOUS
 62
         7
100
AcDbCircle
 10
34.0938372811
 20
173.2072188002
 30
0.0
 40
30.0
100
AcDbArc
 50
318.1948723388
 51
333.2563160496
  0
ARC
  5
E0
100
AcDbEntity
  8
51060015
  6
CONTINUOUS
 62
         7
100
AcDbCircle
 10
34.0938372811
 20
173.2072188002
 30
0.0
 40
30.0
100
AcDbArc
 50
340.333361785
 51
341.8051276612
  0
LINE
  5
E1
100
AcDbEntity
  8
51060015
  6
CONTINUOUS
 62
         7
100
AcDbLine
 10
61.4017158828
 20
173.2072188002
 30
0.0
 11
54.4679437965
 21
173.2072188002
 31
0.0
  0
LINE
  5
E2
100
AcDbEntity
  8
51060015
  6
CONTINUOUS
 62
         7
100
AcDbLine
 10
6.0258223982
 20
186.7072188002
 30
0.0
 11
5.8438372811
 21
186.2072188002
 31
0.0
  0
LINE
  5
E3
100
AcDbEntity
  8
51060015
  6
CONTINUOUS
 62
         7
100
AcDbLine
 10
62.1618521639
 20
159.7072188002
 30
0.0
 11
62.3438372811
 21
160.2072188002
 31
0.0
  0
LINE
  5
E4
100
AcDbEntity
  8
51060015
  6
CONTINUOUS
 62
         7
100
AcDbLine
 10
25.5938372811
 20
185.7072188002
 30
0.0
 11
14.8438372811
 21
185.7072188002
 31
0.0
  0
LINE
  5
E5
100
AcDbEntity
  8
51060015
  6
CONTINUOUS
 62
         7
100
AcDbLine
 10
53.3438372811
 20
185.7072188002
 30
0.0
 11
42.5938372811
 21
185.7072188002
 31
0.0
  0
LINE
  5
E6
100
AcDbEntity
  8
51060015
  6
CONTINUOUS
 62
         7
100
AcDbLine
 10
53.7078075153
 20
186.7072188002
 30
0.0
 11
53.3438372811
 21
185.7072188002
 31
0.0
  0
LINE
  5
E7
100
AcDbEntity
  8
51060015
  6
CONTINUOUS
 62
         7
100
AcDbLine
 10
14.4798670468
 20
159.7072188002
 30
0.0
 11
14.8438372811
 21
160.7072188002
 31
0.0
  0
LINE
  5
E8
100
AcDbEntity
  8
51060015
  6
CONTINUOUS
 62
         7
100
AcDbLine
 10
5.8438372811
 20
160.2072188002
 30
0.0
 11
6.0258223982
 21
159.7072188002
 31
0.0
  0
LINE
  5
E9
100
AcDbEntity
  8
51060015
  6
CONTINUOUS
 62
         7
100
AcDbLine
 10
62.3438372811
 20
186.2072188002
 30
0.0
 11
62.1618521639
 21
186.7072188002
 31
0.0
  0
LINE
  5
EA
100
AcDbEntity
  8
51060015
  6
CONTINUOUS
 62
         7
100
AcDbLine
 10
14.8438372811
 20
160.7072188002
 30
0.0
 11
25.5938372811
 21
160.7072188002
 31
0.0
  0
LINE
  5
EB
100
AcDbEntity
  8
51060015
  6
CONTINUOUS
 62
         7
100
AcDbLine
 10
42.5938372811
 20
160.7072188002
 30
0.0
 11
53.3438372811
 21
160.7072188002
 31
0.0
  0
ARC
  5
EC
100
AcDbEntity
  8
51060015
  6
CONTINUOUS
 62
         7
100
AcDbCircle
 10
34.0938372811
 20
173.2072188002
 30
0.0
 40
29.0
100
AcDbArc
 50
318.8334457366
 51
332.2562978415
  0
ARC
  5
ED
100
AcDbEntity
  8
51060015
  6
CONTINUOUS
 62
         7
100
AcDbCircle
 10
34.0938372811
 20
173.2072188002
 30
0.0
 40
29.0
100
AcDbArc
 50
138.8334457366
 51
152.2562978415
  0
ARC
  5
EE
100
AcDbEntity
  8
51060015
  6
CONTINUOUS
 62
         7
100
AcDbCircle
 10
5.5938372811
 20
222.5706668159
 30
0.0
 40
31.0
100
AcDbArc
 50
282.4227582965
 51
317.5772417035
  0
ARC
  5
EF
100
AcDbEntity
  8
51060015
  6
CONTINUOUS
 62
         7
100
AcDbCircle
 10
34.0938372811
 20
173.2072188002
 30
0.0
 40
29.0
100
AcDbArc
 50
78.8334457366
 51
101.1665542634
  0
ARC
  5
F0
100
AcDbEntity
  8
51060015
  6
CONTINUOUS
 62
         7
100
AcDbCircle
 10
62.5938372811
 20
222.5706668159
 30
0.0
 40
31.0
100
AcDbArc
 50
222.4227582965
 51
257.5772417035
  0
ARC
  5
F1
100
AcDbEntity
  8
51060015
  6
CONTINUOUS
 62
         7
100
AcDbCircle
 10
34.0938372811
 20
173.2072188002
 30
0.0
 40
29.0
100
AcDbArc
 50
27.7437021585
 51
41.1665542634
  0
ARC
  5
F2
100
AcDbEntity
  8
51060015
  6
CONTINUOUS
 62
         7
100
AcDbCircle
 10
62.5938372811
 20
123.8437707845
 30
0.0
 40
31.0
100
AcDbArc
 50
102.4227582965
 51
137.5772417035
  0
ARC
  5
F3
100
AcDbEntity
  8
51060015
  6
CONTINUOUS
 62
         7
100
AcDbCircle
 10
34.0938372811
 20
173.2072188002
 30
0.0
 40
29.0
100
AcDbArc
 50
258.8334457366
 51
281.1665542634
  0
ARC
  5
F4
100
AcDbEntity
  8
51060015
  6
CONTINUOUS
 62
         7
100
AcDbCircle
 10
5.5938372811
 20
123.8437707845
 30
0.0
 40
31.0
100
AcDbArc
 50
42.4227582965
 51
77.5772417035
  0
ARC
  5
F5
100
AcDbEntity
  8
51060015
  6
CONTINUOUS
 62
         7
100
AcDbCircle
 10
34.0938372811
 20
173.2072188002
 30
0.0
 40
29.0
100
AcDbArc
 50
207.7437021585
 51
221.1665542634
  0
ARC
  5
F6
100
AcDbEntity
  8
51060015
  6
CONTINUOUS
 62
         7
100
AcDbCircle
 10
62.5938372811
 20
123.8437707845
 30
0.0
 40
30.0
100
AcDbArc
 50
101.8051276612
 51
138.1948723388
  0
ARC
  5
F7
100
AcDbEntity
  8
51060015
  6
CONTINUOUS
 62
         7
100
AcDbCircle
 10
91.0938372811
 20
173.2072188002
 30
0.0
 40
30.0
100
AcDbArc
 50
161.8051276612
 51
163.4021578641
  0
ARC
  5
F8
100
AcDbEntity
  8
51060015
  6
CONTINUOUS
 62
         7
100
AcDbCircle
 10
91.0938372811
 20
173.2072188002
 30
0.0
 40
30.0
100
AcDbArc
 50
196.5978421359
 51
198.1948723388
  0
ARC
  5
F9
100
AcDbEntity
  8
51060015
  6
CONTINUOUS
 62
         7
100
AcDbCircle
 10
62.5938372811
 20
222.5706668159
 30
0.0
 40
30.0
100
AcDbArc
 50
221.8051276612
 51
258.1948723388
  0
ARC
  5
FA
100
AcDbEntity
  8
51060015
  6
CONTINUOUS
 62
         7
100
AcDbCircle
 10
5.5938372811
 20
222.5706668159
 30
0.0
 40
30.0
100
AcDbArc
 50
281.8051276612
 51
318.1948723388
  0
ARC
  5
FB
100
AcDbEntity
  8
51060015
  6
CONTINUOUS
 62
         7
100
AcDbCircle
 10
-22.9061627189
 20
173.2072188002
 30
0.0
 40
30.0
100
AcDbArc
 50
341.8051276612
 51
343.4021578641
  0
ARC
  5
FC
100
AcDbEntity
  8
51060015
  6
CONTINUOUS
 62
         7
100
AcDbCircle
 10
-22.9061627189
 20
173.2072188002
 30
0.0
 40
30.0
100
AcDbArc
 50
16.5978421359
 51
18.1948723388
  0
ARC
  5
FD
100
AcDbEntity
  8
51060015
  6
CONTINUOUS
 62
         7
100
AcDbCircle
 10
5.5938372811
 20
123.8437707845
 30
0.0
 40
30.0
100
AcDbArc
 50
41.8051276612
 51
78.1948723388
  0
ARC
  5
FE
100
AcDbEntity
  8
51060015
  6
CONTINUOUS
 62
         7
100
AcDbCircle
 10
26.6006884847
 20
156.2926475341
 30
0.0
 40
3.5
100
AcDbArc
 50
125.404186402
 51
229.3393059679
  0
ARC
  5
FF
100
AcDbEntity
  8
51060015
  6
CONTINUOUS
 62
         7
100
AcDbCircle
 10
34.0938372811
 20
173.2072188002
 30
0.0
 40
30.0
100
AcDbArc
 50
198.1948723388
 51
199.666638215
  0
ARC
  5
100
100
AcDbEntity
  8
51060015
  6
CONTINUOUS
 62
         7
100
AcDbCircle
 10
34.0938372811
 20
173.2072188002
 30
0.0
 40
30.0
100
AcDbArc
 50
206.7436839504
 51
221.8051276612
  0
LINE
  5
101
100
AcDbEntity
  8
51060015
  6
CONTINUOUS
 62
         7
100
AcDbLine
 10
14.4798653684
 20
186.7072188002
 30
0.0
 11
13.7197307657
 21
186.7072188002
 31
0.0
  0
LINE
  5
102
100
AcDbEntity
  8
51060015
  6
CONTINUOUS
 62
         7
100
AcDbLine
 10
53.7078091937
 20
159.7072188002
 30
0.0
 11
54.4679437965
 21
159.7072188002
 31
0.0
  0
ARC
  5
103
100
AcDbEntity
  8
51060015
  6
CONTINUOUS
 62
         7
100
AcDbCircle
 10
-16.146146887
 20
179.9572188002
 30
0.0
 40
30.619163084
100
AcDbArc
 50
347.2645244266
 51
12.7354755734
  0
LINE
  5
104
100
AcDbEntity
  8
51060015
  6
CONTINUOUS
 62
         7
100
AcDbLine
 10
6.7859586793
 20
186.7072188002
 30
0.0
 11
6.0258240423
 21
186.7072188002
 31
0.0
  0
LINE
  5
105
100
AcDbEntity
  8
51060015
  6
CONTINUOUS
 62
         7
100
AcDbLine
 10
14.4798653684
 20
159.7072188002
 30
0.0
 11
13.7197307657
 21
159.7072188002
 31
0.0
  0
ARC
  5
106
100
AcDbEntity
  8
51060015
  6
CONTINUOUS
 62
         7
100
AcDbCircle
 10
84.3338214491
 20
166.4572188002
 30
0.0
 40
30.619163084
100
AcDbArc
 50
167.2645244266
 51
192.7354755734
  0
LINE
  5
107
100
AcDbEntity
  8
51060015
  6
CONTINUOUS
 62
         7
100
AcDbLine
 10
13.7197307657
 20
186.7072188002
 30
0.0
 11
6.7859586793
 21
186.7072188002
 31
0.0
  0
ARC
  5
108
100
AcDbEntity
  8
51060015
  6
CONTINUOUS
 62
         7
100
AcDbCircle
 10
34.0938372811
 20
173.2072188002
 30
0.0
 40
16.5
100
AcDbArc
 50
49.2509456225
 51
130.7490543775
  0
ARC
  5
109
100
AcDbEntity
  8
51060015
  6
CONTINUOUS
 62
         7
100
AcDbCircle
 10
34.0938372811
 20
173.2072188002
 30
0.0
 40
16.5
100
AcDbArc
 50
229.2509456225
 51
310.7490543775
  0
ARC
  5
10A
100
AcDbEntity
  8
51060015
  6
CONTINUOUS
 62
         7
100
AcDbCircle
 10
34.0938372811
 20
173.2072188002
 30
0.0
 40
17.0
100
AcDbArc
 50
47.3320745059
 51
132.6679254941
  0
ARC
  5
10B
100
AcDbEntity
  8
51060015
  6
CONTINUOUS
 62
         7
100
AcDbCircle
 10
34.0938372811
 20
173.2072188002
 30
0.0
 40
17.0
100
AcDbArc
 50
227.3320745059
 51
312.6679254941
  0
LINE
  5
10C
100
AcDbEntity
  8
51060015
  6
CONTINUOUS
 62
         7
100
AcDbLine
 10
42.5938372811
 20
187.2072188002
 30
0.0
 11
25.5938372811
 21
187.2072188002
 31
0.0
  0
LINE
  5
10D
100
AcDbEntity
  8
51060015
  6
CONTINUOUS
 62
         7
100
AcDbLine
 10
5.8438372811
 20
160.2072188002
 30
0.0
 11
5.8438372811
 21
186.2072188002
 31
0.0
  0
LINE
  5
10E
100
AcDbEntity
  8
51060015
  6
CONTINUOUS
 62
         7
100
AcDbLine
 10
14.8438372811
 20
160.7072188002
 30
0.0
 11
14.8438372811
 21
185.7072188002
 31
0.0
  0
LINE
  5
10F
100
AcDbEntity
  8
51060015
  6
CONTINUOUS
 62
         7
100
AcDbLine
 10
53.3438372811
 20
160.7072188002
 30
0.0
 11
53.3438372811
 21
185.7072188002
 31
0.0
  0
LINE
  5
110
100
AcDbEntity
  8
51060015
  6
CONTINUOUS
 62
         7
100
AcDbLine
 10
53.3438372811
 20
160.7072188002
 30
0.0
 11
53.7078075153
 21
159.7072188002
 31
0.0
  0
LINE
  5
111
100
AcDbEntity
  8
51060015
  6
CONTINUOUS
 62
         7
100
AcDbLine
 10
62.3438372811
 20
160.2072188002
 30
0.0
 11
62.3438372811
 21
186.2072188002
 31
0.0
  0
ARC
  5
112
100
AcDbEntity
  8
51060015
  6
CONTINUOUS
 62
         7
100
AcDbCircle
 10
36.651836332
 20
166.4572188002
 30
0.0
 40
30.619163084
100
AcDbArc
 50
167.2645244266
 51
192.7354755734
  0
LINE
  5
113
100
AcDbEntity
  8
51060015
  6
CONTINUOUS
 62
         7
100
AcDbLine
 10
6.7859586793
 20
159.7072188002
 30
0.0
 11
6.0258240423
 21
159.7072188002
 31
0.0
  0
LINE
  5
114
100
AcDbEntity
  8
51060015
  6
CONTINUOUS
 62
         7
100
AcDbLine
 10
14.8438372811
 20
185.7072188002
 30
0.0
 11
14.4798670468
 21
186.7072188002
 31
0.0
  0
LINE
  5
115
100
AcDbEntity
  8
51060015
  6
CONTINUOUS
 62
         7
100
AcDbLine
 10
13.7197307657
 20
159.7072188002
 30
0.0
 11
6.7859586793
 21
159.7072188002
 31
0.0
  0
ARC
  5
116
100
AcDbEntity
  8
51060015
  6
CONTINUOUS
 62
         7
100
AcDbCircle
 10
84.3338214491
 20
179.9572188002
 30
0.0
 40
30.619163084
100
AcDbArc
 50
167.2645244266
 51
192.7354755734
  0
LINE
  5
117
100
AcDbEntity
  8
51060015
  6
CONTINUOUS
 62
         7
100
AcDbLine
 10
13.7197307657
 20
173.2072188002
 30
0.0
 11
6.7859586793
 21
173.2072188002
 31
0.0
  0
LINE
  5
118
100
AcDbEntity
  8
51060015
  6
CONTINUOUS
 62
         7
100
AcDbLine
 10
54.4679437965
 20
186.7072188002
 30
0.0
 11
53.7078091937
 21
186.7072188002
 31
0.0
  0
ARC
  5
119
100
AcDbEntity
  8
51060015
  6
CONTINUOUS
 62
         7
100
AcDbCircle
 10
-16.146146887
 20
166.4572188002
 30
0.0
 40
30.619163084
100
AcDbArc
 50
347.2645244266
 51
12.7354755734
  0
LINE
  5
11A
100
AcDbEntity
  8
51060015
  6
CONTINUOUS
 62
         7
100
AcDbLine
 10
61.4017158828
 20
159.7072188002
 30
0.0
 11
54.4679437965
 21
159.7072188002
 31
0.0
  0
LINE
  5
11B
100
AcDbEntity
  8
51060015
  6
CONTINUOUS
 62
         7
100
AcDbLine
 10
61.4017158828
 20
186.7072188002
 30
0.0
 11
54.4679437965
 21
186.7072188002
 31
0.0
  0
LINE
  5
11C
100
AcDbEntity
  8
51060015
  6
CONTINUOUS
 62
         7
100
AcDbLine
 10
62.1618505198
 20
159.7072188002
 30
0.0
 11
61.4017158828
 21
159.7072188002
 31
0.0
  0
LINE
  5
11D
100
AcDbEntity
  8
51060015
  6
CONTINUOUS
 62
         7
100
AcDbLine
 10
61.4017158828
 20
186.7072188002
 30
0.0
 11
62.1618505198
 21
186.7072188002
 31
0.0
  0
ARC
  5
11E
100
AcDbEntity
  8
51060015
  6
CONTINUOUS
 62
         7
100
AcDbCircle
 10
31.5358382301
 20
166.4572188002
 30
0.0
 40
30.619163084
100
AcDbArc
 50
347.2645244266
 51
12.7354755734
  0
ARC
  5
11F
100
AcDbEntity
  8
51060015
  6
CONTINUOUS
 62
         7
100
AcDbCircle
 10
36.651836332
 20
179.9572188002
 30
0.0
 40
30.619163084
100
AcDbArc
 50
167.2645244266
 51
192.7354755734
  0
LINE
  5
120
100
AcDbEntity
  8
51060015
  6
CONTINUOUS
 62
         7
100
AcDbLine
 10
33.2408113445
 20
187.6072188002
 30
0.0
 11
35.2235202782
 21
187.6072188002
 31
0.0
  0
LINE
  5
121
100
AcDbEntity
  8
51060015
  6
CONTINUOUS
 62
         7
100
AcDbLine
 10
35.2235202782
 20
187.6072188002
 30
0.0
 11
35.5368553581
 21
187.6072188002
 31
0.0
  0
LINE
  5
122
100
AcDbEntity
  8
51060015
  6
CONTINUOUS
 62
         7
100
AcDbLine
 10
35.5368553581
 20
187.6072188002
 30
0.0
 11
35.9424094582
 21
187.6072188002
 31
0.0
  0
LINE
  5
123
100
AcDbEntity
  8
51060015
  6
CONTINUOUS
 62
         7
100
AcDbLine
 10
35.9424094582
 20
187.6072188002
 30
0.0
 11
37.2051812685
 21
187.6072188002
 31
0.0
  0
LINE
  5
124
100
AcDbEntity
  8
51060015
  6
CONTINUOUS
 62
         7
100
AcDbLine
 10
35.5368553581
 20
187.6072188002
 30
0.0
 11
35.5368553581
 21
187.2072188002
 31
0.0
  0
LINE
  5
125
100
AcDbEntity
  8
51060015
  6
CONTINUOUS
 62
         7
100
AcDbLine
 10
35.2235202782
 20
187.6072188002
 30
0.0
 11
35.2235202782
 21
187.2072188002
 31
0.0
  0
LINE
  5
126
100
AcDbEntity
  8
51060015
  6
CONTINUOUS
 62
         7
100
AcDbLine
 10
37.2051812685
 20
187.6072188002
 30
0.0
 11
37.2051812685
 21
187.2072188002
 31
0.0
  0
LINE
  5
127
100
AcDbEntity
  8
51060015
  6
CONTINUOUS
 62
         7
100
AcDbLine
 10
35.9424094582
 20
187.6072188002
 30
0.0
 11
35.9424094582
 21
187.2072188002
 31
0.0
  0
LINE
  5
128
100
AcDbEntity
  8
51060015
  6
CONTINUOUS
 62
         7
100
AcDbLine
 10
33.2408113445
 20
187.6072188002
 30
0.0
 11
33.2408113445
 21
187.2072188002
 31
0.0
  0
LINE
  5
129
100
AcDbEntity
  8
51060015
  6
CONTINUOUS
 62
         7
100
AcDbLine
 10
31.926690307
 20
187.6072188002
 30
0.0
 11
31.0485137285
 21
187.6072188002
 31
0.0
  0
LINE
  5
12A
100
AcDbEntity
  8
51060015
  6
CONTINUOUS
 62
         7
100
AcDbLine
 10
33.2408113445
 20
187.6072188002
 30
0.0
 11
33.1182019654
 21
187.6072188002
 31
0.0
  0
LINE
  5
12B
100
AcDbEntity
  8
51060015
  6
CONTINUOUS
 62
         7
100
AcDbLine
 10
33.1182019654
 20
187.6072188002
 30
0.0
 11
31.926690307
 21
187.6072188002
 31
0.0
  0
LINE
  5
12C
100
AcDbEntity
  8
51060015
  6
CONTINUOUS
 62
         7
100
AcDbLine
 10
31.0485137285
 20
187.6072188002
 30
0.0
 11
31.0485137285
 21
187.2072188002
 31
0.0
  0
LINE
  5
12D
100
AcDbEntity
  8
51060015
  6
CONTINUOUS
 62
         7
100
AcDbLine
 10
33.1182019654
 20
187.6072188002
 30
0.0
 11
33.1182019654
 21
187.2072188002
 31
0.0
  0
LINE
  5
12E
100
AcDbEntity
  8
51060015
  6
CONTINUOUS
 62
         7
100
AcDbLine
 10
31.926690307
 20
187.6072188002
 30
0.0
 11
31.926690307
 21
187.2072188002
 31
0.0
  0
LINE
  5
12F
100
AcDbEntity
  8
51060015
  6
CONTINUOUS
 62
         7
100
AcDbLine
 10
42.5938372811
 20
159.2072188002
 30
0.0
 11
42.5938372811
 21
187.2072188002
 31
0.0
  0
LINE
  5
130
100
AcDbEntity
  8
51060015
  6
CONTINUOUS
 62
         7
100
AcDbLine
 10
25.5938372811
 20
159.2072188002
 30
0.0
 11
25.5938372811
 21
187.2072188002
 31
0.0
  0
LINE
  5
131
100
AcDbEntity
  8
51060015
  6
CONTINUOUS
 62
         7
100
AcDbLine
 10
42.5938372811
 20
159.2072188002
 30
0.0
 11
25.5938372811
 21
159.2072188002
 31
0.0
  0
ENDBLK
  5
132
100
AcDbEntity
  8
51060015
  6
CONTINUOUS
 62
         7
100
AcDbBlockEnd
  0
BLOCK
  5
19F
100
AcDbEntity
  8
0
 62
         1
 48
0.0
100
AcDbBlockBegin
  2
SE4
 70
         0
 10
0.0
 20
0.0
 30
0.0
  3
SE4
  1

  0
ENDBLK
  5
1A0
100
AcDbEntity
  8
0
 62
         1
 48
0.0
100
AcDbBlockEnd
  0
BLOCK
  5
135
100
AcDbEntity
  8
0
 62
         1
 48
0.0
100
AcDbBlockBegin
  2
SE5
 70
         0
 10
0.0
 20
0.0
 30
0.0
  3
SE5
  1

  0
LINE
  5
136
100
AcDbEntity
  8
51060015
  6
CONTINUOUS
 62
         7
100
AcDbLine
 10
126.5347156953
 20
40.1444323888
 30
0.0
 11
132.0347156953
 21
40.1444323888
 31
0.0
  0
LINE
  5
137
100
AcDbEntity
  8
51060015
  6
CONTINUOUS
 62
         7
100
AcDbLine
 10
136.5347156953
 20
87.3878080618
 30
0.0
 11
144.5347156953
 21
87.3878080618
 31
0.0
  0
ARC
  5
138
100
AcDbEntity
  8
51060015
  6
CONTINUOUS
 62
         7
100
AcDbCircle
 10
164.2293552116
 20
98.7536654165
 30
0.0
 40
4.8192676812
100
AcDbArc
 50
355.646170582
 51
46.6964324297
  0
ARC
  5
139
100
AcDbEntity
  8
51060015
  6
PHANTOM2
 62
         7
100
AcDbCircle
 10
116.8400761791
 20
98.7536654165
 30
0.0
 40
4.8192676812
100
AcDbArc
 50
133.3035675704
 51
144.0184141363
  0
ARC
  5
13A
100
AcDbEntity
  8
51060015
  6
CONTINUOUS
 62
         7
100
AcDbCircle
 10
116.8400761791
 20
98.7536654165
 30
0.0
 40
4.8192676812
100
AcDbArc
 50
144.0185544593
 51
184.3538294179
  0
SPLINE
  5
13B
100
AcDbEntity
  8
51060015
  6
CONTINUOUS
 62
         7
100
AcDbSpline
210
0.0
220
0.0
230
1.0
 70
         8
 71
         3
 72
        26
 73
        22
 74
         0
 42
0.0
 43
0.0
 40
0.0
 40
0.0
 40
0.0
 40
0.0
 40
0.0624999999999998
 40
0.0624999999999998
 40
0.1249999999999997
 40
0.1249999999999997
 40
0.2499999999999996
 40
0.2499999999999996
 40
0.3749999999999996
 40
0.3749999999999996
 40
0.4999999999999996
 40
0.4999999999999996
 40
0.6249999999999992
 40
0.6249999999999992
 40
0.7499999999999991
 40
0.7499999999999991
 40
0.874999999999999
 40
0.874999999999999
 40
0.9374999999999994
 40
0.9374999999999994
 40
1.0
 40
1.0
 40
1.0
 40
1.0
 10
134.39720606514359
 20
98.387808061799831
 30
0.0
 10
134.39720606514325
 20
98.865980588357289
 30
0.0
 10
134.29865623435674
 20
99.328931944062404
 30
0.0
 10
133.96263408366909
 20
100.12963063688285
 30
0.0
 10
133.72741477640071
 20
100.46797707500164
 30
0.0
 10
132.92408848484942
 20
101.29280105826649
 30
0.0
 10
132.26330357965603
 20
101.60684729018477
 30
0.0
 10
130.87237762453049
 20
102.02047345612652
 30
0.0
 10
130.14397220745266
 20
102.11911616777934
 30
0.0
 10
128.63021818054577
 20
102.24029995323617
 30
0.0
 10
127.84214088339682
 20
102.26083697198183
 30
0.0
 10
126.22263813156736
 20
102.26074571294895
 30
0.0
 10
125.39547278748675
 20
102.24029207940058
 30
0.0
 10
123.70969701398845
 20
102.11918147325012
 30
0.0
 10
122.84853317260077
 20
102.02023425963435
 30
0.0
 10
121.11436939692915
 20
101.60430838871844
 30
0.0
 10
120.24577221612412
 20
101.29082053962608
 30
0.0
 10
119.13678992880973
 20
100.46699310057782
 30
0.0
 10
118.80295763804006
 20
100.13041731030998
 30
0.0
 10
118.31641087250134
 20
99.326317655743964
 30
0.0
 10
118.17222532555313
 20
98.864009817411684
 30
0.0
 10
118.17222532555502
 20
98.387808061799831
 30
0.0
  0
LINE
  5
13C
100
AcDbEntity
  8
51060015
  6
CONTINUOUS
 62
         7
100
AcDbLine
 10
118.1722253256
 20
94.3878080618
 30
0.0
 11
112.0347156953
 21
94.3878080618
 31
0.0
  0
LINE
  5
13D
100
AcDbEntity
  8
51060015
  6
CONTINUOUS
 62
         7
100
AcDbLine
 10
146.6722253256
 20
94.3878080618
 30
0.0
 11
134.3972060651
 21
94.3878080618
 31
0.0
  0
LINE
  5
13E
100
AcDbEntity
  8
51060015
  6
CONTINUOUS
 62
         7
100
AcDbLine
 10
113.2268370936
 20
9.4993507937
 30
0.0
 11
120.16060918
 21
9.4993507937
 31
0.0
  0
ARC
  5
13F
100
AcDbEntity
  8
51060015
  6
CONTINUOUS
 62
         7
100
AcDbCircle
 10
114.5347156953
 20
98.3878080618
 30
0.0
 40
4.0
100
AcDbArc
 50
90.0
 51
104.5916188581
  0
LINE
  5
140
100
AcDbEntity
  8
51060015
  6
CONTINUOUS
 62
         7
100
AcDbLine
 10
144.3847156953
 20
81.8878080618
 30
0.0
 11
144.3847156953
 21
87.3878080618
 31
0.0
  0
LINE
  5
141
100
AcDbEntity
  8
51060015
  6
CONTINUOUS
 62
         7
100
AcDbLine
 10
149.3347156953
 20
65.7878080618
 30
0.0
 11
149.3347156953
 21
70.0878080618
 31
0.0
  0
LINE
  5
142
100
AcDbEntity
  8
51060015
  6
CONTINUOUS
 62
         7
100
AcDbLine
 10
154.5347156953
 20
37.5810235152
 30
0.0
 11
154.5347156953
 21
40.1444323888
 31
0.0
  0
LINE
  5
143
100
AcDbEntity
  8
51060015
  6
CONTINUOUS
 62
         7
100
AcDbLine
 10
157.5347156953
 20
53.5878080618
 30
0.0
 11
157.5347156953
 21
56.5878080618
 31
0.0
  0
LINE
  5
144
100
AcDbEntity
  8
51060015
  6
CONTINUOUS
 62
         7
100
AcDbLine
 10
167.8425942971
 20
9.4993507937
 30
0.0
 11
168.7847156953
 21
12.0878080618
 31
0.0
  0
LINE
  5
145
100
AcDbEntity
  8
51060015
  6
CONTINUOUS
 62
         7
100
AcDbLine
 10
132.0347156953
 20
11.0878080618
 30
0.0
 11
149.0347156953
 21
11.0878080618
 31
0.0
  0
LINE
  5
146
100
AcDbEntity
  8
51060015
  6
CONTINUOUS
 62
         7
100
AcDbLine
 10
113.2268370936
 20
40.6762653299
 30
0.0
 11
112.2847156953
 21
38.0878080618
 31
0.0
  0
LINE
  5
147
100
AcDbEntity
  8
51060015
  6
CONTINUOUS
 62
         7
100
AcDbLine
 10
126.5347156953
 20
40.1444323888
 30
0.0
 11
126.5347156953
 21
37.5806301068
 31
0.0
  0
LINE
  5
148
100
AcDbEntity
  8
51060015
  6
CONTINUOUS
 62
         7
100
AcDbLine
 10
124.0347156953
 20
41.5878080618
 30
0.0
 11
126.5347156953
 21
40.1444323888
 31
0.0
  0
LINE
  5
149
100
AcDbEntity
  8
51060015
  6
CONTINUOUS
 62
         7
100
AcDbLine
 10
157.5347156953
 20
49.3764831964
 30
0.0
 11
157.5347156953
 21
53.0878080618
 31
0.0
  0
LINE
  5
14A
100
AcDbEntity
  8
51060015
  6
CONTINUOUS
 62
         7
100
AcDbLine
 10
157.0347156953
 20
41.5878080618
 30
0.0
 11
157.0347156953
 21
49.0878080618
 31
0.0
  0
LINE
  5
14B
100
AcDbEntity
  8
51060015
  6
CONTINUOUS
 62
         7
100
AcDbLine
 10
157.5347156953
 20
53.0878080618
 30
0.0
 11
157.0347156953
 21
53.5878080618
 31
0.0
  0
LINE
  5
14C
100
AcDbEntity
  8
51060015
  6
CONTINUOUS
 62
         7
100
AcDbLine
 10
123.5347156953
 20
49.3764831964
 30
0.0
 11
124.0347156953
 21
49.0878080618
 31
0.0
  0
LINE
  5
14D
100
AcDbEntity
  8
51060015
  6
CONTINUOUS
 62
         7
100
AcDbLine
 10
149.0347156953
 20
12.5878080618
 30
0.0
 11
159.7847156953
 21
12.5878080618
 31
0.0
  0
LINE
  5
14E
100
AcDbEntity
  8
51060015
  6
CONTINUOUS
 62
         7
100
AcDbLine
 10
121.2847156953
 20
12.5878080618
 30
0.0
 11
132.0347156953
 21
12.5878080618
 31
0.0
  0
ARC
  5
14F
100
AcDbEntity
  8
51060015
  6
CONTINUOUS
 62
         7
100
AcDbCircle
 10
166.5347156953
 20
98.3878080618
 30
0.0
 40
4.0
100
AcDbArc
 50
75.399318372
 51
90.0
  0
LINE
  5
150
100
AcDbEntity
  8
51060015
  6
CONTINUOUS
 62
         7
100
AcDbLine
 10
166.5347156953
 20
102.3878080618
 30
0.0
 11
114.5347156953
 21
102.3878080618
 31
0.0
  0
LINE
  5
151
100
AcDbEntity
  8
51060015
  6
CONTINUOUS
 62
         7
100
AcDbLine
 10
120.16060918
 20
9.4993507937
 30
0.0
 11
121.2847156953
 21
12.5878080618
 31
0.0
  0
LINE
  5
152
100
AcDbEntity
  8
51060015
  6
CONTINUOUS
 62
         7
100
AcDbLine
 10
160.9088222107
 20
40.6762653299
 30
0.0
 11
159.7847156953
 21
37.5878080618
 31
0.0
  0
LINE
  5
153
100
AcDbEntity
  8
51060015
  6
CONTINUOUS
 62
         7
100
AcDbLine
 10
136.6847156953
 20
87.3878080618
 30
0.0
 11
136.6847156953
 21
81.8878080618
 31
0.0
  0
LINE
  5
154
100
AcDbEntity
  8
51060015
  6
CONTINUOUS
 62
         7
100
AcDbLine
 10
131.7347156953
 20
70.0878080618
 30
0.0
 11
131.7347156953
 21
65.7878080618
 31
0.0
  0
LINE
  5
155
100
AcDbEntity
  8
51060015
  6
CONTINUOUS
 62
         7
100
AcDbLine
 10
123.5347156953
 20
56.5878080618
 30
0.0
 11
123.5347156953
 21
53.5878080618
 31
0.0
  0
LINE
  5
156
100
AcDbEntity
  8
51060015
  6
CONTINUOUS
 62
         7
100
AcDbLine
 10
168.7847156953
 20
38.0878080618
 30
0.0
 11
167.8425942971
 21
40.6762653299
 31
0.0
  0
LINE
  5
157
100
AcDbEntity
  8
51060015
  6
CONTINUOUS
 62
         7
100
AcDbLine
 10
112.2847156953
 20
12.0878080618
 30
0.0
 11
113.2268370936
 21
9.4993507937
 31
0.0
  0
LINE
  5
158
100
AcDbEntity
  8
51060015
  6
CONTINUOUS
 62
         7
100
AcDbLine
 10
154.5347156953
 20
40.1444323888
 30
0.0
 11
157.0347156953
 21
41.5878080618
 31
0.0
  0
LINE
  5
159
100
AcDbEntity
  8
51060015
  6
CONTINUOUS
 62
         7
100
AcDbLine
 10
123.5347156953
 20
53.0878080618
 30
0.0
 11
123.5347156953
 21
49.3764831964
 31
0.0
  0
LINE
  5
15A
100
AcDbEntity
  8
51060015
  6
CONTINUOUS
 62
         7
100
AcDbLine
 10
124.0347156953
 20
49.0878080618
 30
0.0
 11
124.0347156953
 21
41.5878080618
 31
0.0
  0
LINE
  5
15B
100
AcDbEntity
  8
51060015
  6
CONTINUOUS
 62
         7
100
AcDbLine
 10
124.0347156953
 20
53.5878080618
 30
0.0
 11
123.5347156953
 21
53.0878080618
 31
0.0
  0
LINE
  5
15C
100
AcDbEntity
  8
51060015
  6
CONTINUOUS
 62
         7
100
AcDbLine
 10
157.0347156953
 20
49.0878080618
 30
0.0
 11
157.5347156953
 21
49.3764831964
 31
0.0
  0
LINE
  5
15D
100
AcDbEntity
  8
51060015
  6
CONTINUOUS
 62
         7
100
AcDbLine
 10
159.7847156953
 20
37.5878080618
 30
0.0
 11
154.5285894463
 21
37.5878080618
 31
0.0
  0
LINE
  5
15E
100
AcDbEntity
  8
51060015
  6
CONTINUOUS
 62
         7
100
AcDbLine
 10
126.5412051596
 20
37.5878080618
 30
0.0
 11
121.2847156953
 21
37.5878080618
 31
0.0
  0
LINE
  5
15F
100
AcDbEntity
  8
51060015
  6
CONTINUOUS
 62
         7
100
AcDbLine
 10
136.5347156953
 20
94.3878080618
 30
0.0
 11
136.5347156953
 21
87.3878080618
 31
0.0
  0
LINE
  5
160
100
AcDbEntity
  8
51060015
  6
CONTINUOUS
 62
         7
100
AcDbLine
 10
144.5347156953
 20
94.3878080618
 30
0.0
 11
144.5347156953
 21
87.3878080618
 31
0.0
  0
LINE
  5
161
100
AcDbEntity
  8
51060015
  6
CONTINUOUS
 62
         7
100
AcDbLine
 10
169.0347156953
 20
98.3878080618
 30
0.0
 11
169.0347156953
 21
94.3878080618
 31
0.0
  0
LINE
  5
162
100
AcDbEntity
  8
51060015
  6
CONTINUOUS
 62
         7
100
AcDbLine
 10
162.8972060651
 20
98.3878080618
 30
0.0
 11
162.8972060651
 21
94.3878080618
 31
0.0
  0
LINE
  5
163
100
AcDbEntity
  8
51060015
  6
CONTINUOUS
 62
         7
100
AcDbLine
 10
146.6722253256
 20
98.3878080618
 30
0.0
 11
146.6722253256
 21
94.3878080618
 31
0.0
  0
LINE
  5
164
100
AcDbEntity
  8
51060015
  6
CONTINUOUS
 62
         7
100
AcDbLine
 10
112.0347156953
 20
98.3878080618
 30
0.0
 11
112.0347156953
 21
94.3878080618
 31
0.0
  0
LINE
  5
165
100
AcDbEntity
  8
51060015
  6
CONTINUOUS
 62
         7
100
AcDbLine
 10
134.3972060651
 20
98.3878080618
 30
0.0
 11
134.3972060651
 21
94.3878080618
 31
0.0
  0
LINE
  5
166
100
AcDbEntity
  8
51060015
  6
CONTINUOUS
 62
         7
100
AcDbLine
 10
118.1722253256
 20
98.3878080618
 30
0.0
 11
118.1722253256
 21
94.3878080618
 31
0.0
  0
LINE
  5
167
100
AcDbEntity
  8
51060015
  6
CONTINUOUS
 62
         7
100
AcDbLine
 10
146.6722253256
 20
94.3878080618
 30
0.0
 11
162.8972060651
 21
94.3878080618
 31
0.0
  0
LINE
  5
168
100
AcDbEntity
  8
51060015
  6
CONTINUOUS
 62
         7
100
AcDbLine
 10
118.1722253256
 20
94.3878080618
 30
0.0
 11
134.3972060651
 21
94.3878080618
 31
0.0
  0
LINE
  5
169
100
AcDbEntity
  8
51060015
  6
CONTINUOUS
 62
         7
100
AcDbLine
 10
169.0347156953
 20
94.3878080618
 30
0.0
 11
162.8972060651
 21
94.3878080618
 31
0.0
  0
SPLINE
  5
16A
100
AcDbEntity
  8
51060015
  6
CONTINUOUS
 62
         7
100
AcDbSpline
210
0.0
220
0.0
230
1.0
 70
         8
 71
         3
 72
        26
 73
        22
 74
         0
 42
0.0
 43
0.0
 40
0.0
 40
0.0
 40
0.0
 40
0.0
 40
0.0625
 40
0.0625
 40
0.1250000000000001
 40
0.1250000000000001
 40
0.2500000000000003
 40
0.2500000000000003
 40
0.3750000000000005
 40
0.3750000000000005
 40
0.5000000000000007
 40
0.5000000000000007
 40
0.6250000000000009
 40
0.6250000000000009
 40
0.7500000000000011
 40
0.7500000000000011
 40
0.8750000000000012
 40
0.8750000000000012
 40
0.9375000000000007
 40
0.9375000000000007
 40
1.0
 40
1.0
 40
1.0
 40
1.0
 10
162.89720606514373
 20
98.387808061799831
 30
0.0
 10
162.89720606514328
 20
98.865980588357289
 30
0.0
 10
162.75163539147451
 20
99.32893194406239
 30
0.0
 10
162.26675257174946
 20
100.12963063688285
 30
0.0
 10
161.93169582426489
 20
100.46797707500163
 30
0.0
 10
160.82023255587589
 20
101.29280105826648
 30
0.0
 10
159.94659099034547
 20
101.60684729018479
 30
0.0
 10
158.21777196444236
 20
102.02047345612655
 30
0.0
 10
157.36045634812075
 20
102.11911616777935
 30
0.0
 10
155.67403595176637
 20
102.24029995323616
 30
0.0
 10
154.84205729306996
 20
102.26083697198185
 30
0.0
 10
153.22272196237739
 20
102.26074571294893
 30
0.0
 10
152.43929559862923
 20
102.24029207940059
 30
0.0
 10
150.92609428145241
 20
102.11918147325012
 30
0.0
 10
150.19436624396215
 20
102.02023425963434
 30
0.0
 10
148.79948588523189
 20
101.60430838871841
 30
0.0
 10
148.14282466973273
 20
101.29082053962605
 30
0.0
 10
147.34135401453406
 20
100.46699310057785
 30
0.0
 10
147.10698635490741
 20
100.13041731030997
 30
0.0
 10
146.76981945052353
 20
99.326317655743964
 30
0.0
 10
146.67222532555382
 20
98.864009817411699
 30
0.0
 10
146.67222532555505
 20
98.387808061799831
 30
0.0
  0
ARC
  5
16B
100
AcDbEntity
  8
51060015
  6
CONTINUOUS
 62
         7
100
AcDbCircle
 10
203.4732867672
 20
-7.624080783
 30
0.0
 40
66.6265608435
100
AcDbArc
 50
137.2667178646
 51
144.7925664441
  0
ARC
  5
16C
100
AcDbEntity
  8
51060015
  6
CONTINUOUS
 62
         7
100
AcDbCircle
 10
80.2264379335
 20
25.0878080618
 30
0.0
 40
40.6876889629
100
AcDbArc
 50
348.956025762
 51
11.043974238
  0
ARC
  5
16D
100
AcDbEntity
  8
51060015
  6
CONTINUOUS
 62
         7
100
AcDbCircle
 10
200.8429934572
 20
25.0878080618
 30
0.0
 40
40.6876889629
100
AcDbArc
 50
168.956025762
 51
191.043974238
  0
ARC
  5
16E
100
AcDbEntity
  8
51060015
  6
CONTINUOUS
 62
         7
100
AcDbCircle
 10
170.6383566121
 20
36.7791510129
 30
0.0
 40
10.4809989823
100
AcDbArc
 50
158.1716867869
 51
201.8283132131
  0
LINE
  5
16F
100
AcDbEntity
  8
51060015
  6
CONTINUOUS
 62
         7
100
AcDbLine
 10
113.2268370936
 20
40.6762653299
 30
0.0
 11
120.16060918
 21
40.6762653299
 31
0.0
  0
ARC
  5
170
100
AcDbEntity
  8
51060015
  6
CONTINUOUS
 62
         7
100
AcDbCircle
 10
110.4310747786
 20
13.3964651107
 30
0.0
 40
10.4809989823
100
AcDbArc
 50
338.1716867869
 51
21.8283132131
  0
ARC
  5
171
100
AcDbEntity
  8
51060015
  6
CONTINUOUS
 62
         7
100
AcDbCircle
 10
77.5868378515
 20
-7.6316075223
 30
0.0
 40
66.638504587
100
AcDbArc
 50
35.2081077791
 51
42.7326133239
  0
LINE
  5
172
100
AcDbEntity
  8
51060015
  6
CONTINUOUS
 62
         7
100
AcDbLine
 10
129.5347156953
 20
56.5878080618
 30
0.0
 11
129.5347156953
 21
65.7878080618
 31
0.0
  0
LINE
  5
173
100
AcDbEntity
  8
51060015
  6
CONTINUOUS
 62
         7
100
AcDbLine
 10
151.5347156953
 20
56.5878080618
 30
0.0
 11
151.5347156953
 21
65.7878080618
 31
0.0
  0
LINE
  5
174
100
AcDbEntity
  8
51060015
  6
CONTINUOUS
 62
         7
100
AcDbLine
 10
140.5347156953
 20
56.5878080618
 30
0.0
 11
140.5347156953
 21
65.7878080618
 31
0.0
  0
LINE
  5
175
100
AcDbEntity
  8
51060015
  6
CONTINUOUS
 62
         7
100
AcDbLine
 10
154.5347156953
 20
40.1444323888
 30
0.0
 11
149.0347156953
 21
40.1444323888
 31
0.0
  0
LINE
  5
176
100
AcDbEntity
  8
51060015
  6
CONTINUOUS
 62
         7
100
AcDbLine
 10
157.0347156953
 20
41.5878080618
 30
0.0
 11
124.0347156953
 21
41.5878080618
 31
0.0
  0
LINE
  5
177
100
AcDbEntity
  8
51060015
  6
CONTINUOUS
 62
         7
100
AcDbLine
 10
157.5347156953
 20
53.5878080618
 30
0.0
 11
123.5347156953
 21
53.5878080618
 31
0.0
  0
LINE
  5
178
100
AcDbEntity
  8
51060015
  6
CONTINUOUS
 62
         7
100
AcDbLine
 10
157.5347156953
 20
56.5878080618
 30
0.0
 11
123.5347156953
 21
56.5878080618
 31
0.0
  0
LINE
  5
179
100
AcDbEntity
  8
51060015
  6
CONTINUOUS
 62
         7
100
AcDbLine
 10
157.5347156953
 20
53.0878080618
 30
0.0
 11
123.5347156953
 21
53.0878080618
 31
0.0
  0
LINE
  5
17A
100
AcDbEntity
  8
51060015
  6
CONTINUOUS
 62
         7
100
AcDbLine
 10
157.0347156953
 20
49.0878080618
 30
0.0
 11
124.0347156953
 21
49.0878080618
 31
0.0
  0
LINE
  5
17B
100
AcDbEntity
  8
51060015
  6
CONTINUOUS
 62
         7
100
AcDbLine
 10
157.5347156953
 20
49.3764831964
 30
0.0
 11
123.5347156953
 21
49.3764831964
 31
0.0
  0
LINE
  5
17C
100
AcDbEntity
  8
51060015
  6
CONTINUOUS
 62
         7
100
AcDbLine
 10
168.7847156953
 20
38.0878080618
 30
0.0
 11
168.7847156953
 21
12.0878080618
 31
0.0
  0
ARC
  5
17D
100
AcDbEntity
  8
51060015
  6
CONTINUOUS
 62
         7
100
AcDbCircle
 10
127.9084246896
 20
25.0878080618
 30
0.0
 40
40.6876873542
100
AcDbArc
 50
348.9560253199
 51
11.0439746801
  0
LINE
  5
17E
100
AcDbEntity
  8
51060015
  6
CONTINUOUS
 62
         7
100
AcDbLine
 10
112.2847156953
 20
38.0878080618
 30
0.0
 11
112.2847156953
 21
12.0878080618
 31
0.0
  0
LINE
  5
17F
100
AcDbEntity
  8
51060015
  6
CONTINUOUS
 62
         7
100
AcDbLine
 10
121.2847156953
 20
37.5878080618
 30
0.0
 11
121.2847156953
 21
12.5878080618
 31
0.0
  0
LINE
  5
180
100
AcDbEntity
  8
51060015
  6
CONTINUOUS
 62
         7
100
AcDbLine
 10
121.2847156953
 20
37.5878080618
 30
0.0
 11
120.16060918
 21
40.6762653299
 31
0.0
  0
LINE
  5
181
100
AcDbEntity
  8
51060015
  6
CONTINUOUS
 62
         7
100
AcDbLine
 10
159.7847156953
 20
37.5878080618
 30
0.0
 11
159.7847156953
 21
12.5878080618
 31
0.0
  0
ARC
  5
182
100
AcDbEntity
  8
51060015
  6
CONTINUOUS
 62
         7
100
AcDbCircle
 10
158.1130598957
 20
13.3964651107
 30
0.0
 40
10.4809989823
100
AcDbArc
 50
338.1716867869
 51
21.8283132131
  0
ARC
  5
183
100
AcDbEntity
  8
51060015
  6
CONTINUOUS
 62
         7
100
AcDbCircle
 10
158.1130598957
 20
36.7791510129
 30
0.0
 40
10.4809989823
100
AcDbArc
 50
338.1716867869
 51
21.8283132131
  0
LINE
  5
184
100
AcDbEntity
  8
51060015
  6
CONTINUOUS
 62
         7
100
AcDbLine
 10
159.7847156953
 20
12.5878080618
 30
0.0
 11
160.9088222107
 21
9.4993507937
 31
0.0
  0
LINE
  5
185
100
AcDbEntity
  8
51060015
  6
CONTINUOUS
 62
         7
100
AcDbLine
 10
160.9088222107
 20
9.4993507937
 30
0.0
 11
167.8425942971
 21
9.4993507937
 31
0.0
  0
LINE
  5
186
100
AcDbEntity
  8
51060015
  6
CONTINUOUS
 62
         7
100
AcDbLine
 10
160.9088222107
 20
17.2935794277
 30
0.0
 11
167.8425942971
 21
17.2935794277
 31
0.0
  0
LINE
  5
187
100
AcDbEntity
  8
51060015
  6
CONTINUOUS
 62
         7
100
AcDbLine
 10
113.2268370936
 20
32.8820366959
 30
0.0
 11
120.16060918
 21
32.8820366959
 31
0.0
  0
LINE
  5
188
100
AcDbEntity
  8
51060015
  6
CONTINUOUS
 62
         7
100
AcDbLine
 10
160.9088222107
 20
32.8820366959
 30
0.0
 11
167.8425942971
 21
32.8820366959
 31
0.0
  0
LINE
  5
189
100
AcDbEntity
  8
51060015
  6
CONTINUOUS
 62
         7
100
AcDbLine
 10
160.9088222107
 20
40.6762653299
 30
0.0
 11
167.8425942971
 21
40.6762653299
 31
0.0
  0
ARC
  5
18A
100
AcDbEntity
  8
51060015
  6
CONTINUOUS
 62
         7
100
AcDbCircle
 10
110.4310747786
 20
36.7791510129
 30
0.0
 40
10.4809989823
100
AcDbArc
 50
338.1716867869
 51
21.8283132131
  0
ARC
  5
18B
100
AcDbEntity
  8
51060015
  6
CONTINUOUS
 62
         7
100
AcDbCircle
 10
170.6383566121
 20
13.3964651107
 30
0.0
 40
10.4809989823
100
AcDbArc
 50
158.1716867869
 51
201.8283132131
  0
LINE
  5
18C
100
AcDbEntity
  8
51060015
  6
CONTINUOUS
 62
         7
100
AcDbLine
 10
113.2268370936
 20
17.2935794277
 30
0.0
 11
120.16060918
 21
17.2935794277
 31
0.0
  0
ARC
  5
18D
100
AcDbEntity
  8
51060015
  6
CONTINUOUS
 62
         7
100
AcDbCircle
 10
122.956371495
 20
36.7791510129
 30
0.0
 40
10.4809989823
100
AcDbArc
 50
158.1716867869
 51
201.8283132131
  0
ARC
  5
18E
100
AcDbEntity
  8
51060015
  6
CONTINUOUS
 62
         7
100
AcDbCircle
 10
122.956371495
 20
13.3964651107
 30
0.0
 40
10.4809989823
100
AcDbArc
 50
158.1716867869
 51
201.8283132131
  0
ARC
  5
18F
100
AcDbEntity
  8
51060015
  6
CONTINUOUS
 62
         7
100
AcDbCircle
 10
153.1610067011
 20
25.0878080618
 30
0.0
 40
40.6876873542
100
AcDbArc
 50
168.9560253199
 51
191.0439746801
  0
LINE
  5
190
100
AcDbEntity
  8
51060015
  6
CONTINUOUS
 62
         7
100
AcDbLine
 10
140.5347156953
 20
81.8878080618
 30
0.0
 11
131.0347156929
 21
81.8878080618
 31
0.0
  0
LINE
  5
191
100
AcDbEntity
  8
51060015
  6
CONTINUOUS
 62
         7
100
AcDbLine
 10
150.0347156929
 20
81.8878080618
 30
0.0
 11
140.5347156953
 21
81.8878080618
 31
0.0
  0
LINE
  5
192
100
AcDbEntity
  8
51060015
  6
CONTINUOUS
 62
         7
100
AcDbLine
 10
140.5347156953
 20
70.0878080618
 30
0.0
 11
131.0347156929
 21
70.0878080618
 31
0.0
  0
LINE
  5
193
100
AcDbEntity
  8
51060015
  6
CONTINUOUS
 62
         7
100
AcDbLine
 10
131.0347156929
 20
70.0878080618
 30
0.0
 11
131.0347156929
 21
81.8878080618
 31
0.0
  0
LINE
  5
194
100
AcDbEntity
  8
51060015
  6
CONTINUOUS
 62
         7
100
AcDbLine
 10
150.0347156929
 20
70.0878080618
 30
0.0
 11
140.5347156953
 21
70.0878080618
 31
0.0
  0
LINE
  5
195
100
AcDbEntity
  8
51060015
  6
CONTINUOUS
 62
         7
100
AcDbLine
 10
140.5347156953
 20
70.0878080618
 30
0.0
 11
140.5347156953
 21
81.8878080618
 31
0.0
  0
LINE
  5
196
100
AcDbEntity
  8
51060015
  6
CONTINUOUS
 62
         7
100
AcDbLine
 10
150.0347156929
 20
70.0878080618
 30
0.0
 11
150.0347156929
 21
81.8878080618
 31
0.0
  0
LINE
  5
197
100
AcDbEntity
  8
51060015
  6
CONTINUOUS
 62
         7
100
AcDbLine
 10
151.5347156953
 20
65.7878080618
 30
0.0
 11
140.5347156953
 21
65.7878080618
 31
0.0
  0
LINE
  5
198
100
AcDbEntity
  8
51060015
  6
CONTINUOUS
 62
         7
100
AcDbLine
 10
140.5347156953
 20
65.7878080618
 30
0.0
 11
129.5347156953
 21
65.7878080618
 31
0.0
  0
LINE
  5
199
100
AcDbEntity
  8
51060015
  6
CONTINUOUS
 62
         7
100
AcDbLine
 10
149.0347156953
 20
41.5175672552
 30
0.0
 11
149.0347156953
 21
25.0878080618
 31
0.0
  0
LINE
  5
19A
100
AcDbEntity
  8
51060015
  6
CONTINUOUS
 62
         7
100
AcDbLine
 10
132.0347156953
 20
25.0878080618
 30
0.0
 11
132.0347156953
 21
41.5175672552
 31
0.0
  0
LINE
  5
19B
100
AcDbEntity
  8
51060015
  6
CONTINUOUS
 62
         7
100
AcDbLine
 10
132.0347156953
 20
11.0878080618
 30
0.0
 11
132.0347156953
 21
25.0878080618
 31
0.0
  0
LINE
  5
19C
100
AcDbEntity
  8
51060015
  6
CONTINUOUS
 62
         7
100
AcDbLine
 10
149.0347156953
 20
11.0878080618
 30
0.0
 11
149.0347156953
 21
25.0878080618
 31
0.0
  0
ARC
  5
19D
100
AcDbEntity
  8
51060015
  6
CONTINUOUS
 62
         7
100
AcDbCircle
 10
140.5347156953
 20
67.3450600594
 30
0.0
 40
27.19024429
100
AcDbArc
 50
251.7832801129
 51
288.2167198871
  0
ENDBLK
  5
19E
100
AcDbEntity
  8
51060015
  6
CONTINUOUS
 62
         7
100
AcDbBlockEnd
  0
BLOCK
  5
1FA
100
AcDbEntity
  8
0
 62
         1
 48
0.0
100
AcDbBlockBegin
  2
SE6
 70
         0
 10
0.0
 20
0.0
 30
0.0
  3
SE6
  1

  0
ENDBLK
  5
1FB
100
AcDbEntity
  8
0
 62
         1
 48
0.0
100
AcDbBlockEnd
  0
BLOCK
  5
1A1
100
AcDbEntity
  8
0
 62
         1
 48
0.0
100
AcDbBlockBegin
  2
SE7
 70
         0
 10
0.0
 20
0.0
 30
0.0
  3
SE7
  1

  0
SPLINE
  5
1A2
100
AcDbEntity
  8
51060015
  6
CONTINUOUS
 62
         7
100
AcDbSpline
210
0.0
220
0.0
230
1.0
 70
         8
 71
         3
 72
        26
 73
        22
 74
         0
 42
0.0
 43
0.0
 40
0.0
 40
0.0
 40
0.0
 40
0.0
 40
0.0625000000000001
 40
0.0625000000000001
 40
0.1250000000000002
 40
0.1250000000000002
 40
0.25
 40
0.25
 40
0.3749999999999998
 40
0.3749999999999998
 40
0.4999999999999997
 40
0.4999999999999997
 40
0.6249999999999992
 40
0.6249999999999992
 40
0.7499999999999991
 40
0.7499999999999991
 40
0.8749999999999989
 40
0.8749999999999989
 40
0.9374999999999994
 40
0.9374999999999994
 40
1.0
 40
1.0
 40
1.0
 40
1.0
 10
105.7538628659163
 20
202.57269130686637
 30
0.0
 10
105.27569033935883
 20
202.57269130686598
 30
0.0
 10
104.81273898365373
 20
202.46149854294165
 30
0.0
 10
104.01204029083328
 20
202.0956065691075
 30
0.0
 10
103.67369385271449
 20
201.84452029276946
 30
0.0
 10
102.84886986944966
 20
201.02491370904607
 30
0.0
 10
102.53482363753136
 20
200.39762366586748
 30
0.0
 10
102.12119747158957
 20
199.20440688051144
 30
0.0
 10
102.02255475993678
 20
198.63500914041302
 30
0.0
 10
101.90137097447996
 20
197.56166489573047
 30
0.0
 10
101.8808339557343
 20
197.0559753302648
 30
0.0
 10
101.88092521476719
 20
196.12114830181966
 30
0.0
 10
101.90137884831553
 20
195.69408959188846
 30
0.0
 10
102.02248945446598
 20
194.92007831289075
 30
0.0
 10
102.12143666808181
 20
194.57234472969512
 30
0.0
 10
102.53736253899773
 20
193.96289555119753
 30
0.0
 10
102.85085038809008
 20
193.706133308283
 30
0.0
 10
103.67467782713832
 20
193.42094593333741
 30
0.0
 10
104.01125361740618
 20
193.3430596335279
 30
0.0
 10
104.81535327197217
 20
193.23464073356931
 30
0.0
 10
105.27766111030445
 20
193.20519430926794
 30
0.0
 10
105.7538628659163
 20
193.20519430926808
 30
0.0
  0
SPLINE
  5
1A3
100
AcDbEntity
  8
51060015
  6
CONTINUOUS
 62
         7
100
AcDbSpline
210
0.0
220
0.0
230
1.0
 70
         8
 71
         3
 72
        26
 73
        22
 74
         0
 42
0.0
 43
0.0
 40
0.0
 40
0.0
 40
0.0
 40
0.0
 40
0.0624999999999999
 40
0.0624999999999999
 40
0.1249999999999998
 40
0.1249999999999998
 40
0.2499999999999996
 40
0.2499999999999996
 40
0.3749999999999994
 40
0.3749999999999994
 40
0.4999999999999992
 40
0.4999999999999992
 40
0.6249999999999991
 40
0.6249999999999991
 40
0.749999999999999
 40
0.749999999999999
 40
0.8749999999999989
 40
0.8749999999999989
 40
0.9374999999999994
 40
0.9374999999999994
 40
1.0
 40
1.0
 40
1.0
 40
1.0
 10
105.7538628659163
 20
182.57471579780866
 30
0.0
 10
105.27569033935882
 20
182.5747157978083
 30
0.0
 10
104.81273898365372
 20
182.43377275884632
 30
0.0
 10
104.01204029083328
 20
181.95982305319944
 30
0.0
 10
103.67369385271448
 20
181.63057401947543
 30
0.0
 10
102.84886986944962
 20
180.52506975160239
 30
0.0
 10
102.53482363753132
 20
179.63916821567832
 30
0.0
 10
102.12119747158955
 20
177.83798261107844
 30
0.0
 10
102.02255475993675
 20
176.92246614558562
 30
0.0
 10
101.90137097447996
 20
175.07484458086199
 30
0.0
 10
101.88083395573429
 20
174.13950483865241
 30
0.0
 10
101.8809252147672
 20
172.26956079984672
 30
0.0
 10
101.90137884831555
 20
171.33968524377718
 30
0.0
 10
102.022489454466
 20
169.49275495934447
 30
0.0
 10
102.12143666808181
 20
168.57309840428431
 30
0.0
 10
102.5373625389977
 20
166.76654393098116
 30
0.0
 10
102.85085038809007
 20
165.88593558529118
 30
0.0
 10
103.67467782713831
 20
164.78293506465718
 30
0.0
 10
104.01125361740618
 20
164.45488467034232
 30
0.0
 10
104.81535327197219
 20
163.97931336127732
 30
0.0
 10
105.27766111030448
 20
163.83972180261097
 30
0.0
 10
105.7538628659163
 20
163.83972180261264
 30
0.0
  0
LINE
  5
1A4
100
AcDbEntity
  8
51060015
  6
CONTINUOUS
 62
         7
100
AcDbLine
 10
109.7538628659
 20
202.5726913069
 30
0.0
 11
109.7538628659
 21
203.2072188002
 31
0.0
  0
LINE
  5
1A5
100
AcDbEntity
  8
51060015
  6
CONTINUOUS
 62
         7
100
AcDbLine
 10
109.7538628659
 20
143.8417462936
 30
0.0
 11
109.7538628659
 21
143.2072188002
 31
0.0
  0
LINE
  5
1A6
100
AcDbEntity
  8
51060015
  6
CONTINUOUS
 62
         7
100
AcDbLine
 10
109.7538628659
 20
193.2051943093
 30
0.0
 11
109.7538628659
 21
182.5747157978
 31
0.0
  0
ARC
  5
1A7
100
AcDbEntity
  8
51060015
  6
CONTINUOUS
 62
         7
100
AcDbCircle
 10
105.7538628659
 20
147.2072188002
 30
0.0
 40
4.0
100
AcDbArc
 50
180.0
 51
270.0
  0
LINE
  5
1A8
100
AcDbEntity
  8
51060015
  6
CONTINUOUS
 62
         7
100
AcDbLine
 10
122.2538628659
 20
177.0572188002
 30
0.0
 11
116.7538628659
 21
177.0572188002
 31
0.0
  0
LINE
  5
1A9
100
AcDbEntity
  8
51060015
  6
CONTINUOUS
 62
         7
100
AcDbLine
 10
138.3538628659
 20
182.0072188002
 30
0.0
 11
134.0538628659
 21
182.0072188002
 31
0.0
  0
LINE
  5
1AA
100
AcDbEntity
  8
51060015
  6
CONTINUOUS
 62
         7
100
AcDbLine
 10
150.5538628659
 20
190.2072188002
 30
0.0
 11
147.5538628659
 21
190.2072188002
 31
0.0
  0
LINE
  5
1AB
100
AcDbEntity
  8
51060015
  6
CONTINUOUS
 62
         7
100
AcDbLine
 10
162.5538628659
 20
156.7072188002
 30
0.0
 11
163.9972385389
 21
159.2072188002
 31
0.0
  0
LINE
  5
1AC
100
AcDbEntity
  8
51060015
  6
CONTINUOUS
 62
         7
100
AcDbLine
 10
154.7651877313
 20
190.2072188002
 30
0.0
 11
151.0538628659
 21
190.2072188002
 31
0.0
  0
LINE
  5
1AD
100
AcDbEntity
  8
51060015
  6
CONTINUOUS
 62
         7
100
AcDbLine
 10
162.5538628659
 20
189.7072188002
 30
0.0
 11
155.0538628659
 21
189.7072188002
 31
0.0
  0
LINE
  5
1AE
100
AcDbEntity
  8
51060015
  6
CONTINUOUS
 62
         7
100
AcDbLine
 10
154.7651877313
 20
156.2072188002
 30
0.0
 11
155.0538628659
 21
156.7072188002
 31
0.0
  0
LINE
  5
1AF
100
AcDbEntity
  8
51060015
  6
CONTINUOUS
 62
         7
100
AcDbLine
 10
151.0538628659
 20
190.2072188002
 30
0.0
 11
150.5538628659
 21
189.7072188002
 31
0.0
  0
LINE
  5
1B0
100
AcDbEntity
  8
51060015
  6
CONTINUOUS
 62
         7
100
AcDbLine
 10
109.7538628659
 20
203.2072188002
 30
0.0
 11
105.7538628659
 21
203.2072188002
 31
0.0
  0
LINE
  5
1B1
100
AcDbEntity
  8
51060015
  6
CONTINUOUS
 62
         7
100
AcDbLine
 10
105.7538628659
 20
143.2072188002
 30
0.0
 11
109.7538628659
 21
143.2072188002
 31
0.0
  0
ARC
  5
1B2
100
AcDbEntity
  8
51060015
  6
CONTINUOUS
 62
         7
100
AcDbCircle
 10
105.7538628659
 20
199.2072188002
 30
0.0
 40
4.0
100
AcDbArc
 50
90.0
 51
180.0
  0
LINE
  5
1B3
100
AcDbEntity
  8
51060015
  6
CONTINUOUS
 62
         7
100
AcDbLine
 10
101.7538628659
 20
199.2072188002
 30
0.0
 11
101.7538628659
 21
147.2072188002
 31
0.0
  0
LINE
  5
1B4
100
AcDbEntity
  8
51060015
  6
CONTINUOUS
 62
         7
100
AcDbLine
 10
116.7538628659
 20
169.3572188002
 30
0.0
 11
122.2538628659
 21
169.3572188002
 31
0.0
  0
LINE
  5
1B5
100
AcDbEntity
  8
51060015
  6
CONTINUOUS
 62
         7
100
AcDbLine
 10
134.0538628659
 20
164.4072188002
 30
0.0
 11
138.3538628659
 21
164.4072188002
 31
0.0
  0
LINE
  5
1B6
100
AcDbEntity
  8
51060015
  6
CONTINUOUS
 62
         7
100
AcDbLine
 10
147.5538628659
 20
156.2072188002
 30
0.0
 11
150.5538628659
 21
156.2072188002
 31
0.0
  0
LINE
  5
1B7
100
AcDbEntity
  8
51060015
  6
CONTINUOUS
 62
         7
100
AcDbLine
 10
163.9972385389
 20
187.2072188002
 30
0.0
 11
162.5538628659
 21
189.7072188002
 31
0.0
  0
LINE
  5
1B8
100
AcDbEntity
  8
51060015
  6
CONTINUOUS
 62
         7
100
AcDbLine
 10
151.0538628659
 20
156.2072188002
 30
0.0
 11
154.7651877313
 21
156.2072188002
 31
0.0
  0
LINE
  5
1B9
100
AcDbEntity
  8
51060015
  6
CONTINUOUS
 62
         7
100
AcDbLine
 10
155.0538628659
 20
156.7072188002
 30
0.0
 11
162.5538628659
 21
156.7072188002
 31
0.0
  0
LINE
  5
1BA
100
AcDbEntity
  8
51060015
  6
CONTINUOUS
 62
         7
100
AcDbLine
 10
155.0538628659
 20
189.7072188002
 30
0.0
 11
154.7651877313
 21
190.2072188002
 31
0.0
  0
LINE
  5
1BB
100
AcDbEntity
  8
51060015
  6
CONTINUOUS
 62
         7
100
AcDbLine
 10
150.5538628659
 20
156.7072188002
 30
0.0
 11
151.0538628659
 21
156.2072188002
 31
0.0
  0
LINE
  5
1BC
100
AcDbEntity
  8
51060015
  6
CONTINUOUS
 62
         7
100
AcDbLine
 10
109.7538628659
 20
177.2072188002
 30
0.0
 11
116.7538628659
 21
177.2072188002
 31
0.0
  0
LINE
  5
1BD
100
AcDbEntity
  8
51060015
  6
CONTINUOUS
 62
         7
100
AcDbLine
 10
116.7538628659
 20
169.2072188002
 30
0.0
 11
116.7538628659
 21
177.2072188002
 31
0.0
  0
LINE
  5
1BE
100
AcDbEntity
  8
51060015
  6
CONTINUOUS
 62
         7
100
AcDbLine
 10
109.7538628659
 20
169.2072188002
 30
0.0
 11
116.7538628659
 21
169.2072188002
 31
0.0
  0
LINE
  5
1BF
100
AcDbEntity
  8
51060015
  6
CONTINUOUS
 62
         7
100
AcDbLine
 10
105.7538628659
 20
143.8417462936
 30
0.0
 11
109.7538628659
 21
143.8417462936
 31
0.0
  0
LINE
  5
1C0
100
AcDbEntity
  8
51060015
  6
CONTINUOUS
 62
         7
100
AcDbLine
 10
105.7538628659
 20
153.2092432912
 30
0.0
 11
109.7538628659
 21
153.2092432912
 31
0.0
  0
LINE
  5
1C1
100
AcDbEntity
  8
51060015
  6
CONTINUOUS
 62
         7
100
AcDbLine
 10
105.7538628659
 20
182.5747157978
 30
0.0
 11
109.7538628659
 21
182.5747157978
 31
0.0
  0
LINE
  5
1C2
100
AcDbEntity
  8
51060015
  6
CONTINUOUS
 62
         7
100
AcDbLine
 10
105.7538628659
 20
163.8397218026
 30
0.0
 11
109.7538628659
 21
163.8397218026
 31
0.0
  0
LINE
  5
1C3
100
AcDbEntity
  8
51060015
  6
CONTINUOUS
 62
         7
100
AcDbLine
 10
105.7538628659
 20
202.5726913069
 30
0.0
 11
109.7538628659
 21
202.5726913069
 31
0.0
  0
LINE
  5
1C4
100
AcDbEntity
  8
51060015
  6
CONTINUOUS
 62
         7
100
AcDbLine
 10
105.7538628659
 20
193.2051943093
 30
0.0
 11
109.7538628659
 21
193.2051943093
 31
0.0
  0
LINE
  5
1C5
100
AcDbEntity
  8
51060015
  6
CONTINUOUS
 62
         7
100
AcDbLine
 10
109.7538628659
 20
193.2051943093
 30
0.0
 11
109.7538628659
 21
202.5726913069
 31
0.0
  0
LINE
  5
1C6
100
AcDbEntity
  8
51060015
  6
CONTINUOUS
 62
         7
100
AcDbLine
 10
109.7538628659
 20
143.8417462936
 30
0.0
 11
109.7538628659
 21
153.2092432912
 31
0.0
  0
LINE
  5
1C7
100
AcDbEntity
  8
51060015
  6
CONTINUOUS
 62
         7
100
AcDbLine
 10
109.7538628659
 20
163.8397218026
 30
0.0
 11
109.7538628659
 21
182.5747157978
 31
0.0
  0
LINE
  5
1C8
100
AcDbEntity
  8
51060015
  6
CONTINUOUS
 62
         7
100
AcDbLine
 10
109.7538628659
 20
163.8397218026
 30
0.0
 11
109.7538628659
 21
153.2092432912
 31
0.0
  0
SPLINE
  5
1C9
100
AcDbEntity
  8
51060015
  6
CONTINUOUS
 62
         7
100
AcDbSpline
210
0.0
220
0.0
230
1.0
 70
         8
 71
         3
 72
        26
 73
        22
 74
         0
 42
0.0
 43
0.0
 40
0.0
 40
0.0
 40
0.0
 40
0.0
 40
0.0625
 40
0.0625
 40
0.1250000000000001
 40
0.1250000000000001
 40
0.2500000000000003
 40
0.2500000000000003
 40
0.3750000000000005
 40
0.3750000000000005
 40
0.5000000000000007
 40
0.5000000000000007
 40
0.6250000000000009
 40
0.6250000000000009
 40
0.7500000000000011
 40
0.7500000000000011
 40
0.8750000000000012
 40
0.8750000000000012
 40
0.9375000000000007
 40
0.9375000000000007
 40
1.0
 40
1.0
 40
1.0
 40
1.0
 10
105.7538628659163
 20
153.20924329115306
 30
0.0
 10
105.27569033935885
 20
153.20924329115297
 30
0.0
 10
104.81273898365374
 20
153.17949301611537
 30
0.0
 10
104.01204029083328
 20
153.07143528430268
 30
0.0
 10
103.67369385271451
 20
152.99327252691668
 30
0.0
 10
102.84886986944966
 20
152.70737484276702
 30
0.0
 10
102.53482363753135
 20
152.44876335002149
 30
0.0
 10
102.12119747158958
 20
151.84079453077771
 30
0.0
 10
102.02255475993678
 20
151.49467580538334
 30
0.0
 10
101.90137097447997
 20
150.72039848534223
 30
0.0
 10
101.88083395573429
 20
150.2907483085983
 30
0.0
 10
101.8809252147672
 20
149.35563129823777
 30
0.0
 10
101.90137884831555
 20
148.85281445209947
 30
0.0
 10
102.02248945446601
 20
147.77989544666443
 30
0.0
 10
102.12143666808181
 20
147.2079724747999
 30
0.0
 10
102.53736253899773
 20
146.01086717999434
 30
0.0
 10
102.85085038809008
 20
145.38702107721889
 30
0.0
 10
103.67467782713828
 20
144.56920793153043
 30
0.0
 10
104.01125361740617
 20
144.31904383702513
 30
0.0
 10
104.81535327197219
 20
143.95189142791872
 30
0.0
 10
105.27766111030444
 20
143.84174629355371
 30
0.0
 10
105.7538628659163
 20
143.84174629355508
 30
0.0
  0
LINE
  5
1CA
100
AcDbEntity
  8
51060015
  6
CONTINUOUS
 62
         7
100
AcDbLine
 10
186.8480915
 20
186.7072188002
 30
0.0
 11
171.2596342319
 21
186.7072188002
 31
0.0
  0
LINE
  5
1CB
100
AcDbEntity
  8
51060015
  6
CONTINUOUS
 62
         7
100
AcDbLine
 10
147.5538628659
 20
185.9089247224
 30
0.0
 11
138.3538628659
 21
185.9089247224
 31
0.0
  0
LINE
  5
1CC
100
AcDbEntity
  8
51060015
  6
CONTINUOUS
 62
         7
100
AcDbLine
 10
147.5538628659
 20
160.505512878
 30
0.0
 11
138.3538628659
 21
160.505512878
 31
0.0
  0
LINE
  5
1CD
100
AcDbEntity
  8
51060015
  6
CONTINUOUS
 62
         7
100
AcDbLine
 10
147.5538628659
 20
179.5580717613
 30
0.0
 11
138.3538628659
 21
179.5580717613
 31
0.0
  0
LINE
  5
1CE
100
AcDbEntity
  8
51060015
  6
CONTINUOUS
 62
         7
100
AcDbLine
 10
147.5538628659
 20
166.8563658391
 30
0.0
 11
138.3538628659
 21
166.8563658391
 31
0.0
  0
LINE
  5
1CF
100
AcDbEntity
  8
51060015
  6
CONTINUOUS
 62
         7
100
AcDbLine
 10
163.9972385389
 20
184.3315165309
 30
0.0
 11
163.9972385389
 21
174.1291624863
 31
0.0
  0
LINE
  5
1D0
100
AcDbEntity
  8
51060015
  6
CONTINUOUS
 62
         7
100
AcDbLine
 10
163.9972385389
 20
172.2843385434
 30
0.0
 11
163.9972385389
 21
162.0829210696
 31
0.0
  0
LINE
  5
1D1
100
AcDbEntity
  8
51060015
  6
CONTINUOUS
 62
         7
100
AcDbLine
 10
162.5538628659
 20
189.7072188002
 30
0.0
 11
162.5538628659
 21
156.7072188002
 31
0.0
  0
LINE
  5
1D2
100
AcDbEntity
  8
51060015
  6
CONTINUOUS
 62
         7
100
AcDbLine
 10
147.5538628659
 20
190.2072188002
 30
0.0
 11
147.5538628659
 21
156.2072188002
 31
0.0
  0
LINE
  5
1D3
100
AcDbEntity
  8
51060015
  6
CONTINUOUS
 62
         7
100
AcDbLine
 10
150.5538628659
 20
190.2072188002
 30
0.0
 11
150.5538628659
 21
156.2072188002
 31
0.0
  0
LINE
  5
1D4
100
AcDbEntity
  8
51060015
  6
CONTINUOUS
 62
         7
100
AcDbLine
 10
163.9972385389
 20
184.3315165309
 30
0.0
 11
169.8880218871
 21
184.3315165309
 31
0.0
  0
LINE
  5
1D5
100
AcDbEntity
  8
51060015
  6
CONTINUOUS
 62
         7
100
AcDbLine
 10
155.0538628659
 20
189.7072188002
 30
0.0
 11
155.0538628659
 21
156.7072188002
 31
0.0
  0
LINE
  5
1D6
100
AcDbEntity
  8
51060015
  6
CONTINUOUS
 62
         7
100
AcDbLine
 10
154.7651877313
 20
190.2072188002
 30
0.0
 11
154.7651877313
 21
156.2072188002
 31
0.0
  0
LINE
  5
1D7
100
AcDbEntity
  8
51060015
  6
CONTINUOUS
 62
         7
100
AcDbLine
 10
151.0538628659
 20
190.2072188002
 30
0.0
 11
151.0538628659
 21
156.2072188002
 31
0.0
  0
CIRCLE
  5
1D8
100
AcDbEntity
  8
51060015
  6
CONTINUOUS
 62
         7
100
AcDbCircle
 10
179.0538628659
 20
173.2072188002
 30
0.0
 40
13.0
  0
LINE
  5
1D9
100
AcDbEntity
  8
51060015
  6
CONTINUOUS
 62
         7
100
AcDbLine
 10
186.8480915
 20
159.7072188002
 30
0.0
 11
194.642320134
 21
173.2072188002
 31
0.0
  0
LINE
  5
1DA
100
AcDbEntity
  8
51060015
  6
CONTINUOUS
 62
         7
100
AcDbLine
 10
171.2596342319
 20
186.7072188002
 30
0.0
 11
163.4654055978
 21
173.2072188002
 31
0.0
  0
LINE
  5
1DB
100
AcDbEntity
  8
51060015
  6
CONTINUOUS
 62
         7
100
AcDbLine
 10
163.4654055978
 20
173.2072188002
 30
0.0
 11
171.2596342319
 21
159.7072188002
 31
0.0
  0
LINE
  5
1DC
100
AcDbEntity
  8
51060015
  6
CONTINUOUS
 62
         7
100
AcDbLine
 10
171.2596342319
 20
159.7072188002
 30
0.0
 11
186.8480915
 21
159.7072188002
 31
0.0
  0
LINE
  5
1DD
100
AcDbEntity
  8
51060015
  6
CONTINUOUS
 62
         7
100
AcDbLine
 10
194.642320134
 20
173.2072188002
 30
0.0
 11
186.8480915
 21
186.7072188002
 31
0.0
  0
LINE
  5
1DE
100
AcDbEntity
  8
51060015
  6
CONTINUOUS
 62
         7
100
AcDbLine
 10
167.1583952212
 20
187.6072188002
 30
0.0
 11
166.0538628659
 21
187.6072188002
 31
0.0
  0
LINE
  5
1DF
100
AcDbEntity
  8
51060015
  6
CONTINUOUS
 62
         7
100
AcDbLine
 10
170.0538628659
 20
187.6072188002
 30
0.0
 11
167.1583952212
 21
187.6072188002
 31
0.0
  0
LINE
  5
1E0
100
AcDbEntity
  8
51060015
  6
CONTINUOUS
 62
         7
100
AcDbLine
 10
170.0538628659
 20
187.6072188002
 30
0.0
 11
170.0538628659
 21
187.2072188002
 31
0.0
  0
LINE
  5
1E1
100
AcDbEntity
  8
51060015
  6
CONTINUOUS
 62
         7
100
AcDbLine
 10
167.1583952212
 20
187.6072188002
 30
0.0
 11
167.1583952212
 21
187.2072188002
 31
0.0
  0
LINE
  5
1E2
100
AcDbEntity
  8
51060015
  6
CONTINUOUS
 62
         7
100
AcDbLine
 10
166.0538628659
 20
187.6072188002
 30
0.0
 11
166.0538628659
 21
187.2072188002
 31
0.0
  0
LINE
  5
1E3
100
AcDbEntity
  8
51060015
  6
CONTINUOUS
 62
         7
100
AcDbLine
 10
122.2538628659
 20
167.7223912443
 30
0.0
 11
122.2538628659
 21
162.2375636773
 31
0.0
  0
LINE
  5
1E4
100
AcDbEntity
  8
51060015
  6
CONTINUOUS
 62
         7
100
AcDbLine
 10
122.2538628659
 20
178.6920463561
 30
0.0
 11
122.2538628659
 21
167.7223912443
 31
0.0
  0
LINE
  5
1E5
100
AcDbEntity
  8
51060015
  6
CONTINUOUS
 62
         7
100
AcDbLine
 10
134.0538628659
 20
178.6920463561
 30
0.0
 11
134.0538628659
 21
167.7223912443
 31
0.0
  0
LINE
  5
1E6
100
AcDbEntity
  8
51060015
  6
CONTINUOUS
 62
         7
100
AcDbLine
 10
122.2538628659
 20
184.176873912
 30
0.0
 11
122.2538628659
 21
178.6920463561
 31
0.0
  0
LINE
  5
1E7
100
AcDbEntity
  8
51060015
  6
CONTINUOUS
 62
         7
100
AcDbLine
 10
134.0538628659
 20
167.7223912443
 30
0.0
 11
134.0538628659
 21
162.2375636773
 31
0.0
  0
LINE
  5
1E8
100
AcDbEntity
  8
51060015
  6
CONTINUOUS
 62
         7
100
AcDbLine
 10
134.0538628659
 20
184.176873912
 30
0.0
 11
134.0538628659
 21
178.6920463561
 31
0.0
  0
LINE
  5
1E9
100
AcDbEntity
  8
51060015
  6
CONTINUOUS
 62
         7
100
AcDbLine
 10
134.0538628659
 20
184.176873912
 30
0.0
 11
122.2538628659
 21
184.176873912
 31
0.0
  0
LINE
  5
1EA
100
AcDbEntity
  8
51060015
  6
CONTINUOUS
 62
         7
100
AcDbLine
 10
134.0538628659
 20
162.2375636773
 30
0.0
 11
122.2538628659
 21
162.2375636773
 31
0.0
  0
LINE
  5
1EB
100
AcDbEntity
  8
51060015
  6
CONTINUOUS
 62
         7
100
AcDbLine
 10
134.0538628659
 20
167.7223912443
 30
0.0
 11
122.2538628659
 21
167.7223912443
 31
0.0
  0
LINE
  5
1EC
100
AcDbEntity
  8
51060015
  6
CONTINUOUS
 62
         7
100
AcDbLine
 10
134.0538628659
 20
178.6920463561
 30
0.0
 11
122.2538628659
 21
178.6920463561
 31
0.0
  0
LINE
  5
1ED
100
AcDbEntity
  8
51060015
  6
CONTINUOUS
 62
         7
100
AcDbLine
 10
138.3538628659
 20
166.8563658391
 30
0.0
 11
138.3538628659
 21
160.505512878
 31
0.0
  0
LINE
  5
1EE
100
AcDbEntity
  8
51060015
  6
CONTINUOUS
 62
         7
100
AcDbLine
 10
138.3538628659
 20
179.5580717613
 30
0.0
 11
138.3538628659
 21
166.8563658391
 31
0.0
  0
LINE
  5
1EF
100
AcDbEntity
  8
51060015
  6
CONTINUOUS
 62
         7
100
AcDbLine
 10
138.3538628659
 20
185.9089247224
 30
0.0
 11
138.3538628659
 21
179.5580717613
 31
0.0
  0
LINE
  5
1F0
100
AcDbEntity
  8
51060015
  6
CONTINUOUS
 62
         7
100
AcDbLine
 10
179.0538628659
 20
187.2072188002
 30
0.0
 11
162.6241036725
 21
187.2072188002
 31
0.0
  0
ARC
  5
1F1
100
AcDbEntity
  8
51060015
  6
CONTINUOUS
 62
         7
100
AcDbCircle
 10
179.0538628659
 20
173.2072188002
 30
0.0
 40
14.0
100
AcDbArc
 50
270.0
 51
285.0968904543
  0
ARC
  5
1F2
100
AcDbEntity
  8
51060015
  6
CONTINUOUS
 62
         7
100
AcDbCircle
 10
179.0538628659
 20
173.2072188002
 30
0.0
 40
14.0
100
AcDbArc
 50
314.9688051344
 51
345.1892516267
  0
ARC
  5
1F3
100
AcDbEntity
  8
51060015
  6
CONTINUOUS
 62
         7
100
AcDbCircle
 10
179.0538628659
 20
173.2072188002
 30
0.0
 40
14.0
100
AcDbArc
 50
15.0036789388
 51
45.3048090825
  0
ARC
  5
1F4
100
AcDbEntity
  8
51060015
  6
CONTINUOUS
 62
         7
100
AcDbCircle
 10
179.0538628659
 20
173.2072188002
 30
0.0
 40
14.0
100
AcDbArc
 50
75.0027067995
 51
90.0
  0
LINE
  5
1F5
100
AcDbEntity
  8
51060015
  6
CONTINUOUS
 62
         7
100
AcDbLine
 10
162.6241036725
 20
159.2072188002
 30
0.0
 11
179.0538628659
 21
159.2072188002
 31
0.0
  0
LINE
  5
1F6
100
AcDbEntity
  8
51060015
  6
CONTINUOUS
 62
         7
100
AcDbLine
 10
163.9972385389
 20
162.0829210696
 30
0.0
 11
162.6241036725
 21
159.2072188002
 31
0.0
  0
LINE
  5
1F7
100
AcDbEntity
  8
51060015
  6
CONTINUOUS
 62
         7
100
AcDbLine
 10
162.6241036725
 20
187.2072188002
 30
0.0
 11
163.9972385389
 21
184.3315165309
 31
0.0
  0
LINE
  5
1F8
100
AcDbEntity
  8
51060015
  6
CONTINUOUS
 62
         7
100
AcDbLine
 10
169.8880218871
 20
162.0829210696
 30
0.0
 11
163.9972385389
 21
162.0829210696
 31
0.0
  0
ENDBLK
  5
1F9
100
AcDbEntity
  8
51060015
  6
CONTINUOUS
 62
         7
100
AcDbBlockEnd
  0
ENDSEC
  0
SECTION
  2
ENTITIES
  0
INSERT
  5
3A
102
{ACAD_XDICTIONARY
360
3B
102
}
100
AcDbEntity
  8
0
 62
         0
 48
0.0
100
AcDbBlockReference
  2
SE1
 10
0.0
 20
0.0
 30
0.0
  0
INSERT
  5
3E
100
AcDbEntity
  8
0
 62
         0
 48
0.0
100
AcDbBlockReference
  2
SE0
 10
0.0
 20
0.0
 30
0.0
  0
INSERT
  5
41
102
{ACAD_XDICTIONARY
360
42
102
}
100
AcDbEntity
  8
0
 62
         0
 48
0.0
100
AcDbBlockReference
  2
SE3
 10
0.0
 20
0.0
 30
0.0
  0
INSERT
  5
45
100
AcDbEntity
  8
0
 62
         0
 48
0.0
100
AcDbBlockReference
  2
SE2
 10
0.0
 20
0.0
 30
0.0
  0
INSERT
  5
48
102
{ACAD_XDICTIONARY
360
49
102
}
100
AcDbEntity
  8
0
 62
         0
 48
0.0
100
AcDbBlockReference
  2
SE5
 10
0.0
 20
0.0
 30
0.0
  0
INSERT
  5
4C
100
AcDbEntity
  8
0
 62
         0
 48
0.0
100
AcDbBlockReference
  2
SE4
 10
0.0
 20
0.0
 30
0.0
  0
INSERT
  5
4F
102
{ACAD_XDICTIONARY
360
50
102
}
100
AcDbEntity
  8
0
 62
         0
 48
0.0
100
AcDbBlockReference
  2
SE7
 10
0.0
 20
0.0
 30
0.0
  0
INSERT
  5
53
100
AcDbEntity
  8
0
 62
         0
 48
0.0
100
AcDbBlockReference
  2
SE6
 10
0.0
 20
0.0
 30
0.0
  0
ENDSEC
  0
SECTION
  2
OBJECTS
  0
DICTIONARY
  5
19
100
AcDbDictionary
  3
ACAD_GROUP
350
1A
  3
ACAD_MLINESTYLE
350
1B
  3
ACDBVARIABLEDICTIONARY
350
1FC
  0
DICTIONARY
  5
1A
102
{ACAD_REACTORS
330
19
102
}
100
AcDbDictionary
  0
DICTIONARY
  5
1B
102
{ACAD_REACTORS
330
19
102
}
100
AcDbDictionary
  3
STANDARD
350
1C
  0
MLINESTYLE
  5
1C
102
{ACAD_REACTORS
330
1B
102
}
100
AcDbMlineStyle
  2
Standard
 70
         0
  3

 62
         0
 51
90.0
 52
90.0
 71
         2
 49
0.5
 62
       256
  6
ByLayer
 49
-0.5
 62
       256
  6
ByLayer
  0
DICTIONARY
  5
22
102
{ACAD_REACTORS
330
19
102
}
100
AcDbDictionary
  0
DICTIONARY
  5
3B
100
AcDbDictionary
  3
ACAD_FILTER
350
3C
  0
DICTIONARY
  5
3C
100
AcDbDictionary
  3
SPATIAL
350
3D
  0
SPATIAL_FILTER
  5
3D
100
AcDbFilter
100
AcDbSpatialFilter
 70
         2
 10
-0.7700699164
 20
3.1493507937
 10
68.9577444785
 20
108.7378080618
210
0.0
220
0.0
230
1.0
 11
0.0
 21
0.0
 31
0.0
 71
         1
 72
         0
 73
         0
 40
1.0
 40
0.0
 40
0.0
 40
0.0
 40
0.0
 40
1.0
 40
0.0
 40
0.0
 40
0.0
 40
0.0
 40
1.0
 40
0.0
 40
1.0
 40
0.0
 40
0.0
 40
0.0
 40
0.0
 40
1.0
 40
0.0
 40
0.0
 40
0.0
 40
0.0
 40
1.0
 40
0.0
  0
DICTIONARY
  5
42
100
AcDbDictionary
  3
ACAD_FILTER
350
43
  0
DICTIONARY
  5
43
100
AcDbDictionary
  3
SPATIAL
350
44
  0
SPATIAL_FILTER
  5
44
100
AcDbFilter
100
AcDbSpatialFilter
 70
         2
 10
-0.7561627189
 20
136.8572188002
 10
68.9438372811
 20
209.5572188002
210
0.0
220
0.0
230
1.0
 11
0.0
 21
0.0
 31
0.0
 71
         1
 72
         0
 73
         0
 40
1.0
 40
0.0
 40
0.0
 40
0.0
 40
0.0
 40
1.0
 40
0.0
 40
0.0
 40
0.0
 40
0.0
 40
1.0
 40
0.0
 40
1.0
 40
0.0
 40
0.0
 40
0.0
 40
0.0
 40
1.0
 40
0.0
 40
0.0
 40
0.0
 40
0.0
 40
1.0
 40
0.0
  0
DICTIONARY
  5
49
100
AcDbDictionary
  3
ACAD_FILTER
350
4A
  0
DICTIONARY
  5
4A
100
AcDbDictionary
  3
SPATIAL
350
4B
  0
SPATIAL_FILTER
  5
4B
100
AcDbFilter
100
AcDbSpatialFilter
 70
         2
 10
105.6708084979
 20
3.1493507937
 10
175.3986228928
 20
108.7378080618
210
0.0
220
0.0
230
1.0
 11
0.0
 21
0.0
 31
0.0
 71
         1
 72
         0
 73
         0
 40
1.0
 40
0.0
 40
0.0
 40
0.0
 40
0.0
 40
1.0
 40
0.0
 40
0.0
 40
0.0
 40
0.0
 40
1.0
 40
0.0
 40
1.0
 40
0.0
 40
0.0
 40
0.0
 40
0.0
 40
1.0
 40
0.0
 40
0.0
 40
0.0
 40
0.0
 40
1.0
 40
0.0
  0
DICTIONARY
  5
50
100
AcDbDictionary
  3
ACAD_FILTER
350
51
  0
DICTIONARY
  5
51
100
AcDbDictionary
  3
SPATIAL
350
52
  0
SPATIAL_FILTER
  5
52
100
AcDbFilter
100
AcDbSpatialFilter
 70
         2
 10
95.4038628659
 20
136.8572188002
 10
200.992320134
 20
209.5572188002
210
0.0
220
0.0
230
1.0
 11
0.0
 21
0.0
 31
0.0
 71
         1
 72
         0
 73
         0
 40
1.0
 40
0.0
 40
0.0
 40
0.0
 40
0.0
 40
1.0
 40
0.0
 40
0.0
 40
0.0
 40
0.0
 40
1.0
 40
0.0
 40
1.0
 40
0.0
 40
0.0
 40
0.0
 40
0.0
 40
1.0
 40
0.0
 40
0.0
 40
0.0
 40
0.0
 40
1.0
 40
0.0
  0
DICTIONARY
  5
1FC
100
AcDbDictionary
  3
DIMASSOC
350
1FD
  0
DICTIONARYVAR
  5
1FD
100
DictionaryVariables
280
         0
  1
2
  0
ENDSEC
  0
EOF
