  0
SECTION
  2
HEADER
  9
$ACADVER
  1
AC1014
  9
$ACADMAINTVER
 70
         0
  9
$DWGCODEPAGE
  3
ANSI_1252
  9
$INSBASE
 10
0.0
 20
0.0
 30
0.0
  9
$EXTMIN
 10
0.0
 20
0.0
 30
0.0
  9
$EXTMAX
 10
420.0
 20
297.0
 30
0.0
  9
$LIMMIN
 10
0.0
 20
0.0
  9
$LIMMAX
 10
420.0
 20
297.0
  9
$ORTHOMODE
 70
         0
  9
$REGENMODE
 70
         1
  9
$FILLMODE
 70
         1
  9
$QTEXTMODE
 70
         0
  9
$MIRRTEXT
 70
         1
  9
$DRAGMODE
 70
         2
  9
$LTSCALE
 40
25.4
  9
$OSMODE
 70
         0
  9
$ATTMODE
 70
         1
  9
$TEXTSIZE
 40
0.2
  9
$TRACEWID
 40
0.05
  9
$TEXTSTYLE
  7
Standard
  9
$CLAYER
  8
0
  9
$CELTYPE
  6
CONTINUOUS
  9
$CECOLOR
 62
       256
  9
$CELTSCALE
 40
1.0
  9
$DELOBJ
 70
         1
  9
$DISPSILH
 70
         0
  9
$DIMSCALE
 40
1.0
  9
$DIMASZ
 40
0.18
  9
$DIMEXO
 40
0.0625
  9
$DIMDLI
 40
0.38
  9
$DIMRND
 40
0.0
  9
$DIMDLE
 40
0.0
  9
$DIMEXE
 40
0.18
  9
$DIMTP
 40
0.0
  9
$DIMTM
 40
0.0
  9
$DIMTXT
 40
0.18
  9
$DIMCEN
 40
0.09
  9
$DIMTSZ
 40
0.0
  9
$DIMTOL
 70
         0
  9
$DIMLIM
 70
         0
  9
$DIMTIH
 70
         1
  9
$DIMTOH
 70
         1
  9
$DIMSE1
 70
         0
  9
$DIMSE2
 70
         0
  9
$DIMTAD
 70
         0
  9
$DIMZIN
 70
         0
  9
$DIMBLK
  1

  9
$DIMASO
 70
         1
  9
$DIMSHO
 70
         1
  9
$DIMPOST
  1

  9
$DIMAPOST
  1

  9
$DIMALT
 70
         0
  9
$DIMALTD
 70
         2
  9
$DIMALTF
 40
25.4
  9
$DIMLFAC
 40
1.0
  9
$DIMTOFL
 70
         0
  9
$DIMTVP
 40
0.0
  9
$DIMTIX
 70
         0
  9
$DIMSOXD
 70
         0
  9
$DIMSAH
 70
         0
  9
$DIMBLK1
  1

  9
$DIMBLK2
  1

  9
$DIMSTYLE
  2
Standard
  9
$DIMCLRD
 70
         0
  9
$DIMCLRE
 70
         0
  9
$DIMCLRT
 70
         0
  9
$DIMTFAC
 40
1.0
  9
$DIMGAP
 40
0.09
  9
$DIMJUST
 70
         0
  9
$DIMSD1
 70
         0
  9
$DIMSD2
 70
         0
  9
$DIMTOLJ
 70
         1
  9
$DIMTZIN
 70
         0
  9
$DIMALTZ
 70
         0
  9
$DIMALTTZ
 70
         0
  9
$DIMFIT
 70
         3
  9
$DIMUPT
 70
         0
  9
$DIMUNIT
 70
         2
  9
$DIMDEC
 70
         4
  9
$DIMTDEC
 70
         4
  9
$DIMALTU
 70
         2
  9
$DIMALTTD
 70
         2
  9
$DIMTXSTY
  7
Standard
  9
$DIMAUNIT
 70
         0
  9
$LUNITS
 70
         2
  9
$LUPREC
 70
         4
  9
$SKETCHINC
 40
0.1
  9
$FILLETRAD
 40
0.0
  9
$AUNITS
 70
         0
  9
$AUPREC
 70
         0
  9
$MENU
  1
acad
  9
$ELEVATION
 40
0.0
  9
$PELEVATION
 40
0.0
  9
$THICKNESS
 40
0.0
  9
$LIMCHECK
 70
         0
  9
$BLIPMODE
 70
         1
  9
$CHAMFERA
 40
0.0
  9
$CHAMFERB
 40
0.0
  9
$CHAMFERC
 40
0.0
  9
$CHAMFERD
 40
0.0
  9
$SKPOLY
 70
         0
  9
$TDCREATE
 40
0.000000000
  9
$TDUPDATE
 40
0.000000000
  9
$TDINDWG
 40
0.0000000000
  9
$TDUSRTIMER
 40
0.0000000000
  9
$USRTIMER
 70
         1
  9
$ANGBASE
 50
0.0
  9
$ANGDIR
 70
         0
  9
$PDMODE
 70
         0
  9
$PDSIZE
 40
0.0
  9
$PLINEWID
 40
0.0
  9
$COORDS
 70
         0
  9
$SPLFRAME
 70
         0
  9
$SPLINETYPE
 70
         6
  9
$SPLINESEGS
 70
         8
  9
$ATTDIA
 70
         0
  9
$ATTREQ
 70
         1
  9
$HANDLING
 70
         1
  9
$HANDSEED
  5
202
  9
$SURFTAB1
 70
         6
  9
$SURFTAB2
 70
         6
  9
$SURFTYPE
 70
         6
  9
$SURFU
 70
         6
  9
$SURFV
 70
         6
  9
$UCSNAME
  2

  9
$UCSORG
 10
0.0
 20
0.0
 30
0.0
  9
$UCSXDIR
 10
1.0
 20
0.0
 30
0.0
  9
$UCSYDIR
 10
0.0
 20
1.0
 30
0.0
  9
$PUCSNAME
  2

  9
$PUCSORG
 10
0.0
 20
0.0
 30
0.0
  9
$PUCSXDIR
 10
1.0
 20
0.0
 30
0.0
  9
$PUCSYDIR
 10
0.0
 20
1.0
 30
0.0
  9
$USERI1
 70
         0
  9
$USERI2
 70
         0
  9
$USERI3
 70
         0
  9
$USERI4
 70
         0
  9
$USERI5
 70
         0
  9
$USERR1
 40
0.0
  9
$USERR2
 40
0.0
  9
$USERR3
 40
0.0
  9
$USERR4
 40
0.0
  9
$USERR5
 40
0.0
  9
$WORLDVIEW
 70
         1
  9
$SHADEDGE
 70
         3
  9
$SHADEDIF
 70
        70
  9
$TILEMODE
 70
         1
  9
$MAXACTVP
 70
        16
  9
$PINSBASE
 10
0.0
 20
0.0
 30
0.0
  9
$PLIMCHECK
 70
         0
  9
$PEXTMIN
 10
1.0000000000E+20
 20
1.0000000000E+20
 30
1.0000000000E+20
  9
$PEXTMAX
 10
-1.0000000000E+20
 20
-1.0000000000E+20
 30
-1.0000000000E+20
  9
$PLIMMIN
 10
0.0
 20
0.0
  9
$PLIMMAX
 10
12.0
 20
9.0
  9
$UNITMODE
 70
         0
  9
$VISRETAIN
 70
         0
  9
$PLINEGEN
 70
         1
  9
$PSLTSCALE
 70
         0
  9
$TREEDEPTH
 70
      3020
  9
$PICKSTYLE
 70
         1
  9
$CMLSTYLE
  2
Standard
  9
$CMLJUST
 70
         0
  9
$CMLSCALE
 40
1.0
  9
$PROXYGRAPHICS
 70
         0
  9
$MEASUREMENT
 70
         0
  0
ENDSEC
  0
SECTION
  2
CLASSES
  0
CLASS
  1
LWPOLYLINE
  2
AcDbPolyline
  3
"AutoCAD"
 90
        0
280
         0
281
         1
  0
CLASS
  1
IMAGE
  2
AcDbRasterImage
  3
ISM
 90
      127
280
         0
281
         1
  0
CLASS
  1
OLE2FRAME
  2
AcDbOle2Frame
  3
""
 90
        0
280
         0
281
         1
  0
CLASS
  1
HATCH
  2
AcDbHatch
  3
"ACAD_SEDONA"
 90
        0
280
         0
281
         1
  0
CLASS
  1
DICTIONARYVAR
  2
AcDbDictionaryVar
  3
"AutoCAD"
 90
        0
280
         0
281
         0
  0
CLASS
  1
RASTERVARIABLES
  2
AcDbRasterVariables
  3
ISM
 90
        0
280
         0
281
         0
  0
CLASS
  1
IMAGEDEF
  2
AcDbRasterImageDef
  3
ISM
 90
        0
280
         0
281
         0
  0
CLASS
  1
IMAGEDEF_REACTOR
  2
AcDbRasterImageDefReactor
  3
ISM
 90
        1
280
         0
281
         0
  0
CLASS
  1
IDBUFFER
  2
AcDbIdBuffer
  3
"Acad"
 90
        0
280
         0
281
         0
  0
CLASS
  1
SPATIAL_FILTER
  2
AcDbSpatialFilter
  3
"Acad"
 90
        0
280
         0
281
         0
  0
CLASS
  1
XRECORD
  2
AcDbXrecord
  3
"<Built In>"
 90
        0
280
         0
281
         0
  0
CLASS
  1
SORTENTSTABLE
  2
AcDbSortentsTable
  3
"AutoCAD"
 90
        0
280
         0
281
         0
  0
CLASS
  1
LAYER_INDEX
  2
AcDbLayerIndex
  3
"Acad"
 90
        0
280
         0
281
         0
  0
CLASS
  1
SPATIAL_INDEX
  2
AcDbSpatialIndex
  3
"Acad"
 90
        0
280
         0
281
         0
  0
CLASS
  1
OBJECT_PTR
  2
CAseDLPNTableRecord
  3
"ASE-LPNTableRecord"
 90
        1
280
         0
281
         0
  0
CLASS
  1
LAYOUT
  2
AcDbLayout
  3
"AutoCAD 2000"
 90
        1
280
         0
281
         0
  0
CLASS
  1
PLOTSETTINGS
  2
AcDbPlotSettings
  3
"AutoCAD 2000"
 90
        1
280
         0
281
         0
  0
CLASS
  1
ACDBDICTIONARYWDFLT
  2
AcDbDictionaryWithDefault
  3
"AutoCAD 2000"
 90
        1
280
         0
281
         0
  0
CLASS
  1
ACDBPLACEHOLDER
  2
AcDbPlaceHolder
  3
"AutoCAD 2000"
 90
        1
280
         0
281
         0
  0
CLASS
  1
VBA_PROJECT
  2
AcDbVbaProject
  3
"acadvba"
 90
        1
280
         0
281
         0
  0
CLASS
  1
WIPEOUT
  2
AcDbWipeout
  3
WipeOut|AutoCAD Express Tool|expresstools@autodesk.com
 90
      127
280
         0
281
         1
  0
CLASS
  1
WIPEOUTVARIABLES
  2
AcDbWipeoutVariables
  3
WipeOut|AutoCAD Express Tool|expresstools@autodesk.com
 90
        0
280
         0
281
         0
  0
CLASS
  1
RTEXT
  2
RText
  3
RText|AutoCAD Express Tool|expresstools@autodesk.com
 90
        0
280
         0
281
         1
  0
CLASS
  1
ARCALIGNEDTEXT
  2
AcDbArcAlignedText
  3
ATEXT|AutoCAD Express Tool|expresstools@autodesk.com
 90
        0
280
         0
281
         1
  0
ENDSEC
  0
SECTION
  2
TABLES
  0
TABLE
  2
VPORT
  5
7
100
AcDbSymbolTable
 70
         1
  0
VPORT
  5
15
100
AcDbSymbolTableRecord
100
AcDbViewportTableRecord
  2
*ACTIVE
 70
         0
 10
0.0
 20
0.0
 11
1.0
 21
1.0
 12
210.0
 22
148.5
 13
0.0
 23
0.0
 14
1.0
 24
1.0
 15
0.0
 25
0.0
 16
0.0
 26
0.0
 36
1.0
 17
0.0
 27
0.0
 37
0.0
 40
297.0
 41
1.604229
 42
50.0
 43
0.0
 44
0.0
 50
0.0
 51
0.0
 71
         0
 72
       100
 73
         1
 74
         1
 75
         0
 76
         0
 77
         0
 78
         0
  0
ENDTAB
  0
TABLE
  2
LTYPE
  5
4
100
AcDbSymbolTable
 70
         7
  0
LTYPE
  5
11
100
AcDbSymbolTableRecord
100
AcDbLinetypeTableRecord
  2
ByBlock
 70
        64
  3

 72
        65
 73
         0
 40
0.0
  0
LTYPE
  5
12
100
AcDbSymbolTableRecord
100
AcDbLinetypeTableRecord
  2
ByLayer
 70
        64
  3

 72
        65
 73
         0
 40
0.0
  0
LTYPE
  5
13
100
AcDbSymbolTableRecord
100
AcDbLinetypeTableRecord
  2
CONTINUOUS
 70
         0
  3
Solid line
 72
        65
 73
         0
 40
0.0
  0
LTYPE
  5
28
100
AcDbSymbolTableRecord
100
AcDbLinetypeTableRecord
  2
HIDDEN2
 70
        64
  3
_ _ _ _ _ _ _ _ _ _ _ _ _ _ _ _ _ _ _ _ _ _ _ _
 72
        65
 73
         2
 40
0.1875
 49
0.125
 74
         0
 49
-0.0625
 74
         0
  0
LTYPE
  5
29
100
AcDbSymbolTableRecord
100
AcDbLinetypeTableRecord
  2
CENTER2
 70
        64
  3
___ _ ___ _ ___ _ ___ _ ___ _ ___ _ ___ _ ___ _
 72
        65
 73
         4
 40
1.125
 49
0.75
 74
         0
 49
-0.125
 74
         0
 49
0.125
 74
         0
 49
-0.125
 74
         0
  0
LTYPE
  5
2A
100
AcDbSymbolTableRecord
100
AcDbLinetypeTableRecord
  2
PHANTOM2
 70
        64
  3
___ _ _ ___ _ _ ___ _ _ ___ _ _ ___ _ _ ___ _ _
 72
        65
 73
         6
 40
1.25
 49
0.625
 74
         0
 49
-0.125
 74
         0
 49
0.125
 74
         0
 49
-0.125
 74
         0
 49
0.125
 74
         0
 49
-0.125
 74
         0
  0
LTYPE
  5
2B
100
AcDbSymbolTableRecord
100
AcDbLinetypeTableRecord
  2
DOT2
 70
        64
  3
...............................................
 72
        65
 73
         2
 40
0.125
 49
0.0
 74
         0
 49
-0.125
 74
         0
  0
ENDTAB
  0
TABLE
  2
LAYER
  5
2
100
AcDbSymbolTable
 70
         3
  0
LAYER
  5
14
100
AcDbSymbolTableRecord
100
AcDbLayerTableRecord
  2
0
 70
         0
 62
         7
  6
CONTINUOUS
  0
LAYER
  5
2D
100
AcDbSymbolTableRecord
100
AcDbLayerTableRecord
  2
DEFAULT
 70
         0
 62
         7
  6
CONTINUOUS
  0
LAYER
  5
37
100
AcDbSymbolTableRecord
100
AcDbLayerTableRecord
  2
51060010
 70
         0
 62
         7
  6
CONTINUOUS
  0
ENDTAB
  0
TABLE
  2
STYLE
  5
3
100
AcDbSymbolTable
 70
         1
  0
STYLE
  5
17
100
AcDbSymbolTableRecord
100
AcDbTextStyleTableRecord
  2
Standard
 70
         0
 40
0.0
 41
1.0
 50
0.0
 71
         0
 42
0.2
  3
txt
  4

  0
ENDTAB
  0
TABLE
  2
VIEW
  5
5
100
AcDbSymbolTable
 70
         0
  0
ENDTAB
  0
TABLE
  2
UCS
  5
6
100
AcDbSymbolTable
 70
         0
  0
ENDTAB
  0
TABLE
  2
APPID
  5
8
100
AcDbSymbolTable
 70
         1
  0
APPID
  5
16
100
AcDbSymbolTableRecord
100
AcDbRegAppTableRecord
  2
ACAD
 70
         0
  0
ENDTAB
  0
TABLE
  2
DIMSTYLE
  5
9
100
AcDbSymbolTable
 70
         1
  0
DIMSTYLE
105
18
100
AcDbSymbolTableRecord
100
AcDbDimStyleTableRecord
  2
Standard
 70
         0
  3

  4

  5

  6

  7

 40
1.0
 41
0.18
 42
0.0625
 43
0.38
 44
0.18
 45
0.0
 46
0.0
 47
0.0
 48
0.0
 71
         0
 72
         0
 73
         1
 74
         1
 75
         0
 76
         0
 77
         0
 78
         0
140
0.18
141
0.09
142
0.0
143
25.4
144
1.0
145
0.0
146
1.0
147
0.09
170
         0
171
         2
172
         0
173
         0
174
         0
175
         0
176
         0
177
         0
178
         0
270
         2
271
         4
272
         4
273
         2
274
         2
275
         0
280
         0
281
         0
282
         0
283
         1
284
         0
285
         0
286
         0
287
         0
288
         0
340
17
  0
ENDTAB
  0
TABLE
  2
BLOCK_RECORD
  5
1
100
AcDbSymbolTable
 70
         8
  0
BLOCK_RECORD
  5
A
100
AcDbSymbolTableRecord
100
AcDbBlockTableRecord
  2
*MODEL_SPACE
  0
BLOCK_RECORD
  5
B
100
AcDbSymbolTableRecord
100
AcDbBlockTableRecord
  2
*PAPER_SPACE
  0
BLOCK_RECORD
  5
38
100
AcDbSymbolTableRecord
100
AcDbBlockTableRecord
  2
SE0
  0
BLOCK_RECORD
  5
39
100
AcDbSymbolTableRecord
100
AcDbBlockTableRecord
  2
SE1
  0
BLOCK_RECORD
  5
3F
100
AcDbSymbolTableRecord
100
AcDbBlockTableRecord
  2
SE2
  0
BLOCK_RECORD
  5
40
100
AcDbSymbolTableRecord
100
AcDbBlockTableRecord
  2
SE3
  0
BLOCK_RECORD
  5
46
100
AcDbSymbolTableRecord
100
AcDbBlockTableRecord
  2
SE4
  0
BLOCK_RECORD
  5
47
100
AcDbSymbolTableRecord
100
AcDbBlockTableRecord
  2
SE5
  0
BLOCK_RECORD
  5
4D
100
AcDbSymbolTableRecord
100
AcDbBlockTableRecord
  2
SE6
  0
BLOCK_RECORD
  5
4E
100
AcDbSymbolTableRecord
100
AcDbBlockTableRecord
  2
SE7
  0
ENDTAB
  0
ENDSEC
  0
SECTION
  2
BLOCKS
  0
BLOCK
  5
D
100
AcDbEntity
  8
0
100
AcDbBlockBegin
  2
*MODEL_SPACE
 70
         0
 10
0.0
 20
0.0
 30
0.0
  3
*MODEL_SPACE
  1

  0
ENDBLK
  5
E
100
AcDbEntity
  8
0
100
AcDbBlockEnd
  0
BLOCK
  5
F
100
AcDbEntity
 67
         1
  8
0
100
AcDbBlockBegin
  2
*PAPER_SPACE
 70
         0
 10
0.0
 20
0.0
 30
0.0
  3
*PAPER_SPACE
  1

  0
ENDBLK
  5
10
100
AcDbEntity
 67
         1
  8
0
100
AcDbBlockEnd
  0
BLOCK
  5
D2
100
AcDbEntity
  8
0
 62
         1
 48
0.0
100
AcDbBlockBegin
  2
SE0
 70
         0
 10
0.0
 20
0.0
 30
0.0
  3
SE0
  1

  0
ENDBLK
  5
D3
100
AcDbEntity
  8
0
 62
         1
 48
0.0
100
AcDbBlockEnd
  0
BLOCK
  5
54
100
AcDbEntity
  8
0
 62
         1
 48
0.0
100
AcDbBlockBegin
  2
SE1
 70
         0
 10
0.0
 20
0.0
 30
0.0
  3
SE1
  1

  0
ARC
  5
55
100
AcDbEntity
  8
51060010
  6
CONTINUOUS
 62
         7
100
AcDbCircle
 10
95.2660362952
 20
-12.9653609358
 30
0.0
 40
68.0744581471
100
AcDbArc
 50
138.4529883044
 51
142.6948602181
  0
LINE
  5
56
100
AcDbEntity
  8
51060010
  6
CONTINUOUS
 62
         7
100
AcDbLine
 10
28.7683109201
 20
78.733959464
 30
0.0
 11
28.7683109201
 21
73.733959464
 31
0.0
  0
LINE
  5
57
100
AcDbEntity
  8
51060010
  6
CONTINUOUS
 62
         7
100
AcDbLine
 10
23.8183109201
 20
61.933959464
 30
0.0
 11
23.8183109201
 21
57.633959464
 31
0.0
  0
ARC
  5
58
100
AcDbEntity
  8
51060010
  6
CONTINUOUS
 62
         7
100
AcDbCircle
 10
41.2086196561
 20
21.933959464
 30
0.0
 40
33.1529307334
100
AcDbArc
 50
168.95602542
 51
191.04397458
  0
LINE
  5
59
100
AcDbEntity
  8
51060010
  6
CONTINUOUS
 62
         7
100
AcDbLine
 10
17.1183109201
 20
48.433959464
 30
0.0
 11
17.1183109201
 21
45.433959464
 31
0.0
  0
ARC
  5
5A
100
AcDbEntity
  8
51060010
  6
CONTINUOUS
 62
         7
100
AcDbCircle
 10
7.0481941698
 20
12.4076800224
 30
0.0
 40
8.5400732448
100
AcDbArc
 50
338.1716867869
 51
21.8283132131
  0
ARC
  5
5B
100
AcDbEntity
  8
51060010
  6
CONTINUOUS
 62
         7
100
AcDbCircle
 10
-17.5629911943
 20
21.933959464
 30
0.0
 40
33.152931538
100
AcDbArc
 50
348.9560256914
 51
11.0439743086
  0
LINE
  5
5C
100
AcDbEntity
  8
51060010
  6
CONTINUOUS
 62
         7
100
AcDbLine
 10
44.3183109201
 20
33.433959464
 30
0.0
 11
47.6183109201
 21
35.3392153524
 31
0.0
  0
LINE
  5
5D
100
AcDbEntity
  8
51060010
  6
CONTINUOUS
 62
         7
100
AcDbLine
 10
7.8683109201
 20
11.433959464
 30
0.0
 11
8.6696663404
 21
9.2322535419
 31
0.0
  0
ARC
  5
5E
100
AcDbEntity
  8
51060010
  6
CONTINUOUS
 62
         7
100
AcDbCircle
 10
7.0481941698
 20
31.4602389057
 30
0.0
 40
8.5400732448
100
AcDbArc
 50
338.1716867869
 51
21.8283132131
  0
LINE
  5
5F
100
AcDbEntity
  8
51060010
  6
CONTINUOUS
 62
         7
100
AcDbLine
 10
56.5669554998
 20
34.6356653862
 30
0.0
 11
50.2606588989
 21
34.6356653862
 31
0.0
  0
LINE
  5
60
100
AcDbEntity
  8
51060010
  6
CONTINUOUS
 62
         7
100
AcDbLine
 10
56.5669554998
 20
28.2848124251
 30
0.0
 11
50.2606588989
 21
28.2848124251
 31
0.0
  0
LINE
  5
61
100
AcDbEntity
  8
51060010
  6
CONTINUOUS
 62
         7
100
AcDbLine
 10
14.9759629412
 20
28.2848124251
 30
0.0
 11
8.6696663404
 21
28.2848124251
 31
0.0
  0
LINE
  5
62
100
AcDbEntity
  8
51060010
  6
CONTINUOUS
 62
         7
100
AcDbLine
 10
14.9759629412
 20
15.5831065029
 30
0.0
 11
8.6696663404
 21
15.5831065029
 31
0.0
  0
ARC
  5
63
100
AcDbEntity
  8
51060010
  6
CONTINUOUS
 62
         7
100
AcDbCircle
 10
-28.8894278797
 20
-12.0280964026
 30
0.0
 40
66.5996751133
100
AcDbArc
 50
37.2581517254
 51
41.5939985364
  0
LINE
  5
64
100
AcDbEntity
  8
51060010
  6
CONTINUOUS
 62
         7
100
AcDbLine
 10
15.8683109201
 20
11.683959464
 30
0.0
 11
24.1183109201
 21
11.683959464
 31
0.0
  0
LINE
  5
65
100
AcDbEntity
  8
51060010
  6
CONTINUOUS
 62
         7
100
AcDbLine
 10
41.1183109201
 20
9.933959464
 30
0.0
 11
41.1183109201
 21
21.933959464
 31
0.0
  0
LINE
  5
66
100
AcDbEntity
  8
51060010
  6
CONTINUOUS
 62
         7
100
AcDbLine
 10
41.1183109201
 20
35.1691517325
 30
0.0
 11
41.1183109201
 21
21.933959464
 31
0.0
  0
ARC
  5
67
100
AcDbEntity
  8
51060010
  6
CONTINUOUS
 62
         7
100
AcDbCircle
 10
32.6183109201
 20
58.4520203918
 30
0.0
 40
24.5450280432
100
AcDbArc
 50
250.9779754064
 51
289.0220245936
  0
SPLINE
  5
68
100
AcDbEntity
  8
51060010
  6
CONTINUOUS
 62
         7
100
AcDbSpline
210
0.0
220
0.0
230
1.0
 70
         8
 71
         3
 72
        14
 73
        10
 74
         0
 42
0.0
 43
0.0
 40
0.0
 40
0.0
 40
0.0
 40
0.0
 40
0.25
 40
0.25
 40
0.5
 40
0.5
 40
0.75
 40
0.75
 40
1.0
 40
1.0
 40
1.0
 40
1.0
 10
41.118310920072645
 20
35.169151732476834
 30
0.0
 10
41.118310920072645
 20
35.198152261760718
 30
0.0
 10
41.107043000857729
 20
35.223716961898866
 30
0.0
 10
41.059755659361478
 20
35.264948259279826
 30
0.0
 10
41.023780605663333
 20
35.280129337464949
 30
0.0
 10
40.930687222294274
 20
35.295891953623084
 30
0.0
 10
40.873273794953001
 20
35.296315939867142
 30
0.0
 10
40.749819306280358
 20
35.282113359462571
 30
0.0
 10
40.683414411565124
 20
35.267575627894452
 30
0.0
 10
40.618310920072645
 20
35.247313937194782
 30
0.0
  0
LINE
  5
69
100
AcDbEntity
  8
51060010
  6
CONTINUOUS
 62
         7
100
AcDbLine
 10
17.1183109201
 20
44.933959464
 30
0.0
 11
48.1183109201
 21
44.933959464
 31
0.0
  0
LINE
  5
6A
100
AcDbEntity
  8
51060010
  6
CONTINUOUS
 62
         7
100
AcDbLine
 10
24.1183109201
 20
33.433959464
 30
0.0
 11
20.9183109201
 21
33.433959464
 31
0.0
  0
LINE
  5
6B
100
AcDbEntity
  8
51060010
  6
CONTINUOUS
 62
         7
100
AcDbLine
 10
17.6183109201
 20
35.3392153524
 30
0.0
 11
47.6183109201
 21
35.3392153524
 31
0.0
  0
LINE
  5
6C
100
AcDbEntity
  8
51060010
  6
CONTINUOUS
 62
         7
100
AcDbLine
 10
17.6183109201
 20
41.433959464
 30
0.0
 11
47.6183109201
 21
41.433959464
 31
0.0
  0
LINE
  5
6D
100
AcDbEntity
  8
51060010
  6
CONTINUOUS
 62
         7
100
AcDbLine
 10
17.1183109201
 20
41.7226345986
 30
0.0
 11
48.1183109201
 21
41.7226345986
 31
0.0
  0
LINE
  5
6E
100
AcDbEntity
  8
51060010
  6
CONTINUOUS
 62
         7
100
AcDbLine
 10
17.1183109201
 20
48.433959464
 30
0.0
 11
48.1183109201
 21
48.433959464
 31
0.0
  0
LINE
  5
6F
100
AcDbEntity
  8
51060010
  6
CONTINUOUS
 62
         7
100
AcDbLine
 10
17.1183109201
 20
45.433959464
 30
0.0
 11
48.1183109201
 21
45.433959464
 31
0.0
  0
LINE
  5
70
100
AcDbEntity
  8
51060010
  6
CONTINUOUS
 62
         7
100
AcDbLine
 10
43.6183109201
 20
57.633959464
 30
0.0
 11
32.6183109201
 21
57.633959464
 31
0.0
  0
LINE
  5
71
100
AcDbEntity
  8
51060010
  6
CONTINUOUS
 62
         7
100
AcDbLine
 10
43.6183109201
 20
48.433959464
 30
0.0
 11
43.6183109201
 21
57.633959464
 31
0.0
  0
LINE
  5
72
100
AcDbEntity
  8
51060010
  6
CONTINUOUS
 62
         7
100
AcDbLine
 10
32.6183109201
 20
48.433959464
 30
0.0
 11
32.6183109201
 21
57.633959464
 31
0.0
  0
LINE
  5
73
100
AcDbEntity
  8
51060010
  6
CONTINUOUS
 62
         7
100
AcDbLine
 10
32.6183109201
 20
57.633959464
 30
0.0
 11
21.6183109201
 21
57.633959464
 31
0.0
  0
LINE
  5
74
100
AcDbEntity
  8
51060010
  6
CONTINUOUS
 62
         7
100
AcDbLine
 10
21.6183109201
 20
48.433959464
 30
0.0
 11
21.6183109201
 21
57.633959464
 31
0.0
  0
LINE
  5
75
100
AcDbEntity
  8
51060010
  6
CONTINUOUS
 62
         7
100
AcDbLine
 10
23.1183109225
 20
61.933959464
 30
0.0
 11
23.1183109225
 21
73.733959464
 31
0.0
  0
LINE
  5
76
100
AcDbEntity
  8
51060010
  6
CONTINUOUS
 62
         7
100
AcDbLine
 10
42.1183109225
 20
61.933959464
 30
0.0
 11
32.6183109201
 21
61.933959464
 31
0.0
  0
LINE
  5
77
100
AcDbEntity
  8
51060010
  6
CONTINUOUS
 62
         7
100
AcDbLine
 10
42.1183109225
 20
61.933959464
 30
0.0
 11
42.1183109225
 21
73.733959464
 31
0.0
  0
LINE
  5
78
100
AcDbEntity
  8
51060010
  6
CONTINUOUS
 62
         7
100
AcDbLine
 10
32.6183109201
 20
61.933959464
 30
0.0
 11
23.1183109225
 21
61.933959464
 31
0.0
  0
LINE
  5
79
100
AcDbEntity
  8
51060010
  6
CONTINUOUS
 62
         7
100
AcDbLine
 10
32.6183109201
 20
61.933959464
 30
0.0
 11
32.6183109201
 21
73.733959464
 31
0.0
  0
LINE
  5
7A
100
AcDbEntity
  8
51060010
  6
CONTINUOUS
 62
         7
100
AcDbLine
 10
42.1183109225
 20
73.733959464
 30
0.0
 11
32.6183109201
 21
73.733959464
 31
0.0
  0
LINE
  5
7B
100
AcDbEntity
  8
51060010
  6
CONTINUOUS
 62
         7
100
AcDbLine
 10
32.6183109201
 20
73.733959464
 30
0.0
 11
23.1183109225
 21
73.733959464
 31
0.0
  0
LINE
  5
7C
100
AcDbEntity
  8
51060010
  6
CONTINUOUS
 62
         7
100
AcDbLine
 10
32.8692373362
 20
30.933959464
 30
0.0
 11
31.9782897448
 21
27.933959464
 31
0.0
  0
LINE
  5
7D
100
AcDbEntity
  8
51060010
  6
CONTINUOUS
 62
         7
100
AcDbLine
 10
34.9528794749
 20
27.933959464
 30
0.0
 11
34.0619318835
 21
30.933959464
 31
0.0
  0
LINE
  5
7E
100
AcDbEntity
  8
51060010
  6
CONTINUOUS
 62
         7
100
AcDbLine
 10
31.9782897448
 20
27.933959464
 30
0.0
 11
33.4663786808
 21
27.933959464
 31
0.0
  0
LINE
  5
7F
100
AcDbEntity
  8
51060010
  6
CONTINUOUS
 62
         7
100
AcDbLine
 10
34.0047587761
 20
27.933959464
 30
0.0
 11
34.9528794749
 21
27.933959464
 31
0.0
  0
LINE
  5
80
100
AcDbEntity
  8
51060010
  6
CONTINUOUS
 62
         7
100
AcDbLine
 10
33.4663786808
 20
27.933959464
 30
0.0
 11
33.6998355363
 21
28.7073845567
 31
0.0
  0
LINE
  5
81
100
AcDbEntity
  8
51060010
  6
CONTINUOUS
 62
         7
100
AcDbLine
 10
34.0619318835
 20
30.933959464
 30
0.0
 11
32.8692373362
 21
30.933959464
 31
0.0
  0
LINE
  5
82
100
AcDbEntity
  8
51060010
  6
CONTINUOUS
 62
         7
100
AcDbLine
 10
33.4663786808
 20
30.190709067
 30
0.0
 11
34.0047587761
 21
27.933959464
 31
0.0
  0
LINE
  5
83
100
AcDbEntity
  8
51060010
  6
CONTINUOUS
 62
         7
100
AcDbLine
 10
33.1153993266
 20
28.7073845567
 30
0.0
 11
33.4663786808
 21
30.190709067
 31
0.0
  0
LINE
  5
84
100
AcDbEntity
  8
51060010
  6
CONTINUOUS
 62
         7
100
AcDbLine
 10
33.6998355363
 20
28.7073845567
 30
0.0
 11
33.1153993266
 21
28.7073845567
 31
0.0
  0
LINE
  5
85
100
AcDbEntity
  8
51060010
  6
CONTINUOUS
 62
         7
100
AcDbLine
 10
30.993641783
 20
27.933959464
 30
0.0
 11
30.993641783
 21
30.1065375477
 31
0.0
  0
LINE
  5
86
100
AcDbEntity
  8
51060010
  6
CONTINUOUS
 62
         7
100
AcDbLine
 10
31.887765658
 20
27.933959464
 30
0.0
 11
30.993641783
 21
27.933959464
 31
0.0
  0
LINE
  5
87
100
AcDbEntity
  8
51060010
  6
CONTINUOUS
 62
         7
100
AcDbLine
 10
31.887765658
 20
30.1065375477
 30
0.0
 11
31.887765658
 21
27.933959464
 31
0.0
  0
LINE
  5
88
100
AcDbEntity
  8
51060010
  6
CONTINUOUS
 62
         7
100
AcDbLine
 10
32.3721489296
 20
30.1065375477
 30
0.0
 11
31.887765658
 21
30.1065375477
 31
0.0
  0
LINE
  5
89
100
AcDbEntity
  8
51060010
  6
CONTINUOUS
 62
         7
100
AcDbLine
 10
32.6183109201
 20
30.933959464
 30
0.0
 11
32.3721489296
 21
30.1065375477
 31
0.0
  0
LINE
  5
8A
100
AcDbEntity
  8
51060010
  6
CONTINUOUS
 62
         7
100
AcDbLine
 10
30.577548612
 20
30.933959464
 30
0.0
 11
32.6183109201
 21
30.933959464
 31
0.0
  0
LINE
  5
8B
100
AcDbEntity
  8
51060010
  6
CONTINUOUS
 62
         7
100
AcDbLine
 10
30.3345629052
 20
30.1065375477
 30
0.0
 11
30.577548612
 21
30.933959464
 31
0.0
  0
LINE
  5
8C
100
AcDbEntity
  8
51060010
  6
CONTINUOUS
 62
         7
100
AcDbLine
 10
30.993641783
 20
30.1065375477
 30
0.0
 11
30.3345629052
 21
30.1065375477
 31
0.0
  0
LINE
  5
8D
100
AcDbEntity
  8
51060010
  6
CONTINUOUS
 62
         7
100
AcDbLine
 10
57.1183109201
 20
85.733959464
 30
0.0
 11
49.176732905
 21
85.733959464
 31
0.0
  0
LINE
  5
8E
100
AcDbEntity
  8
51060010
  6
CONTINUOUS
 62
         7
100
AcDbLine
 10
16.0598889352
 20
85.733959464
 30
0.0
 11
8.1183109201
 21
85.733959464
 31
0.0
  0
LINE
  5
8F
100
AcDbEntity
  8
51060010
  6
CONTINUOUS
 62
         7
100
AcDbLine
 10
40.5598889352
 20
85.733959464
 30
0.0
 11
24.676732905
 21
85.733959464
 31
0.0
  0
ARC
  5
90
100
AcDbEntity
  8
51060010
  6
CONTINUOUS
 62
         7
100
AcDbCircle
 10
14.9305420572
 20
89.8166900052
 30
0.0
 40
6.8127334755
100
AcDbArc
 50
157.90086141
 51
180.6957893437
  0
LINE
  5
91
100
AcDbEntity
  8
51060010
  6
CONTINUOUS
 62
         7
100
AcDbLine
 10
53.6183109201
 20
93.733959464
 30
0.0
 11
11.6183109201
 21
93.733959464
 31
0.0
  0
LINE
  5
92
100
AcDbEntity
  8
51060010
  6
CONTINUOUS
 62
         7
100
AcDbLine
 10
17.6183109201
 20
41.433959464
 30
0.0
 11
17.6183109201
 21
35.3392153524
 31
0.0
  0
LINE
  5
93
100
AcDbEntity
  8
51060010
  6
CONTINUOUS
 62
         7
100
AcDbLine
 10
47.6183109201
 20
41.433959464
 30
0.0
 11
48.1183109201
 21
41.7226345986
 31
0.0
  0
LINE
  5
94
100
AcDbEntity
  8
51060010
  6
CONTINUOUS
 62
         7
100
AcDbLine
 10
17.1183109201
 20
44.933959464
 30
0.0
 11
17.1183109201
 21
41.7226345986
 31
0.0
  0
LINE
  5
95
100
AcDbEntity
  8
51060010
  6
CONTINUOUS
 62
         7
100
AcDbLine
 10
17.6183109201
 20
45.433959464
 30
0.0
 11
17.1183109201
 21
44.933959464
 31
0.0
  0
LINE
  5
96
100
AcDbEntity
  8
51060010
  6
CONTINUOUS
 62
         7
100
AcDbLine
 10
41.1183109201
 20
11.683959464
 30
0.0
 11
49.3683109201
 21
11.683959464
 31
0.0
  0
LINE
  5
97
100
AcDbEntity
  8
51060010
  6
CONTINUOUS
 62
         7
100
AcDbLine
 10
57.3683109201
 20
32.433959464
 30
0.0
 11
56.5669554998
 21
34.6356653862
 31
0.0
  0
LINE
  5
98
100
AcDbEntity
  8
51060010
  6
CONTINUOUS
 62
         7
100
AcDbLine
 10
49.3683109201
 20
11.683959464
 30
0.0
 11
50.2606588989
 21
9.2322535419
 31
0.0
  0
LINE
  5
99
100
AcDbEntity
  8
51060010
  6
CONTINUOUS
 62
         7
100
AcDbLine
 10
15.8683109201
 20
32.183959464
 30
0.0
 11
14.9759629412
 21
34.6356653862
 31
0.0
  0
LINE
  5
9A
100
AcDbEntity
  8
51060010
  6
CONTINUOUS
 62
         7
100
AcDbLine
 10
57.3683109201
 20
32.433959464
 30
0.0
 11
57.3683109201
 21
11.433959464
 31
0.0
  0
LINE
  5
9B
100
AcDbEntity
  8
51060010
  6
CONTINUOUS
 62
         7
100
AcDbLine
 10
7.8683109201
 20
32.433959464
 30
0.0
 11
7.8683109201
 21
11.433959464
 31
0.0
  0
LINE
  5
9C
100
AcDbEntity
  8
51060010
  6
CONTINUOUS
 62
         7
100
AcDbLine
 10
49.3683109201
 20
32.183959464
 30
0.0
 11
49.3683109201
 21
11.683959464
 31
0.0
  0
LINE
  5
9D
100
AcDbEntity
  8
51060010
  6
CONTINUOUS
 62
         7
100
AcDbLine
 10
15.8683109201
 20
32.183959464
 30
0.0
 11
15.8683109201
 21
11.683959464
 31
0.0
  0
LINE
  5
9E
100
AcDbEntity
  8
51060010
  6
CONTINUOUS
 62
         7
100
AcDbLine
 10
41.1183109201
 20
33.433959464
 30
0.0
 11
44.3183109201
 21
33.433959464
 31
0.0
  0
LINE
  5
9F
100
AcDbEntity
  8
51060010
  6
CONTINUOUS
 62
         7
100
AcDbLine
 10
24.1183109201
 20
21.933959464
 30
0.0
 11
24.1183109201
 21
35.1691517325
 31
0.0
  0
LINE
  5
A0
100
AcDbEntity
  8
51060010
  6
CONTINUOUS
 62
         7
100
AcDbLine
 10
24.1183109201
 20
9.933959464
 30
0.0
 11
24.1183109201
 21
21.933959464
 31
0.0
  0
SPLINE
  5
A1
100
AcDbEntity
  8
51060010
  6
CONTINUOUS
 62
         7
100
AcDbSpline
210
0.0
220
0.0
230
1.0
 70
         8
 71
         3
 72
        14
 73
        10
 74
         0
 42
0.0
 43
0.0
 40
0.0
 40
0.0
 40
0.0
 40
0.0
 40
0.25
 40
0.25
 40
0.5
 40
0.5
 40
0.75
 40
0.75
 40
1.0
 40
1.0
 40
1.0
 40
1.0
 10
24.618310920072648
 20
35.247313937194782
 30
0.0
 10
24.553323281596164
 20
35.267539571794806
 30
0.0
 10
24.487283816897818
 20
35.282020653019273
 30
0.0
 10
24.363883921098019
 20
35.296291322671358
 30
0.0
 10
24.306482382022121
 20
35.295917227917585
 30
0.0
 10
24.213341015891782
 20
35.280280678886257
 30
0.0
 10
24.1771415524791
 20
35.265142520940238
 30
0.0
 10
24.129506428758862
 20
35.223699473316181
 30
0.0
 10
24.118310920072648
 20
35.198135427704919
 30
0.0
 10
24.118310920072648
 20
35.169151732476834
 30
0.0
  0
ARC
  5
A2
100
AcDbEntity
  8
51060010
  6
CONTINUOUS
 62
         7
100
AcDbCircle
 10
16.5974351118
 20
31.4602389057
 30
0.0
 40
8.5400732448
100
AcDbArc
 50
158.1716867869
 51
201.8283132131
  0
LINE
  5
A3
100
AcDbEntity
  8
51060010
  6
CONTINUOUS
 62
         7
100
AcDbLine
 10
14.9759629412
 20
34.6356653862
 30
0.0
 11
8.6696663404
 21
34.6356653862
 31
0.0
  0
LINE
  5
A4
100
AcDbEntity
  8
51060010
  6
CONTINUOUS
 62
         7
100
AcDbLine
 10
14.9759629412
 20
9.2322535419
 30
0.0
 11
8.6696663404
 21
9.2322535419
 31
0.0
  0
ARC
  5
A5
100
AcDbEntity
  8
51060010
  6
CONTINUOUS
 62
         7
100
AcDbCircle
 10
58.1884276704
 20
12.4076800224
 30
0.0
 40
8.5400732448
100
AcDbArc
 50
158.1716867869
 51
201.8283132131
  0
ARC
  5
A6
100
AcDbEntity
  8
51060010
  6
CONTINUOUS
 62
         7
100
AcDbCircle
 10
82.7996130344
 20
21.933959464
 30
0.0
 40
33.152931538
100
AcDbArc
 50
168.9560256914
 51
191.0439743086
  0
ARC
  5
A7
100
AcDbEntity
  8
51060010
  6
CONTINUOUS
 62
         7
100
AcDbCircle
 10
58.1884276704
 20
31.4602389057
 30
0.0
 40
8.5400732448
100
AcDbArc
 50
158.1716867869
 51
201.8283132131
  0
LINE
  5
A8
100
AcDbEntity
  8
51060010
  6
CONTINUOUS
 62
         7
100
AcDbLine
 10
56.5669554998
 20
15.5831065029
 30
0.0
 11
50.2606588989
 21
15.5831065029
 31
0.0
  0
ARC
  5
A9
100
AcDbEntity
  8
51060010
  6
CONTINUOUS
 62
         7
100
AcDbCircle
 10
24.0280021841
 20
21.933959464
 30
0.0
 40
33.1529307334
100
AcDbArc
 50
348.95602542
 51
11.04397458
  0
ARC
  5
AA
100
AcDbEntity
  8
51060010
  6
CONTINUOUS
 62
         7
100
AcDbCircle
 10
16.5974351118
 20
12.4076800224
 30
0.0
 40
8.5400732448
100
AcDbArc
 50
158.1716867869
 51
201.8283132131
  0
ARC
  5
AB
100
AcDbEntity
  8
51060010
  6
CONTINUOUS
 62
         7
100
AcDbCircle
 10
48.6391867283
 20
31.4602389057
 30
0.0
 40
8.5400732448
100
AcDbArc
 50
338.1716867869
 51
21.8283132131
  0
ARC
  5
AC
100
AcDbEntity
  8
51060010
  6
CONTINUOUS
 62
         7
100
AcDbCircle
 10
48.6391867283
 20
12.4076800224
 30
0.0
 40
8.5400732448
100
AcDbArc
 50
338.1716867869
 51
21.8283132131
  0
LINE
  5
AD
100
AcDbEntity
  8
51060010
  6
CONTINUOUS
 62
         7
100
AcDbLine
 10
56.5669554998
 20
9.2322535419
 30
0.0
 11
50.2606588989
 21
9.2322535419
 31
0.0
  0
LINE
  5
AE
100
AcDbEntity
  8
51060010
  6
CONTINUOUS
 62
         7
100
AcDbLine
 10
36.4683109201
 20
73.733959464
 30
0.0
 11
36.4683109201
 21
78.733959464
 31
0.0
  0
LINE
  5
AF
100
AcDbEntity
  8
51060010
  6
CONTINUOUS
 62
         7
100
AcDbLine
 10
44.3183109201
 20
32.1740042718
 30
0.0
 11
44.3183109201
 21
33.433959464
 31
0.0
  0
LINE
  5
B0
100
AcDbEntity
  8
51060010
  6
CONTINUOUS
 62
         7
100
AcDbLine
 10
41.4183109201
 20
57.633959464
 30
0.0
 11
41.4183109201
 21
61.933959464
 31
0.0
  0
LINE
  5
B1
100
AcDbEntity
  8
51060010
  6
CONTINUOUS
 62
         7
100
AcDbLine
 10
48.1183109201
 20
45.433959464
 30
0.0
 11
48.1183109201
 21
48.433959464
 31
0.0
  0
LINE
  5
B2
100
AcDbEntity
  8
51060010
  6
CONTINUOUS
 62
         7
100
AcDbLine
 10
17.6183109201
 20
35.3392153524
 30
0.0
 11
20.9183109201
 21
33.433959464
 31
0.0
  0
LINE
  5
B3
100
AcDbEntity
  8
51060010
  6
CONTINUOUS
 62
         7
100
AcDbLine
 10
8.6696663404
 20
34.6356653862
 30
0.0
 11
7.8683109201
 21
32.433959464
 31
0.0
  0
LINE
  5
B4
100
AcDbEntity
  8
51060010
  6
CONTINUOUS
 62
         7
100
AcDbLine
 10
24.6183109201
 20
9.433959464
 30
0.0
 11
40.6183109201
 21
9.433959464
 31
0.0
  0
LINE
  5
B5
100
AcDbEntity
  8
51060010
  6
CONTINUOUS
 62
         7
100
AcDbLine
 10
20.9265165917
 20
32.183959464
 30
0.0
 11
15.8683109201
 21
32.183959464
 31
0.0
  0
ARC
  5
B6
100
AcDbEntity
  8
51060010
  6
CONTINUOUS
 62
         7
100
AcDbCircle
 10
53.6183109201
 20
89.733959464
 30
0.0
 40
4.0
100
AcDbArc
 50
41.2986384211
 51
90.0
  0
ARC
  5
B7
100
AcDbEntity
  8
51060010
  6
CONTINUOUS
 62
         7
100
AcDbCircle
 10
11.6183109201
 20
89.733959464
 30
0.0
 40
4.0
100
AcDbArc
 50
90.0
 51
138.6989030001
  0
LINE
  5
B8
100
AcDbEntity
  8
51060010
  6
CONTINUOUS
 62
         7
100
AcDbLine
 10
47.6183109201
 20
35.3392153524
 30
0.0
 11
47.6183109201
 21
41.433959464
 31
0.0
  0
LINE
  5
B9
100
AcDbEntity
  8
51060010
  6
CONTINUOUS
 62
         7
100
AcDbLine
 10
17.1183109201
 20
41.7226345986
 30
0.0
 11
17.6183109201
 21
41.433959464
 31
0.0
  0
LINE
  5
BA
100
AcDbEntity
  8
51060010
  6
CONTINUOUS
 62
         7
100
AcDbLine
 10
48.1183109201
 20
41.7226345986
 30
0.0
 11
48.1183109201
 21
44.933959464
 31
0.0
  0
LINE
  5
BB
100
AcDbEntity
  8
51060010
  6
CONTINUOUS
 62
         7
100
AcDbLine
 10
48.1183109201
 20
44.933959464
 30
0.0
 11
47.6183109201
 21
45.433959464
 31
0.0
  0
LINE
  5
BC
100
AcDbEntity
  8
51060010
  6
CONTINUOUS
 62
         7
100
AcDbLine
 10
20.9183109201
 20
33.433959464
 30
0.0
 11
20.9183109201
 21
32.17461398
 31
0.0
  0
LINE
  5
BD
100
AcDbEntity
  8
51060010
  6
CONTINUOUS
 62
         7
100
AcDbLine
 10
49.3683109201
 20
32.183959464
 30
0.0
 11
44.3095151637
 21
32.183959464
 31
0.0
  0
LINE
  5
BE
100
AcDbEntity
  8
51060010
  6
CONTINUOUS
 62
         7
100
AcDbLine
 10
56.5669554998
 20
9.2322535419
 30
0.0
 11
57.3683109201
 21
11.433959464
 31
0.0
  0
ARC
  5
BF
100
AcDbEntity
  8
51060010
  6
CONTINUOUS
 62
         7
100
AcDbCircle
 10
40.6183109201
 20
9.933959464
 30
0.0
 40
0.5
100
AcDbArc
 50
270.0
 51
360.0
  0
ARC
  5
C0
100
AcDbEntity
  8
51060010
  6
CONTINUOUS
 62
         7
100
AcDbCircle
 10
24.6183109201
 20
9.933959464
 30
0.0
 40
0.5
100
AcDbArc
 50
180.0
 51
270.0
  0
LINE
  5
C1
100
AcDbEntity
  8
51060010
  6
CONTINUOUS
 62
         7
100
AcDbLine
 10
50.2606588989
 20
34.6356653862
 30
0.0
 11
49.3683109201
 21
32.183959464
 31
0.0
  0
LINE
  5
C2
100
AcDbEntity
  8
51060010
  6
CONTINUOUS
 62
         7
100
AcDbLine
 10
14.9759629412
 20
9.2322535419
 30
0.0
 11
15.8683109201
 21
11.683959464
 31
0.0
  0
LINE
  5
C3
100
AcDbEntity
  8
51060010
  6
CONTINUOUS
 62
         7
100
AcDbLine
 10
28.6183109201
 20
78.733959464
 30
0.0
 11
36.6183109201
 21
78.733959464
 31
0.0
  0
LINE
  5
C4
100
AcDbEntity
  8
51060010
  6
CONTINUOUS
 62
         7
100
AcDbLine
 10
28.6183109201
 20
85.733959464
 30
0.0
 11
28.6183109201
 21
78.733959464
 31
0.0
  0
LINE
  5
C5
100
AcDbEntity
  8
51060010
  6
CONTINUOUS
 62
         7
100
AcDbLine
 10
36.6183109201
 20
85.733959464
 30
0.0
 11
36.6183109201
 21
78.733959464
 31
0.0
  0
LINE
  5
C6
100
AcDbEntity
  8
51060010
  6
CONTINUOUS
 62
         7
100
AcDbLine
 10
8.1183109201
 20
85.733959464
 30
0.0
 11
8.1183109201
 21
89.733959464
 31
0.0
  0
LINE
  5
C7
100
AcDbEntity
  8
51060010
  6
CONTINUOUS
 62
         7
100
AcDbLine
 10
24.676732905
 20
85.733959464
 30
0.0
 11
24.676732905
 21
89.733959464
 31
0.0
  0
LINE
  5
C8
100
AcDbEntity
  8
51060010
  6
CONTINUOUS
 62
         7
100
AcDbLine
 10
57.1183109201
 20
89.733959464
 30
0.0
 11
57.1183109201
 21
85.733959464
 31
0.0
  0
LINE
  5
C9
100
AcDbEntity
  8
51060010
  6
CONTINUOUS
 62
         7
100
AcDbLine
 10
16.0598889352
 20
85.733959464
 30
0.0
 11
24.676732905
 21
85.733959464
 31
0.0
  0
LINE
  5
CA
100
AcDbEntity
  8
51060010
  6
CONTINUOUS
 62
         7
100
AcDbLine
 10
16.0598889352
 20
89.733959464
 30
0.0
 11
16.0598889352
 21
85.733959464
 31
0.0
  0
LINE
  5
CB
100
AcDbEntity
  8
51060010
  6
CONTINUOUS
 62
         7
100
AcDbLine
 10
40.5598889352
 20
85.733959464
 30
0.0
 11
49.176732905
 21
85.733959464
 31
0.0
  0
LINE
  5
CC
100
AcDbEntity
  8
51060010
  6
CONTINUOUS
 62
         7
100
AcDbLine
 10
49.176732905
 20
85.733959464
 30
0.0
 11
49.176732905
 21
89.733959464
 31
0.0
  0
LINE
  5
CD
100
AcDbEntity
  8
51060010
  6
CONTINUOUS
 62
         7
100
AcDbLine
 10
40.5598889352
 20
89.733959464
 30
0.0
 11
40.5598889352
 21
85.733959464
 31
0.0
  0
SPLINE
  5
CE
100
AcDbEntity
  8
51060010
  6
CONTINUOUS
 62
         7
100
AcDbSpline
210
0.0
220
0.0
230
1.0
 70
         8
 71
         3
 72
        18
 73
        14
 74
         0
 42
0.0
 43
0.0
 40
0.0
 40
0.0
 40
0.0
 40
0.0
 40
0.1249999999999996
 40
0.1249999999999996
 40
0.2499999999999993
 40
0.2499999999999993
 40
0.5000000000000001
 40
0.5000000000000001
 40
0.7500000000000009
 40
0.7500000000000009
 40
0.8750000000000004
 40
0.8750000000000004
 40
1.0
 40
1.0
 40
1.0
 40
1.0
 10
49.176732904978444
 20
89.733959464028743
 30
0.0
 10
49.176732904978451
 20
90.258944283921025
 30
0.0
 10
48.910462802537076
 20
90.745318050249452
 30
0.0
 10
48.205505427309234
 20
91.453586336944198
 30
0.0
 10
47.771281143116894
 20
91.702757500943775
 30
0.0
 10
46.439514406520082
 20
92.253786993885754
 30
0.0
 10
45.510230707097087
 20
92.379797997976553
 30
0.0
 10
43.724807799696762
 20
92.379623474831362
 30
0.0
 10
42.865023605775512
 20
92.254290355904544
 30
0.0
 10
41.706817336836174
 20
91.702696860276191
 30
0.0
 10
41.346518243156076
 20
91.456813687149477
 30
0.0
 10
40.765614148105506
 20
90.740699540895079
 30
0.0
 10
40.559888935164892
 20
90.257749683946898
 30
0.0
 10
40.559888935165574
 20
89.7339594640288
 30
0.0
  0
ARC
  5
CF
100
AcDbEntity
  8
51060010
  6
CONTINUOUS
 62
         7
100
AcDbCircle
 10
50.306079783
 20
89.8166900052
 30
0.0
 40
6.8127334755
100
AcDbArc
 50
359.3042106563
 51
22.09913859
  0
SPLINE
  5
D0
100
AcDbEntity
  8
51060010
  6
CONTINUOUS
 62
         7
100
AcDbSpline
210
0.0
220
0.0
230
1.0
 70
         8
 71
         3
 72
        18
 73
        14
 74
         0
 42
0.0
 43
0.0
 40
0.0
 40
0.0
 40
0.0
 40
0.0
 40
0.125
 40
0.125
 40
0.2500000000000001
 40
0.2500000000000001
 40
0.5000000000000001
 40
0.5000000000000001
 40
0.7500000000000002
 40
0.7500000000000002
 40
0.8750000000000001
 40
0.8750000000000001
 40
1.0
 40
1.0
 40
1.0
 40
1.0
 10
24.676732904976191
 20
89.733959464028743
 30
0.0
 10
24.676732904976198
 20
90.258944283920655
 30
0.0
 10
24.467479026229693
 20
90.745318050248827
 30
0.0
 10
23.892503341244701
 20
91.45358633694309
 30
0.0
 10
23.529600054849624
 20
91.702757500942525
 30
0.0
 10
22.372809323503368
 20
92.253786993884233
 30
0.0
 10
21.510268383839577
 20
92.379797997975018
 30
0.0
 10
19.724770089529581
 20
92.37962347482987
 30
0.0
 10
18.798487699981408
 20
92.254290355903038
 30
0.0
 10
17.46511232606619
 20
91.702696860274955
 30
0.0
 10
17.034071263299985
 20
91.456813687148397
 30
0.0
 10
16.321820031791791
 20
90.740699540894468
 30
0.0
 10
16.059888935168264
 20
90.257749683946543
 30
0.0
 10
16.05988893516912
 20
89.7339594640288
 30
0.0
  0
ENDBLK
  5
D1
100
AcDbEntity
  8
51060010
  6
CONTINUOUS
 62
         7
100
AcDbBlockEnd
  0
BLOCK
  5
132
100
AcDbEntity
  8
0
 62
         1
 48
0.0
100
AcDbBlockBegin
  2
SE2
 70
         0
 10
0.0
 20
0.0
 30
0.0
  3
SE2
  1

  0
ENDBLK
  5
133
100
AcDbEntity
  8
0
 62
         1
 48
0.0
100
AcDbBlockEnd
  0
BLOCK
  5
D4
100
AcDbEntity
  8
0
 62
         1
 48
0.0
100
AcDbBlockBegin
  2
SE3
 70
         0
 10
0.0
 20
0.0
 30
0.0
  3
SE3
  1

  0
LINE
  5
D5
100
AcDbEntity
  8
51060010
  6
CONTINUOUS
 62
         7
100
AcDbLine
 10
8.6696663404
 20
168.1671978207
 30
0.0
 11
8.0502973832
 21
168.1671978207
 31
0.0
  0
LINE
  5
D6
100
AcDbEntity
  8
51060010
  6
CONTINUOUS
 62
         7
100
AcDbLine
 10
15.5953318813
 20
168.1671978207
 30
0.0
 11
14.9759629412
 21
168.1671978207
 31
0.0
  0
ARC
  5
D7
100
AcDbEntity
  8
51060010
  6
CONTINUOUS
 62
         7
100
AcDbCircle
 10
-9.3591966276
 20
162.6671978207
 30
0.0
 40
24.9489476981
100
AcDbArc
 50
347.2645244266
 51
12.7354755734
  0
LINE
  5
D8
100
AcDbEntity
  8
51060010
  6
CONTINUOUS
 62
         7
100
AcDbLine
 10
50.2606588989
 20
146.1671978207
 30
0.0
 11
49.6412899589
 21
146.1671978207
 31
0.0
  0
LINE
  5
D9
100
AcDbEntity
  8
51060010
  6
CONTINUOUS
 62
         7
100
AcDbLine
 10
15.5953318813
 20
146.1671978207
 30
0.0
 11
14.9759629412
 21
146.1671978207
 31
0.0
  0
LINE
  5
DA
100
AcDbEntity
  8
51060010
  6
CONTINUOUS
 62
         7
100
AcDbLine
 10
7.8683109201
 20
146.6671978207
 30
0.0
 11
8.0502960372
 21
146.1671978207
 31
0.0
  0
LINE
  5
DB
100
AcDbEntity
  8
51060010
  6
CONTINUOUS
 62
         7
100
AcDbLine
 10
14.9759629412
 20
168.1671978207
 30
0.0
 11
8.6696663404
 21
168.1671978207
 31
0.0
  0
ARC
  5
DC
100
AcDbEntity
  8
51060010
  6
CONTINUOUS
 62
         7
100
AcDbCircle
 10
74.5958184678
 20
151.6671978207
 30
0.0
 40
24.9489476981
100
AcDbArc
 50
167.2645244266
 51
192.7354755734
  0
LINE
  5
DD
100
AcDbEntity
  8
51060010
  6
CONTINUOUS
 62
         7
100
AcDbLine
 10
15.8683109201
 20
146.9171978207
 30
0.0
 11
24.1183109201
 21
146.9171978207
 31
0.0
  0
LINE
  5
DE
100
AcDbEntity
  8
51060010
  6
CONTINUOUS
 62
         7
100
AcDbLine
 10
41.1183109201
 20
169.1671978207
 30
0.0
 11
41.1183109201
 21
145.1671978207
 31
0.0
  0
ARC
  5
DF
100
AcDbEntity
  8
51060010
  6
CONTINUOUS
 62
         7
100
AcDbCircle
 10
32.6183109201
 20
157.1671978207
 30
0.0
 40
15.5
100
AcDbArc
 50
41.3983545202
 51
138.6016454798
  0
ARC
  5
E0
100
AcDbEntity
  8
51060010
  6
CONTINUOUS
 62
         7
100
AcDbCircle
 10
32.6183109201
 20
157.1671978207
 30
0.0
 40
15.5
100
AcDbArc
 50
221.3983545202
 51
318.6016454798
  0
ARC
  5
E1
100
AcDbEntity
  8
51060010
  6
CONTINUOUS
 62
         7
100
AcDbCircle
 10
32.6183109201
 20
157.1671978207
 30
0.0
 40
15.0
100
AcDbArc
 50
43.1046738199
 51
136.8953261801
  0
ARC
  5
E2
100
AcDbEntity
  8
51060010
  6
CONTINUOUS
 62
         7
100
AcDbCircle
 10
32.6183109201
 20
157.1671978207
 30
0.0
 40
15.0
100
AcDbArc
 50
223.1046738199
 51
316.8953261801
  0
LINE
  5
E3
100
AcDbEntity
  8
51060010
  6
CONTINUOUS
 62
         7
100
AcDbLine
 10
31.9782897448
 20
170.0671978207
 30
0.0
 11
31.9782897448
 21
169.6671978207
 31
0.0
  0
LINE
  5
E4
100
AcDbEntity
  8
51060010
  6
CONTINUOUS
 62
         7
100
AcDbLine
 10
33.4663786808
 20
170.0671978207
 30
0.0
 11
33.4663786808
 21
169.6671978207
 31
0.0
  0
LINE
  5
E5
100
AcDbEntity
  8
51060010
  6
CONTINUOUS
 62
         7
100
AcDbLine
 10
34.9528794749
 20
170.0671978207
 30
0.0
 11
34.9528794749
 21
169.6671978207
 31
0.0
  0
LINE
  5
E6
100
AcDbEntity
  8
51060010
  6
CONTINUOUS
 62
         7
100
AcDbLine
 10
33.6998355363
 20
170.0671978207
 30
0.0
 11
33.6998355363
 21
169.6671978207
 31
0.0
  0
LINE
  5
E7
100
AcDbEntity
  8
51060010
  6
CONTINUOUS
 62
         7
100
AcDbLine
 10
34.0047587761
 20
170.0671978207
 30
0.0
 11
34.0047587761
 21
169.6671978207
 31
0.0
  0
LINE
  5
E8
100
AcDbEntity
  8
51060010
  6
CONTINUOUS
 62
         7
100
AcDbLine
 10
31.9782897448
 20
170.0671978207
 30
0.0
 11
33.4663786808
 21
170.0671978207
 31
0.0
  0
LINE
  5
E9
100
AcDbEntity
  8
51060010
  6
CONTINUOUS
 62
         7
100
AcDbLine
 10
34.0047587761
 20
170.0671978207
 30
0.0
 11
34.9528794749
 21
170.0671978207
 31
0.0
  0
LINE
  5
EA
100
AcDbEntity
  8
51060010
  6
CONTINUOUS
 62
         7
100
AcDbLine
 10
33.4663786808
 20
170.0671978207
 30
0.0
 11
33.6998355363
 21
170.0671978207
 31
0.0
  0
LINE
  5
EB
100
AcDbEntity
  8
51060010
  6
CONTINUOUS
 62
         7
100
AcDbLine
 10
33.6998355363
 20
170.0671978207
 30
0.0
 11
34.0047587761
 21
170.0671978207
 31
0.0
  0
LINE
  5
EC
100
AcDbEntity
  8
51060010
  6
CONTINUOUS
 62
         7
100
AcDbLine
 10
30.3345629052
 20
170.0671978207
 30
0.0
 11
30.3345629052
 21
169.6671978207
 31
0.0
  0
LINE
  5
ED
100
AcDbEntity
  8
51060010
  6
CONTINUOUS
 62
         7
100
AcDbLine
 10
31.887765658
 20
170.0671978207
 30
0.0
 11
31.887765658
 21
169.6671978207
 31
0.0
  0
LINE
  5
EE
100
AcDbEntity
  8
51060010
  6
CONTINUOUS
 62
         7
100
AcDbLine
 10
31.9782897448
 20
170.0671978207
 30
0.0
 11
31.887765658
 21
170.0671978207
 31
0.0
  0
LINE
  5
EF
100
AcDbEntity
  8
51060010
  6
CONTINUOUS
 62
         7
100
AcDbLine
 10
31.887765658
 20
170.0671978207
 30
0.0
 11
30.993641783
 21
170.0671978207
 31
0.0
  0
LINE
  5
F0
100
AcDbEntity
  8
51060010
  6
CONTINUOUS
 62
         7
100
AcDbLine
 10
30.993641783
 20
170.0671978207
 30
0.0
 11
30.993641783
 21
169.6671978207
 31
0.0
  0
LINE
  5
F1
100
AcDbEntity
  8
51060010
  6
CONTINUOUS
 62
         7
100
AcDbLine
 10
30.993641783
 20
170.0671978207
 30
0.0
 11
30.3345629052
 21
170.0671978207
 31
0.0
  0
ARC
  5
F2
100
AcDbEntity
  8
51060010
  6
CONTINUOUS
 62
         7
100
AcDbCircle
 10
24.155922642
 20
168.6323835859
 30
0.0
 40
3.0
100
AcDbArc
 50
55.5806934102
 51
106.3175947976
  0
ARC
  5
F3
100
AcDbEntity
  8
51060010
  6
CONTINUOUS
 62
         7
100
AcDbCircle
 10
26.4738545122
 20
160.7147013818
 30
0.0
 40
11.2499999782
100
AcDbArc
 50
106.3175947975
 51
143.3920257118
  0
ARC
  5
F4
100
AcDbEntity
  8
51060010
  6
CONTINUOUS
 62
         7
100
AcDbCircle
 10
41.0806991981
 20
168.6323835859
 30
0.0
 40
3.0
100
AcDbArc
 50
73.6824052025
 51
124.3095049235
  0
ARC
  5
F5
100
AcDbEntity
  8
51060010
  6
CONTINUOUS
 62
         7
100
AcDbCircle
 10
38.762767328
 20
160.7147013818
 30
0.0
 40
11.2499999782
100
AcDbArc
 50
36.5934633195
 51
73.6824052025
  0
ARC
  5
F6
100
AcDbEntity
  8
51060010
  6
CONTINUOUS
 62
         7
100
AcDbCircle
 10
38.3162589128
 20
144.1059617126
 30
0.0
 40
3.0
100
AcDbArc
 50
313.6824052025
 51
4.619841807
  0
ARC
  5
F7
100
AcDbEntity
  8
51060010
  6
CONTINUOUS
 62
         7
100
AcDbCircle
 10
32.6183109201
 20
150.0721906985
 30
0.0
 40
11.2499999782
100
AcDbArc
 50
226.3175947975
 51
313.6824052025
  0
ARC
  5
F8
100
AcDbEntity
  8
51060010
  6
CONTINUOUS
 62
         7
100
AcDbCircle
 10
32.6183109201
 20
157.1671978207
 30
0.0
 40
25.0
100
AcDbArc
 50
251.4783409545
 51
288.5216590454
  0
ARC
  5
F9
100
AcDbEntity
  8
51060010
  6
CONTINUOUS
 62
         7
100
AcDbCircle
 10
32.6183109201
 20
157.1671978207
 30
0.0
 40
25.0
100
AcDbArc
 50
311.4783409546
 51
333.8961188627
  0
ARC
  5
FA
100
AcDbEntity
  8
51060010
  6
CONTINUOUS
 62
         7
100
AcDbCircle
 10
32.6183109201
 20
157.1671978207
 30
0.0
 40
25.0
100
AcDbArc
 50
26.1038811373
 51
48.5216590455
  0
ARC
  5
FB
100
AcDbEntity
  8
51060010
  6
CONTINUOUS
 62
         7
100
AcDbCircle
 10
32.6183109201
 20
157.1671978207
 30
0.0
 40
25.0
100
AcDbArc
 50
71.4783409545
 51
108.5216590455
  0
ARC
  5
FC
100
AcDbEntity
  8
51060010
  6
CONTINUOUS
 62
         7
100
AcDbCircle
 10
32.6183109201
 20
157.1671978207
 30
0.0
 40
25.0
100
AcDbArc
 50
131.4783409545
 51
153.8961188627
  0
LINE
  5
FD
100
AcDbEntity
  8
51060010
  6
CONTINUOUS
 62
         7
100
AcDbLine
 10
41.1183109201
 20
146.9171978207
 30
0.0
 11
49.3683109201
 21
146.9171978207
 31
0.0
  0
LINE
  5
FE
100
AcDbEntity
  8
51060010
  6
CONTINUOUS
 62
         7
100
AcDbLine
 10
57.3683109201
 20
167.6671978207
 30
0.0
 11
57.1863258029
 21
168.1671978207
 31
0.0
  0
LINE
  5
FF
100
AcDbEntity
  8
51060010
  6
CONTINUOUS
 62
         7
100
AcDbLine
 10
15.8683109201
 20
167.4171978207
 30
0.0
 11
15.5953332444
 21
168.1671978207
 31
0.0
  0
LINE
  5
100
100
AcDbEntity
  8
51060010
  6
CONTINUOUS
 62
         7
100
AcDbLine
 10
49.3683109201
 20
146.9171978207
 30
0.0
 11
49.6412885958
 21
146.1671978207
 31
0.0
  0
LINE
  5
101
100
AcDbEntity
  8
51060010
  6
CONTINUOUS
 62
         7
100
AcDbLine
 10
40.6183109201
 20
169.6671978207
 30
0.0
 11
24.6183109201
 21
169.6671978207
 31
0.0
  0
LINE
  5
102
100
AcDbEntity
  8
51060010
  6
CONTINUOUS
 62
         7
100
AcDbLine
 10
40.6183109201
 20
144.6671978207
 30
0.0
 11
24.6183109201
 21
144.6671978207
 31
0.0
  0
LINE
  5
103
100
AcDbEntity
  8
51060010
  6
CONTINUOUS
 62
         7
100
AcDbLine
 10
15.8683109201
 20
146.9171978207
 30
0.0
 11
15.8683109201
 21
167.4171978207
 31
0.0
  0
LINE
  5
104
100
AcDbEntity
  8
51060010
  6
CONTINUOUS
 62
         7
100
AcDbLine
 10
49.3683109201
 20
146.9171978207
 30
0.0
 11
49.3683109201
 21
167.4171978207
 31
0.0
  0
LINE
  5
105
100
AcDbEntity
  8
51060010
  6
CONTINUOUS
 62
         7
100
AcDbLine
 10
57.3683109201
 20
146.6671978207
 30
0.0
 11
57.3683109201
 21
167.6671978207
 31
0.0
  0
ARC
  5
106
100
AcDbEntity
  8
51060010
  6
CONTINUOUS
 62
         7
100
AcDbCircle
 10
33.0048259092
 20
151.6671978207
 30
0.0
 40
24.9489476981
100
AcDbArc
 50
167.2645244266
 51
192.7354755734
  0
LINE
  5
107
100
AcDbEntity
  8
51060010
  6
CONTINUOUS
 62
         7
100
AcDbLine
 10
7.8683109201
 20
146.6671978207
 30
0.0
 11
7.8683109201
 21
167.6671978207
 31
0.0
  0
ARC
  5
108
100
AcDbEntity
  8
51060010
  6
CONTINUOUS
 62
         7
100
AcDbCircle
 10
40.6183109201
 20
169.1671978207
 30
0.0
 40
0.5
100
AcDbArc
 50
0.0
 51
90.0
  0
ARC
  5
109
100
AcDbEntity
  8
51060010
  6
CONTINUOUS
 62
         7
100
AcDbCircle
 10
40.6183109201
 20
145.1671978207
 30
0.0
 40
0.5
100
AcDbArc
 50
270.0
 51
360.0
  0
ARC
  5
10A
100
AcDbEntity
  8
51060010
  6
CONTINUOUS
 62
         7
100
AcDbCircle
 10
24.6183109201
 20
145.1671978207
 30
0.0
 40
0.5
100
AcDbArc
 50
180.0
 51
270.0
  0
ARC
  5
10B
100
AcDbEntity
  8
51060010
  6
CONTINUOUS
 62
         7
100
AcDbCircle
 10
24.6183109201
 20
169.1671978207
 30
0.0
 40
0.5
100
AcDbArc
 50
90.0
 51
180.0
  0
LINE
  5
10C
100
AcDbEntity
  8
51060010
  6
CONTINUOUS
 62
         7
100
AcDbLine
 10
24.1183109201
 20
145.1671978207
 30
0.0
 11
24.1183109201
 21
169.1671978207
 31
0.0
  0
LINE
  5
10D
100
AcDbEntity
  8
51060010
  6
CONTINUOUS
 62
         7
100
AcDbLine
 10
8.0502973832
 20
146.1671978207
 30
0.0
 11
8.6696663404
 21
146.1671978207
 31
0.0
  0
LINE
  5
10E
100
AcDbEntity
  8
51060010
  6
CONTINUOUS
 62
         7
100
AcDbLine
 10
14.9759629412
 20
157.1671978207
 30
0.0
 11
8.6696663404
 21
157.1671978207
 31
0.0
  0
LINE
  5
10F
100
AcDbEntity
  8
51060010
  6
CONTINUOUS
 62
         7
100
AcDbLine
 10
14.9759629412
 20
146.1671978207
 30
0.0
 11
8.6696663404
 21
146.1671978207
 31
0.0
  0
ARC
  5
110
100
AcDbEntity
  8
51060010
  6
CONTINUOUS
 62
         7
100
AcDbCircle
 10
74.5958184678
 20
162.6671978207
 30
0.0
 40
24.9489476981
100
AcDbArc
 50
167.2645244266
 51
192.7354755734
  0
LINE
  5
111
100
AcDbEntity
  8
51060010
  6
CONTINUOUS
 62
         7
100
AcDbLine
 10
50.2606588989
 20
168.1671978207
 30
0.0
 11
49.6412899589
 21
168.1671978207
 31
0.0
  0
LINE
  5
112
100
AcDbEntity
  8
51060010
  6
CONTINUOUS
 62
         7
100
AcDbLine
 10
56.5669554998
 20
146.1671978207
 30
0.0
 11
50.2606588989
 21
146.1671978207
 31
0.0
  0
ARC
  5
113
100
AcDbEntity
  8
51060010
  6
CONTINUOUS
 62
         7
100
AcDbCircle
 10
-9.3591966276
 20
151.6671978207
 30
0.0
 40
24.9489476981
100
AcDbArc
 50
347.2645244266
 51
12.7354755734
  0
LINE
  5
114
100
AcDbEntity
  8
51060010
  6
CONTINUOUS
 62
         7
100
AcDbLine
 10
56.5669554998
 20
168.1671978207
 30
0.0
 11
50.2606588989
 21
168.1671978207
 31
0.0
  0
LINE
  5
115
100
AcDbEntity
  8
51060010
  6
CONTINUOUS
 62
         7
100
AcDbLine
 10
57.186324457
 20
146.1671978207
 30
0.0
 11
56.5669554998
 21
146.1671978207
 31
0.0
  0
LINE
  5
116
100
AcDbEntity
  8
51060010
  6
CONTINUOUS
 62
         7
100
AcDbLine
 10
57.186324457
 20
168.1671978207
 30
0.0
 11
56.5669554998
 21
168.1671978207
 31
0.0
  0
ARC
  5
117
100
AcDbEntity
  8
51060010
  6
CONTINUOUS
 62
         7
100
AcDbCircle
 10
32.231795931
 20
151.6671978207
 30
0.0
 40
24.9489476981
100
AcDbArc
 50
347.2645244266
 51
12.7354755734
  0
ARC
  5
118
100
AcDbEntity
  8
51060010
  6
CONTINUOUS
 62
         7
100
AcDbCircle
 10
33.0048259092
 20
162.6671978207
 30
0.0
 40
24.9489476981
100
AcDbArc
 50
167.2645244266
 51
192.7354755734
  0
ARC
  5
119
100
AcDbEntity
  8
51060010
  6
CONTINUOUS
 62
         7
100
AcDbCircle
 10
32.231795931
 20
162.6671978207
 30
0.0
 40
24.9489476981
100
AcDbArc
 50
347.2645244266
 51
12.7354755734
  0
LINE
  5
11A
100
AcDbEntity
  8
51060010
  6
CONTINUOUS
 62
         7
100
AcDbLine
 10
56.5669554998
 20
157.1671978207
 30
0.0
 11
50.2606588989
 21
157.1671978207
 31
0.0
  0
LINE
  5
11B
100
AcDbEntity
  8
51060010
  6
CONTINUOUS
 62
         7
100
AcDbLine
 10
8.0502960372
 20
168.1671978207
 30
0.0
 11
7.8683109201
 21
167.6671978207
 31
0.0
  0
LINE
  5
11C
100
AcDbEntity
  8
51060010
  6
CONTINUOUS
 62
         7
100
AcDbLine
 10
24.1183109201
 20
167.4171978207
 30
0.0
 11
15.8683109201
 21
167.4171978207
 31
0.0
  0
LINE
  5
11D
100
AcDbEntity
  8
51060010
  6
CONTINUOUS
 62
         7
100
AcDbLine
 10
49.3683109201
 20
167.4171978207
 30
0.0
 11
41.1183109201
 21
167.4171978207
 31
0.0
  0
LINE
  5
11E
100
AcDbEntity
  8
51060010
  6
CONTINUOUS
 62
         7
100
AcDbLine
 10
57.1863258029
 20
146.1671978207
 30
0.0
 11
57.3683109201
 21
146.6671978207
 31
0.0
  0
LINE
  5
11F
100
AcDbEntity
  8
51060010
  6
CONTINUOUS
 62
         7
100
AcDbLine
 10
15.5953332444
 20
146.1671978207
 30
0.0
 11
15.8683109201
 21
146.9171978207
 31
0.0
  0
LINE
  5
120
100
AcDbEntity
  8
51060010
  6
CONTINUOUS
 62
         7
100
AcDbLine
 10
49.6412885958
 20
168.1671978207
 30
0.0
 11
49.3683109201
 21
167.4171978207
 31
0.0
  0
ARC
  5
121
100
AcDbEntity
  8
51060010
  6
CONTINUOUS
 62
         7
100
AcDbCircle
 10
32.6183109201
 20
157.1671978207
 30
0.0
 40
24.0
100
AcDbArc
 50
251.9534138635
 51
288.0465861365
  0
ARC
  5
122
100
AcDbEntity
  8
51060010
  6
CONTINUOUS
 62
         7
100
AcDbCircle
 10
8.1183109201
 20
199.6024426062
 30
0.0
 40
26.0
100
AcDbArc
 50
288.9780942319
 51
311.0219057681
  0
ARC
  5
123
100
AcDbEntity
  8
51060010
  6
CONTINUOUS
 62
         7
100
AcDbCircle
 10
32.6183109201
 20
157.1671978207
 30
0.0
 40
24.0
100
AcDbArc
 50
71.9534138635
 51
108.0465861365
  0
ARC
  5
124
100
AcDbEntity
  8
51060010
  6
CONTINUOUS
 62
         7
100
AcDbCircle
 10
57.1183109201
 20
199.6024426062
 30
0.0
 40
26.0
100
AcDbArc
 50
228.9780942319
 51
251.0219057681
  0
ARC
  5
125
100
AcDbEntity
  8
51060010
  6
CONTINUOUS
 62
         7
100
AcDbCircle
 10
32.6183109201
 20
157.1671978207
 30
0.0
 40
24.0
100
AcDbArc
 50
27.279612736
 51
48.0465861365
  0
ARC
  5
126
100
AcDbEntity
  8
51060010
  6
CONTINUOUS
 62
         7
100
AcDbCircle
 10
32.6183109201
 20
157.1671978207
 30
0.0
 40
24.0
100
AcDbArc
 50
311.9534138635
 51
332.720387264
  0
ARC
  5
127
100
AcDbEntity
  8
51060010
  6
CONTINUOUS
 62
         7
100
AcDbCircle
 10
57.1183109201
 20
114.7319530353
 30
0.0
 40
26.0
100
AcDbArc
 50
108.9780942318
 51
131.0219057682
  0
ARC
  5
128
100
AcDbEntity
  8
51060010
  6
CONTINUOUS
 62
         7
100
AcDbCircle
 10
8.1183109201
 20
114.7319530353
 30
0.0
 40
26.0
100
AcDbArc
 50
48.9780942319
 51
71.0219057681
  0
ARC
  5
129
100
AcDbEntity
  8
51060010
  6
CONTINUOUS
 62
         7
100
AcDbCircle
 10
32.6183109201
 20
157.1671978207
 30
0.0
 40
24.0
100
AcDbArc
 50
207.279612736
 51
228.0465861365
  0
ARC
  5
12A
100
AcDbEntity
  8
51060010
  6
CONTINUOUS
 62
         7
100
AcDbCircle
 10
32.6183109201
 20
157.1671978207
 30
0.0
 40
24.0
100
AcDbArc
 50
131.9534138635
 51
152.720387264
  0
ARC
  5
12B
100
AcDbEntity
  8
51060010
  6
CONTINUOUS
 62
         7
100
AcDbCircle
 10
57.1183109201
 20
199.6024426062
 30
0.0
 40
25.0
100
AcDbArc
 50
228.5216590455
 51
251.4783409545
  0
ARC
  5
12C
100
AcDbEntity
  8
51060010
  6
CONTINUOUS
 62
         7
100
AcDbCircle
 10
8.1183109201
 20
199.6024426062
 30
0.0
 40
25.0
100
AcDbArc
 50
288.5216590455
 51
311.4783409545
  0
ARC
  5
12D
100
AcDbEntity
  8
51060010
  6
CONTINUOUS
 62
         7
100
AcDbCircle
 10
8.1183109201
 20
114.7319530353
 30
0.0
 40
25.0
100
AcDbArc
 50
48.5216590455
 51
71.4783409545
  0
ARC
  5
12E
100
AcDbEntity
  8
51060010
  6
CONTINUOUS
 62
         7
100
AcDbCircle
 10
57.1183109201
 20
114.7319530353
 30
0.0
 40
25.0
100
AcDbArc
 50
108.5216590454
 51
131.4783409546
  0
ARC
  5
12F
100
AcDbEntity
  8
51060010
  6
CONTINUOUS
 62
         7
100
AcDbCircle
 10
32.6183109201
 20
157.1671978207
 30
0.0
 40
25.0
100
AcDbArc
 50
206.1038811373
 51
228.5216590455
  0
ARC
  5
130
100
AcDbEntity
  8
51060010
  6
CONTINUOUS
 62
         7
100
AcDbCircle
 10
26.9203629273
 20
144.1059617126
 30
0.0
 40
3.0
100
AcDbArc
 50
175.3685761
 51
226.3175947976
  0
ENDBLK
  5
131
100
AcDbEntity
  8
51060010
  6
CONTINUOUS
 62
         7
100
AcDbBlockEnd
  0
BLOCK
  5
1A1
100
AcDbEntity
  8
0
 62
         1
 48
0.0
100
AcDbBlockBegin
  2
SE4
 70
         0
 10
0.0
 20
0.0
 30
0.0
  3
SE4
  1

  0
ENDBLK
  5
1A2
100
AcDbEntity
  8
0
 62
         1
 48
0.0
100
AcDbBlockEnd
  0
BLOCK
  5
134
100
AcDbEntity
  8
0
 62
         1
 48
0.0
100
AcDbBlockBegin
  2
SE5
 70
         0
 10
0.0
 20
0.0
 30
0.0
  3
SE5
  1

  0
ARC
  5
135
100
AcDbEntity
  8
51060010
  6
CONTINUOUS
 62
         7
100
AcDbCircle
 10
82.830854277
 20
-12.9653609358
 30
0.0
 40
68.074458147
100
AcDbArc
 50
37.3051397819
 51
41.5470116956
  0
LINE
  5
136
100
AcDbEntity
  8
51060010
  6
CONTINUOUS
 62
         7
100
AcDbLine
 10
141.6285796521
 20
78.733959464
 30
0.0
 11
141.6285796521
 21
73.733959464
 31
0.0
  0
LINE
  5
137
100
AcDbEntity
  8
51060010
  6
CONTINUOUS
 62
         7
100
AcDbLine
 10
136.6785796521
 20
61.933959464
 30
0.0
 11
136.6785796521
 21
57.633959464
 31
0.0
  0
LINE
  5
138
100
AcDbEntity
  8
51060010
  6
CONTINUOUS
 62
         7
100
AcDbLine
 10
129.9785796521
 20
48.433959464
 30
0.0
 11
129.9785796521
 21
45.433959464
 31
0.0
  0
ARC
  5
139
100
AcDbEntity
  8
51060010
  6
CONTINUOUS
 62
         7
100
AcDbCircle
 10
95.2972775378
 20
21.933959464
 30
0.0
 40
33.152931538
100
AcDbArc
 50
348.9560256914
 51
11.0439743086
  0
LINE
  5
13A
100
AcDbEntity
  8
51060010
  6
CONTINUOUS
 62
         7
100
AcDbLine
 10
157.1785796521
 20
33.433959464
 30
0.0
 11
160.4785796521
 21
35.3392153524
 31
0.0
  0
ARC
  5
13B
100
AcDbEntity
  8
51060010
  6
CONTINUOUS
 62
         7
100
AcDbCircle
 10
171.0486964024
 20
31.4602389057
 30
0.0
 40
8.5400732448
100
AcDbArc
 50
158.1716867869
 51
201.8283132131
  0
LINE
  5
13C
100
AcDbEntity
  8
51060010
  6
CONTINUOUS
 62
         7
100
AcDbLine
 10
170.2285796521
 20
32.433959464
 30
0.0
 11
169.4272242318
 21
34.6356653862
 31
0.0
  0
ARC
  5
13D
100
AcDbEntity
  8
51060010
  6
CONTINUOUS
 62
         7
100
AcDbCircle
 10
195.6598817665
 20
21.933959464
 30
0.0
 40
33.152931538
100
AcDbArc
 50
168.9560256914
 51
191.0439743086
  0
LINE
  5
13E
100
AcDbEntity
  8
51060010
  6
CONTINUOUS
 62
         7
100
AcDbLine
 10
121.5299350724
 20
34.6356653862
 30
0.0
 11
127.8362316733
 21
34.6356653862
 31
0.0
  0
ARC
  5
13F
100
AcDbEntity
  8
51060010
  6
CONTINUOUS
 62
         7
100
AcDbCircle
 10
119.9084629018
 20
12.4076800224
 30
0.0
 40
8.5400732448
100
AcDbArc
 50
338.1716867869
 51
21.8283132131
  0
ARC
  5
140
100
AcDbEntity
  8
51060010
  6
CONTINUOUS
 62
         7
100
AcDbCircle
 10
206.9863184519
 20
-12.0280964026
 30
0.0
 40
66.5996751133
100
AcDbArc
 50
138.4060014636
 51
142.7418482746
  0
LINE
  5
141
100
AcDbEntity
  8
51060010
  6
CONTINUOUS
 62
         7
100
AcDbLine
 10
153.9785796521
 20
35.1691517325
 30
0.0
 11
153.9785796521
 21
21.933959464
 31
0.0
  0
LINE
  5
142
100
AcDbEntity
  8
51060010
  6
CONTINUOUS
 62
         7
100
AcDbLine
 10
162.2285796521
 20
32.183959464
 30
0.0
 11
157.1785796521
 21
32.183959464
 31
0.0
  0
SPLINE
  5
143
100
AcDbEntity
  8
51060010
  6
CONTINUOUS
 62
         7
100
AcDbSpline
210
0.0
220
0.0
230
1.0
 70
         8
 71
         3
 72
        14
 73
        10
 74
         0
 42
0.0
 43
0.0
 40
0.0
 40
0.0
 40
0.0
 40
0.0
 40
0.25
 40
0.25
 40
0.5
 40
0.5
 40
0.75
 40
0.75
 40
1.0
 40
1.0
 40
1.0
 40
1.0
 10
137.47857965212583
 20
35.247313937194782
 30
0.0
 10
137.41359201364935
 20
35.267539571794806
 30
0.0
 10
137.347552548951
 20
35.282020653019273
 30
0.0
 10
137.22415265315121
 20
35.296291322671358
 30
0.0
 10
137.16675111407531
 20
35.295917227917585
 30
0.0
 10
137.07360974794497
 20
35.280280678886257
 30
0.0
 10
137.03741028453229
 20
35.265142520940238
 30
0.0
 10
136.98977516081206
 20
35.223699473316181
 30
0.0
 10
136.97857965212583
 20
35.198135427704919
 30
0.0
 10
136.97857965212583
 20
35.169151732476834
 30
0.0
  0
ARC
  5
144
100
AcDbEntity
  8
51060010
  6
CONTINUOUS
 62
         7
100
AcDbCircle
 10
145.4785796521
 20
58.4520203918
 30
0.0
 40
24.5450280432
100
AcDbArc
 50
250.9779754064
 51
289.0220245936
  0
SPLINE
  5
145
100
AcDbEntity
  8
51060010
  6
CONTINUOUS
 62
         7
100
AcDbSpline
210
0.0
220
0.0
230
1.0
 70
         8
 71
         3
 72
        14
 73
        10
 74
         0
 42
0.0
 43
0.0
 40
0.0
 40
0.0
 40
0.0
 40
0.0
 40
0.25
 40
0.25
 40
0.5
 40
0.5
 40
0.75
 40
0.75
 40
1.0
 40
1.0
 40
1.0
 40
1.0
 10
153.97857965212583
 20
35.169151732476834
 30
0.0
 10
153.97857965212583
 20
35.198152261760718
 30
0.0
 10
153.96731173291093
 20
35.223716961898866
 30
0.0
 10
153.92002439141467
 20
35.264948259279826
 30
0.0
 10
153.88404933771653
 20
35.280129337464949
 30
0.0
 10
153.79095595434748
 20
35.295891953623084
 30
0.0
 10
153.73354252700619
 20
35.296315939867142
 30
0.0
 10
153.61008803833354
 20
35.282113359462571
 30
0.0
 10
153.54368314361832
 20
35.267575627894452
 30
0.0
 10
153.47857965212583
 20
35.247313937194782
 30
0.0
  0
LINE
  5
146
100
AcDbEntity
  8
51060010
  6
CONTINUOUS
 62
         7
100
AcDbLine
 10
136.9785796521
 20
21.933959464
 30
0.0
 11
136.9785796521
 21
35.1691517325
 31
0.0
  0
LINE
  5
147
100
AcDbEntity
  8
51060010
  6
CONTINUOUS
 62
         7
100
AcDbLine
 10
136.9785796521
 20
9.933959464
 30
0.0
 11
136.9785796521
 21
21.933959464
 31
0.0
  0
LINE
  5
148
100
AcDbEntity
  8
51060010
  6
CONTINUOUS
 62
         7
100
AcDbLine
 10
160.9785796521
 20
44.933959464
 30
0.0
 11
129.9785796521
 21
44.933959464
 31
0.0
  0
LINE
  5
149
100
AcDbEntity
  8
51060010
  6
CONTINUOUS
 62
         7
100
AcDbLine
 10
157.1785796521
 20
33.433959464
 30
0.0
 11
153.9785796521
 21
33.433959464
 31
0.0
  0
LINE
  5
14A
100
AcDbEntity
  8
51060010
  6
CONTINUOUS
 62
         7
100
AcDbLine
 10
160.4785796521
 20
35.3392153524
 30
0.0
 11
130.4785796521
 21
35.3392153524
 31
0.0
  0
LINE
  5
14B
100
AcDbEntity
  8
51060010
  6
CONTINUOUS
 62
         7
100
AcDbLine
 10
160.4785796521
 20
41.433959464
 30
0.0
 11
130.4785796521
 21
41.433959464
 31
0.0
  0
LINE
  5
14C
100
AcDbEntity
  8
51060010
  6
CONTINUOUS
 62
         7
100
AcDbLine
 10
160.9785796521
 20
41.7226345986
 30
0.0
 11
129.9785796521
 21
41.7226345986
 31
0.0
  0
LINE
  5
14D
100
AcDbEntity
  8
51060010
  6
CONTINUOUS
 62
         7
100
AcDbLine
 10
160.9785796521
 20
48.433959464
 30
0.0
 11
129.9785796521
 21
48.433959464
 31
0.0
  0
LINE
  5
14E
100
AcDbEntity
  8
51060010
  6
CONTINUOUS
 62
         7
100
AcDbLine
 10
160.9785796521
 20
45.433959464
 30
0.0
 11
129.9785796521
 21
45.433959464
 31
0.0
  0
LINE
  5
14F
100
AcDbEntity
  8
51060010
  6
CONTINUOUS
 62
         7
100
AcDbLine
 10
134.4785796521
 20
48.433959464
 30
0.0
 11
134.4785796521
 21
57.633959464
 31
0.0
  0
LINE
  5
150
100
AcDbEntity
  8
51060010
  6
CONTINUOUS
 62
         7
100
AcDbLine
 10
156.4785796521
 20
48.433959464
 30
0.0
 11
156.4785796521
 21
57.633959464
 31
0.0
  0
LINE
  5
151
100
AcDbEntity
  8
51060010
  6
CONTINUOUS
 62
         7
100
AcDbLine
 10
145.4785796521
 20
48.433959464
 30
0.0
 11
145.4785796521
 21
57.633959464
 31
0.0
  0
LINE
  5
152
100
AcDbEntity
  8
51060010
  6
CONTINUOUS
 62
         7
100
AcDbLine
 10
135.9785796497
 20
61.933959464
 30
0.0
 11
135.9785796497
 21
73.733959464
 31
0.0
  0
LINE
  5
153
100
AcDbEntity
  8
51060010
  6
CONTINUOUS
 62
         7
100
AcDbLine
 10
145.4785796521
 20
61.933959464
 30
0.0
 11
145.4785796521
 21
73.733959464
 31
0.0
  0
LINE
  5
154
100
AcDbEntity
  8
51060010
  6
CONTINUOUS
 62
         7
100
AcDbLine
 10
154.9785796497
 20
61.933959464
 30
0.0
 11
154.9785796497
 21
73.733959464
 31
0.0
  0
LINE
  5
155
100
AcDbEntity
  8
51060010
  6
CONTINUOUS
 62
         7
100
AcDbLine
 10
145.4785796521
 20
57.633959464
 30
0.0
 11
134.4785796521
 21
57.633959464
 31
0.0
  0
LINE
  5
156
100
AcDbEntity
  8
51060010
  6
CONTINUOUS
 62
         7
100
AcDbLine
 10
156.4785796521
 20
57.633959464
 30
0.0
 11
145.4785796521
 21
57.633959464
 31
0.0
  0
LINE
  5
157
100
AcDbEntity
  8
51060010
  6
CONTINUOUS
 62
         7
100
AcDbLine
 10
145.4785796521
 20
61.933959464
 30
0.0
 11
135.9785796497
 21
61.933959464
 31
0.0
  0
LINE
  5
158
100
AcDbEntity
  8
51060010
  6
CONTINUOUS
 62
         7
100
AcDbLine
 10
154.9785796497
 20
61.933959464
 30
0.0
 11
145.4785796521
 21
61.933959464
 31
0.0
  0
LINE
  5
159
100
AcDbEntity
  8
51060010
  6
CONTINUOUS
 62
         7
100
AcDbLine
 10
145.4785796521
 20
73.733959464
 30
0.0
 11
135.9785796497
 21
73.733959464
 31
0.0
  0
LINE
  5
15A
100
AcDbEntity
  8
51060010
  6
CONTINUOUS
 62
         7
100
AcDbLine
 10
154.9785796497
 20
73.733959464
 30
0.0
 11
145.4785796521
 21
73.733959464
 31
0.0
  0
LINE
  5
15B
100
AcDbEntity
  8
51060010
  6
CONTINUOUS
 62
         7
100
AcDbLine
 10
141.4785796521
 20
78.733959464
 30
0.0
 11
149.4785796521
 21
78.733959464
 31
0.0
  0
LINE
  5
15C
100
AcDbEntity
  8
51060010
  6
CONTINUOUS
 62
         7
100
AcDbLine
 10
128.9201576672
 20
85.733959464
 30
0.0
 11
120.9785796521
 21
85.733959464
 31
0.0
  0
LINE
  5
15D
100
AcDbEntity
  8
51060010
  6
CONTINUOUS
 62
         7
100
AcDbLine
 10
153.4201576672
 20
85.733959464
 30
0.0
 11
137.537001637
 21
85.733959464
 31
0.0
  0
SPLINE
  5
15E
100
AcDbEntity
  8
51060010
  6
CONTINUOUS
 62
         7
100
AcDbSpline
210
0.0
220
0.0
230
1.0
 70
         8
 71
         3
 72
        18
 73
        14
 74
         0
 42
0.0
 43
0.0
 40
0.0
 40
0.0
 40
0.0
 40
0.0
 40
0.1250000000000002
 40
0.1250000000000002
 40
0.2500000000000004
 40
0.2500000000000004
 40
0.5
 40
0.5
 40
0.7499999999999997
 40
0.7499999999999997
 40
0.8749999999999997
 40
0.8749999999999997
 40
1.0
 40
1.0
 40
1.0
 40
1.0
 10
137.53700163704008
 20
89.733959464028743
 30
0.0
 10
137.53700163704008
 20
90.258944283921849
 30
0.0
 10
137.32774775829319
 20
90.745318050251043
 30
0.0
 10
136.75277207330703
 20
91.453586336946856
 30
0.0
 10
136.38986878691119
 20
91.702757500946731
 30
0.0
 10
135.23307805556249
 20
92.253786993889392
 30
0.0
 10
134.37053711589684
 20
92.379797997980205
 30
0.0
 10
132.58503882158294
 20
92.379623474835043
 30
0.0
 10
131.65875643203253
 20
92.254290355908125
 30
0.0
 10
130.32538105811409
 20
91.702696860279147
 30
0.0
 10
129.89433999534683
 20
91.456813687152135
 30
0.0
 10
129.18208876383679
 20
90.740699540896642
 30
0.0
 10
128.92015766721266
 20
90.257749683947736
 30
0.0
 10
128.92015766721354
 20
89.7339594640288
 30
0.0
  0
ARC
  5
15F
100
AcDbEntity
  8
51060010
  6
CONTINUOUS
 62
         7
100
AcDbCircle
 10
163.166348515
 20
89.8166900052
 30
0.0
 40
6.8127334755
100
AcDbArc
 50
359.3042106563
 51
22.09913859
  0
LINE
  5
160
100
AcDbEntity
  8
51060010
  6
CONTINUOUS
 62
         7
100
AcDbLine
 10
166.4785796521
 20
93.733959464
 30
0.0
 11
124.4785796521
 21
93.733959464
 31
0.0
  0
LINE
  5
161
100
AcDbEntity
  8
51060010
  6
CONTINUOUS
 62
         7
100
AcDbLine
 10
130.4785796521
 20
41.433959464
 30
0.0
 11
130.4785796521
 21
35.3392153524
 31
0.0
  0
LINE
  5
162
100
AcDbEntity
  8
51060010
  6
CONTINUOUS
 62
         7
100
AcDbLine
 10
160.4785796521
 20
41.433959464
 30
0.0
 11
160.9785796521
 21
41.7226345986
 31
0.0
  0
LINE
  5
163
100
AcDbEntity
  8
51060010
  6
CONTINUOUS
 62
         7
100
AcDbLine
 10
129.9785796521
 20
44.933959464
 30
0.0
 11
129.9785796521
 21
41.7226345986
 31
0.0
  0
LINE
  5
164
100
AcDbEntity
  8
51060010
  6
CONTINUOUS
 62
         7
100
AcDbLine
 10
130.4785796521
 20
45.433959464
 30
0.0
 11
129.9785796521
 21
44.933959464
 31
0.0
  0
LINE
  5
165
100
AcDbEntity
  8
51060010
  6
CONTINUOUS
 62
         7
100
AcDbLine
 10
133.7873754085
 20
32.183959464
 30
0.0
 11
128.7285796521
 21
32.183959464
 31
0.0
  0
LINE
  5
166
100
AcDbEntity
  8
51060010
  6
CONTINUOUS
 62
         7
100
AcDbLine
 10
120.7285796521
 20
11.433959464
 30
0.0
 11
121.5299350724
 21
9.2322535419
 31
0.0
  0
LINE
  5
167
100
AcDbEntity
  8
51060010
  6
CONTINUOUS
 62
         7
100
AcDbLine
 10
162.2285796521
 20
11.683959464
 30
0.0
 11
163.120927631
 21
9.2322535419
 31
0.0
  0
LINE
  5
168
100
AcDbEntity
  8
51060010
  6
CONTINUOUS
 62
         7
100
AcDbLine
 10
128.7285796521
 20
32.183959464
 30
0.0
 11
127.8362316733
 21
34.6356653862
 31
0.0
  0
LINE
  5
169
100
AcDbEntity
  8
51060010
  6
CONTINUOUS
 62
         7
100
AcDbLine
 10
120.7285796521
 20
32.433959464
 30
0.0
 11
120.7285796521
 21
11.433959464
 31
0.0
  0
LINE
  5
16A
100
AcDbEntity
  8
51060010
  6
CONTINUOUS
 62
         7
100
AcDbLine
 10
162.2285796521
 20
32.183959464
 30
0.0
 11
162.2285796521
 21
11.683959464
 31
0.0
  0
ARC
  5
16B
100
AcDbEntity
  8
51060010
  6
CONTINUOUS
 62
         7
100
AcDbCircle
 10
161.4994554604
 20
12.4076800224
 30
0.0
 40
8.5400732448
100
AcDbArc
 50
338.1716867869
 51
21.8283132131
  0
LINE
  5
16C
100
AcDbEntity
  8
51060010
  6
CONTINUOUS
 62
         7
100
AcDbLine
 10
170.2285796521
 20
32.433959464
 30
0.0
 11
170.2285796521
 21
11.433959464
 31
0.0
  0
LINE
  5
16D
100
AcDbEntity
  8
51060010
  6
CONTINUOUS
 62
         7
100
AcDbLine
 10
128.7285796521
 20
32.183959464
 30
0.0
 11
128.7285796521
 21
11.683959464
 31
0.0
  0
LINE
  5
16E
100
AcDbEntity
  8
51060010
  6
CONTINUOUS
 62
         7
100
AcDbLine
 10
133.7785796521
 20
33.433959464
 30
0.0
 11
136.9785796521
 21
33.433959464
 31
0.0
  0
LINE
  5
16F
100
AcDbEntity
  8
51060010
  6
CONTINUOUS
 62
         7
100
AcDbLine
 10
153.9785796521
 20
9.933959464
 30
0.0
 11
153.9785796521
 21
21.933959464
 31
0.0
  0
ARC
  5
170
100
AcDbEntity
  8
51060010
  6
CONTINUOUS
 62
         7
100
AcDbCircle
 10
161.4994554604
 20
31.4602389057
 30
0.0
 40
8.5400732448
100
AcDbArc
 50
338.1716867869
 51
21.8283132131
  0
ARC
  5
171
100
AcDbEntity
  8
51060010
  6
CONTINUOUS
 62
         7
100
AcDbCircle
 10
136.8882709161
 20
21.933959464
 30
0.0
 40
33.1529307334
100
AcDbArc
 50
348.95602542
 51
11.04397458
  0
LINE
  5
172
100
AcDbEntity
  8
51060010
  6
CONTINUOUS
 62
         7
100
AcDbLine
 10
163.120927631
 20
34.6356653862
 30
0.0
 11
169.4272242318
 21
34.6356653862
 31
0.0
  0
LINE
  5
173
100
AcDbEntity
  8
51060010
  6
CONTINUOUS
 62
         7
100
AcDbLine
 10
163.120927631
 20
9.2322535419
 30
0.0
 11
169.4272242318
 21
9.2322535419
 31
0.0
  0
LINE
  5
174
100
AcDbEntity
  8
51060010
  6
CONTINUOUS
 62
         7
100
AcDbLine
 10
163.120927631
 20
15.5831065029
 30
0.0
 11
169.4272242318
 21
15.5831065029
 31
0.0
  0
LINE
  5
175
100
AcDbEntity
  8
51060010
  6
CONTINUOUS
 62
         7
100
AcDbLine
 10
163.120927631
 20
28.2848124251
 30
0.0
 11
169.4272242318
 21
28.2848124251
 31
0.0
  0
LINE
  5
176
100
AcDbEntity
  8
51060010
  6
CONTINUOUS
 62
         7
100
AcDbLine
 10
121.5299350724
 20
28.2848124251
 30
0.0
 11
127.8362316733
 21
28.2848124251
 31
0.0
  0
ARC
  5
177
100
AcDbEntity
  8
51060010
  6
CONTINUOUS
 62
         7
100
AcDbCircle
 10
119.9084629018
 20
31.4602389057
 30
0.0
 40
8.5400732448
100
AcDbArc
 50
338.1716867869
 51
21.8283132131
  0
LINE
  5
178
100
AcDbEntity
  8
51060010
  6
CONTINUOUS
 62
         7
100
AcDbLine
 10
121.5299350724
 20
15.5831065029
 30
0.0
 11
127.8362316733
 21
15.5831065029
 31
0.0
  0
ARC
  5
179
100
AcDbEntity
  8
51060010
  6
CONTINUOUS
 62
         7
100
AcDbCircle
 10
171.0486964024
 20
12.4076800224
 30
0.0
 40
8.5400732448
100
AcDbArc
 50
158.1716867869
 51
201.8283132131
  0
ARC
  5
17A
100
AcDbEntity
  8
51060010
  6
CONTINUOUS
 62
         7
100
AcDbCircle
 10
129.4577038439
 20
31.4602389057
 30
0.0
 40
8.5400732448
100
AcDbArc
 50
158.1716867869
 51
201.8283132131
  0
ARC
  5
17B
100
AcDbEntity
  8
51060010
  6
CONTINUOUS
 62
         7
100
AcDbCircle
 10
129.4577038439
 20
12.4076800224
 30
0.0
 40
8.5400732448
100
AcDbArc
 50
158.1716867869
 51
201.8283132131
  0
ARC
  5
17C
100
AcDbEntity
  8
51060010
  6
CONTINUOUS
 62
         7
100
AcDbCircle
 10
154.0688883881
 20
21.933959464
 30
0.0
 40
33.1529307334
100
AcDbArc
 50
168.95602542
 51
191.04397458
  0
LINE
  5
17D
100
AcDbEntity
  8
51060010
  6
CONTINUOUS
 62
         7
100
AcDbLine
 10
121.5299350724
 20
9.2322535419
 30
0.0
 11
127.8362316733
 21
9.2322535419
 31
0.0
  0
LINE
  5
17E
100
AcDbEntity
  8
51060010
  6
CONTINUOUS
 62
         7
100
AcDbLine
 10
149.3285796521
 20
73.733959464
 30
0.0
 11
149.3285796521
 21
78.733959464
 31
0.0
  0
LINE
  5
17F
100
AcDbEntity
  8
51060010
  6
CONTINUOUS
 62
         7
100
AcDbLine
 10
133.7785796521
 20
33.433959464
 30
0.0
 11
133.7785796521
 21
32.1740042718
 31
0.0
  0
LINE
  5
180
100
AcDbEntity
  8
51060010
  6
CONTINUOUS
 62
         7
100
AcDbLine
 10
154.2785796521
 20
57.633959464
 30
0.0
 11
154.2785796521
 21
61.933959464
 31
0.0
  0
LINE
  5
181
100
AcDbEntity
  8
51060010
  6
CONTINUOUS
 62
         7
100
AcDbLine
 10
160.9785796521
 20
45.433959464
 30
0.0
 11
160.9785796521
 21
48.433959464
 31
0.0
  0
LINE
  5
182
100
AcDbEntity
  8
51060010
  6
CONTINUOUS
 62
         7
100
AcDbLine
 10
130.4785796521
 20
35.3392153524
 30
0.0
 11
133.7785796521
 21
33.433959464
 31
0.0
  0
LINE
  5
183
100
AcDbEntity
  8
51060010
  6
CONTINUOUS
 62
         7
100
AcDbLine
 10
169.4272242318
 20
9.2322535419
 30
0.0
 11
170.2285796521
 21
11.433959464
 31
0.0
  0
LINE
  5
184
100
AcDbEntity
  8
51060010
  6
CONTINUOUS
 62
         7
100
AcDbLine
 10
137.4785796521
 20
9.433959464
 30
0.0
 11
153.4785796521
 21
9.433959464
 31
0.0
  0
LINE
  5
185
100
AcDbEntity
  8
51060010
  6
CONTINUOUS
 62
         7
100
AcDbLine
 10
153.9785796521
 20
11.683959464
 30
0.0
 11
162.2285796521
 21
11.683959464
 31
0.0
  0
ARC
  5
186
100
AcDbEntity
  8
51060010
  6
CONTINUOUS
 62
         7
100
AcDbCircle
 10
166.4785796521
 20
89.733959464
 30
0.0
 40
4.0
100
AcDbArc
 50
41.298638421
 51
90.0
  0
ARC
  5
187
100
AcDbEntity
  8
51060010
  6
CONTINUOUS
 62
         7
100
AcDbCircle
 10
124.4785796521
 20
89.733959464
 30
0.0
 40
4.0
100
AcDbArc
 50
90.0
 51
138.6989030001
  0
LINE
  5
188
100
AcDbEntity
  8
51060010
  6
CONTINUOUS
 62
         7
100
AcDbLine
 10
160.4785796521
 20
35.3392153524
 30
0.0
 11
160.4785796521
 21
41.433959464
 31
0.0
  0
LINE
  5
189
100
AcDbEntity
  8
51060010
  6
CONTINUOUS
 62
         7
100
AcDbLine
 10
129.9785796521
 20
41.7226345986
 30
0.0
 11
130.4785796521
 21
41.433959464
 31
0.0
  0
LINE
  5
18A
100
AcDbEntity
  8
51060010
  6
CONTINUOUS
 62
         7
100
AcDbLine
 10
160.9785796521
 20
41.7226345986
 30
0.0
 11
160.9785796521
 21
44.933959464
 31
0.0
  0
LINE
  5
18B
100
AcDbEntity
  8
51060010
  6
CONTINUOUS
 62
         7
100
AcDbLine
 10
160.9785796521
 20
44.933959464
 30
0.0
 11
160.4785796521
 21
45.433959464
 31
0.0
  0
LINE
  5
18C
100
AcDbEntity
  8
51060010
  6
CONTINUOUS
 62
         7
100
AcDbLine
 10
157.1785796521
 20
32.183959464
 30
0.0
 11
157.1785796521
 21
33.433959464
 31
0.0
  0
LINE
  5
18D
100
AcDbEntity
  8
51060010
  6
CONTINUOUS
 62
         7
100
AcDbLine
 10
128.7285796521
 20
11.683959464
 30
0.0
 11
136.9785796521
 21
11.683959464
 31
0.0
  0
LINE
  5
18E
100
AcDbEntity
  8
51060010
  6
CONTINUOUS
 62
         7
100
AcDbLine
 10
121.5299350724
 20
34.6356653862
 30
0.0
 11
120.7285796521
 21
32.433959464
 31
0.0
  0
ARC
  5
18F
100
AcDbEntity
  8
51060010
  6
CONTINUOUS
 62
         7
100
AcDbCircle
 10
153.4785796521
 20
9.933959464
 30
0.0
 40
0.5
100
AcDbArc
 50
270.0
 51
360.0
  0
ARC
  5
190
100
AcDbEntity
  8
51060010
  6
CONTINUOUS
 62
         7
100
AcDbCircle
 10
137.4785796521
 20
9.933959464
 30
0.0
 40
0.5
100
AcDbArc
 50
180.0
 51
270.0
  0
LINE
  5
191
100
AcDbEntity
  8
51060010
  6
CONTINUOUS
 62
         7
100
AcDbLine
 10
163.120927631
 20
34.6356653862
 30
0.0
 11
162.2285796521
 21
32.183959464
 31
0.0
  0
LINE
  5
192
100
AcDbEntity
  8
51060010
  6
CONTINUOUS
 62
         7
100
AcDbLine
 10
127.8362316733
 20
9.2322535419
 30
0.0
 11
128.7285796521
 21
11.683959464
 31
0.0
  0
LINE
  5
193
100
AcDbEntity
  8
51060010
  6
CONTINUOUS
 62
         7
100
AcDbLine
 10
149.4785796521
 20
85.733959464
 30
0.0
 11
149.4785796521
 21
78.733959464
 31
0.0
  0
LINE
  5
194
100
AcDbEntity
  8
51060010
  6
CONTINUOUS
 62
         7
100
AcDbLine
 10
141.4785796521
 20
85.733959464
 30
0.0
 11
141.4785796521
 21
78.733959464
 31
0.0
  0
LINE
  5
195
100
AcDbEntity
  8
51060010
  6
CONTINUOUS
 62
         7
100
AcDbLine
 10
169.9785796521
 20
89.733959464
 30
0.0
 11
169.9785796521
 21
85.733959464
 31
0.0
  0
LINE
  5
196
100
AcDbEntity
  8
51060010
  6
CONTINUOUS
 62
         7
100
AcDbLine
 10
120.9785796521
 20
85.733959464
 30
0.0
 11
120.9785796521
 21
89.733959464
 31
0.0
  0
LINE
  5
197
100
AcDbEntity
  8
51060010
  6
CONTINUOUS
 62
         7
100
AcDbLine
 10
153.4201576672
 20
85.733959464
 30
0.0
 11
162.037001637
 21
85.733959464
 31
0.0
  0
LINE
  5
198
100
AcDbEntity
  8
51060010
  6
CONTINUOUS
 62
         7
100
AcDbLine
 10
162.037001637
 20
85.733959464
 30
0.0
 11
162.037001637
 21
89.733959464
 31
0.0
  0
LINE
  5
199
100
AcDbEntity
  8
51060010
  6
CONTINUOUS
 62
         7
100
AcDbLine
 10
128.9201576672
 20
85.733959464
 30
0.0
 11
137.537001637
 21
85.733959464
 31
0.0
  0
LINE
  5
19A
100
AcDbEntity
  8
51060010
  6
CONTINUOUS
 62
         7
100
AcDbLine
 10
128.9201576672
 20
89.733959464
 30
0.0
 11
128.9201576672
 21
85.733959464
 31
0.0
  0
LINE
  5
19B
100
AcDbEntity
  8
51060010
  6
CONTINUOUS
 62
         7
100
AcDbLine
 10
153.4201576672
 20
89.733959464
 30
0.0
 11
153.4201576672
 21
85.733959464
 31
0.0
  0
LINE
  5
19C
100
AcDbEntity
  8
51060010
  6
CONTINUOUS
 62
         7
100
AcDbLine
 10
137.537001637
 20
85.733959464
 30
0.0
 11
137.537001637
 21
89.733959464
 31
0.0
  0
LINE
  5
19D
100
AcDbEntity
  8
51060010
  6
CONTINUOUS
 62
         7
100
AcDbLine
 10
169.9785796521
 20
85.733959464
 30
0.0
 11
162.037001637
 21
85.733959464
 31
0.0
  0
SPLINE
  5
19E
100
AcDbEntity
  8
51060010
  6
CONTINUOUS
 62
         7
100
AcDbSpline
210
0.0
220
0.0
230
1.0
 70
         8
 71
         3
 72
        18
 73
        14
 74
         0
 42
0.0
 43
0.0
 40
0.0
 40
0.0
 40
0.0
 40
0.0
 40
0.1249999999999999
 40
0.1249999999999999
 40
0.2500000000000001
 40
0.2500000000000001
 40
0.5000000000000004
 40
0.5000000000000004
 40
0.7500000000000008
 40
0.7500000000000008
 40
0.8750000000000003
 40
0.8750000000000003
 40
1.0
 40
1.0
 40
1.0
 40
1.0
 10
162.03700163702939
 20
89.733959464028743
 30
0.0
 10
162.03700163702939
 20
90.258944283920655
 30
0.0
 10
161.77073153458818
 20
90.745318050248784
 30
0.0
 10
161.06577415936087
 20
91.453586336943133
 30
0.0
 10
160.63154987516887
 20
91.702757500942539
 30
0.0
 10
159.29978313857302
 20
92.253786993884248
 30
0.0
 10
158.37049943915068
 20
92.379797997975018
 30
0.0
 10
156.58507653175153
 20
92.379623474829813
 30
0.0
 10
155.72529233783084
 20
92.254290355903052
 30
0.0
 10
154.56708606889225
 20
91.702696860274941
 30
0.0
 10
154.20678697521237
 20
91.456813687148411
 30
0.0
 10
153.62588288016215
 20
90.74069954089444
 30
0.0
 10
153.42015766722164
 20
90.257749683946543
 30
0.0
 10
153.42015766722233
 20
89.7339594640288
 30
0.0
  0
ARC
  5
19F
100
AcDbEntity
  8
51060010
  6
CONTINUOUS
 62
         7
100
AcDbCircle
 10
127.7908107892
 20
89.8166900052
 30
0.0
 40
6.8127334755
100
AcDbArc
 50
157.90086141
 51
180.6957893437
  0
ENDBLK
  5
1A0
100
AcDbEntity
  8
51060010
  6
CONTINUOUS
 62
         7
100
AcDbBlockEnd
  0
BLOCK
  5
1FE
100
AcDbEntity
  8
0
 62
         1
 48
0.0
100
AcDbBlockBegin
  2
SE6
 70
         0
 10
0.0
 20
0.0
 30
0.0
  3
SE6
  1

  0
ENDBLK
  5
1FF
100
AcDbEntity
  8
0
 62
         1
 48
0.0
100
AcDbBlockEnd
  0
BLOCK
  5
1A3
100
AcDbEntity
  8
0
 62
         1
 48
0.0
100
AcDbBlockBegin
  2
SE7
 70
         0
 10
0.0
 20
0.0
 30
0.0
  3
SE7
  1

  0
ARC
  5
1A4
100
AcDbEntity
  8
51060010
  6
CONTINUOUS
 62
         7
100
AcDbCircle
 10
98.5939986592
 20
139.615267558
 30
0.0
 40
68.7347639201
100
AcDbArc
 50
21.8592212062
 51
25.4638501924
  0
LINE
  5
1A5
100
AcDbEntity
  8
51060010
  6
CONTINUOUS
 62
         7
100
AcDbLine
 10
117.0868350087
 20
153.3171978207
 30
0.0
 11
122.0868350087
 21
153.3171978207
 31
0.0
  0
LINE
  5
1A6
100
AcDbEntity
  8
51060010
  6
CONTINUOUS
 62
         7
100
AcDbLine
 10
133.8868350087
 20
148.3671978207
 30
0.0
 11
138.1868350087
 21
148.3671978207
 31
0.0
  0
LINE
  5
1A7
100
AcDbEntity
  8
51060010
  6
CONTINUOUS
 62
         7
100
AcDbLine
 10
147.3868350087
 20
141.6671978207
 30
0.0
 11
150.3868350087
 21
141.6671978207
 31
0.0
  0
LINE
  5
1A8
100
AcDbEntity
  8
51060010
  6
CONTINUOUS
 62
         7
100
AcDbLine
 10
180.2376879698
 20
168.1671978207
 30
0.0
 11
167.5359820476
 21
168.1671978207
 31
0.0
  0
LINE
  5
1A9
100
AcDbEntity
  8
51060010
  6
CONTINUOUS
 62
         7
100
AcDbLine
 10
161.9219475752
 20
169.6724064754
 30
0.0
 11
160.4815791204
 21
172.1671978207
 31
0.0
  0
SPLINE
  5
1AA
100
AcDbEntity
  8
51060010
  6
CONTINUOUS
 62
         7
100
AcDbSpline
210
0.0
220
0.0
230
1.0
 70
         8
 71
         3
 72
        14
 73
        10
 74
         0
 42
0.0
 43
0.0
 40
0.0
 40
0.0
 40
0.0
 40
0.0
 40
0.25
 40
0.25
 40
0.5
 40
0.5
 40
0.75
 40
0.75
 40
1.0
 40
1.0
 40
1.0
 40
1.0
 10
160.65164274025889
 20
145.16719782072167
 30
0.0
 10
160.62264221097499
 20
145.10564281676113
 30
0.0
 10
160.59707751083684
 20
145.04354953266875
 30
0.0
 10
160.55584621345591
 20
144.92373429556616
 30
0.0
 10
160.54066513527076
 20
144.86709062227172
 30
0.0
 10
160.5249025191126
 20
144.77110308166945
 30
0.0
 10
160.52447853286856
 20
144.73191261512034
 30
0.0
 10
160.53868111327313
 20
144.68018157649598
 30
0.0
 10
160.55321884484124
 20
144.66719782072167
 30
0.0
 10
160.57348053554094
 20
144.66719782072167
 30
0.0
  0
ARC
  5
1AB
100
AcDbEntity
  8
51060010
  6
CONTINUOUS
 62
         7
100
AcDbCircle
 10
97.3450012564
 20
175.2663998464
 30
0.0
 40
70.0977376137
100
AcDbArc
 50
334.571205066
 51
338.1057235354
  0
LINE
  5
1AC
100
AcDbEntity
  8
51060010
  6
CONTINUOUS
 62
         7
100
AcDbLine
 10
150.8868350087
 20
172.6671978207
 30
0.0
 11
150.8868350087
 21
141.6671978207
 31
0.0
  0
LINE
  5
1AD
100
AcDbEntity
  8
51060010
  6
CONTINUOUS
 62
         7
100
AcDbLine
 10
162.3868350087
 20
165.2070983176
 30
0.0
 11
162.3868350087
 21
159.2494559206
 31
0.0
  0
LINE
  5
1AE
100
AcDbEntity
  8
51060010
  6
CONTINUOUS
 62
         7
100
AcDbLine
 10
162.3868350087
 20
155.0856669058
 30
0.0
 11
162.3868350087
 21
149.1272973238
 31
0.0
  0
LINE
  5
1AF
100
AcDbEntity
  8
51060010
  6
CONTINUOUS
 62
         7
100
AcDbLine
 10
160.4815791204
 20
172.1671978207
 30
0.0
 11
160.4815791204
 21
142.1671978207
 31
0.0
  0
LINE
  5
1B0
100
AcDbEntity
  8
51060010
  6
CONTINUOUS
 62
         7
100
AcDbLine
 10
154.3868350087
 20
172.1671978207
 30
0.0
 11
154.3868350087
 21
142.1671978207
 31
0.0
  0
LINE
  5
1B1
100
AcDbEntity
  8
51060010
  6
CONTINUOUS
 62
         7
100
AcDbLine
 10
154.0981598741
 20
172.6671978207
 30
0.0
 11
154.0981598741
 21
141.6671978207
 31
0.0
  0
LINE
  5
1B2
100
AcDbEntity
  8
51060010
  6
CONTINUOUS
 62
         7
100
AcDbLine
 10
147.3868350087
 20
172.6671978207
 30
0.0
 11
147.3868350087
 21
141.6671978207
 31
0.0
  0
LINE
  5
1B3
100
AcDbEntity
  8
51060010
  6
CONTINUOUS
 62
         7
100
AcDbLine
 10
150.3868350087
 20
172.6671978207
 30
0.0
 11
150.3868350087
 21
141.6671978207
 31
0.0
  0
LINE
  5
1B4
100
AcDbEntity
  8
51060010
  6
CONTINUOUS
 62
         7
100
AcDbLine
 10
147.3868350087
 20
150.8163448596
 30
0.0
 11
138.1868350087
 21
150.8163448596
 31
0.0
  0
LINE
  5
1B5
100
AcDbEntity
  8
51060010
  6
CONTINUOUS
 62
         7
100
AcDbLine
 10
147.3868350087
 20
144.4654918985
 30
0.0
 11
138.1868350087
 21
144.4654918985
 31
0.0
  0
LINE
  5
1B6
100
AcDbEntity
  8
51060010
  6
CONTINUOUS
 62
         7
100
AcDbLine
 10
147.3868350087
 20
169.8689037429
 30
0.0
 11
138.1868350087
 21
169.8689037429
 31
0.0
  0
LINE
  5
1B7
100
AcDbEntity
  8
51060010
  6
CONTINUOUS
 62
         7
100
AcDbLine
 10
138.1868350087
 20
169.8689037429
 30
0.0
 11
138.1868350087
 21
163.5180507818
 31
0.0
  0
LINE
  5
1B8
100
AcDbEntity
  8
51060010
  6
CONTINUOUS
 62
         7
100
AcDbLine
 10
147.3868350087
 20
163.5180507818
 30
0.0
 11
138.1868350087
 21
163.5180507818
 31
0.0
  0
LINE
  5
1B9
100
AcDbEntity
  8
51060010
  6
CONTINUOUS
 62
         7
100
AcDbLine
 10
133.8868350087
 20
162.6520253766
 30
0.0
 11
122.0868350087
 21
162.6520253766
 31
0.0
  0
LINE
  5
1BA
100
AcDbEntity
  8
51060010
  6
CONTINUOUS
 62
         7
100
AcDbLine
 10
133.8868350087
 20
146.1975426978
 30
0.0
 11
122.0868350087
 21
146.1975426978
 31
0.0
  0
LINE
  5
1BB
100
AcDbEntity
  8
51060010
  6
CONTINUOUS
 62
         7
100
AcDbLine
 10
133.8868350087
 20
151.6823702648
 30
0.0
 11
122.0868350087
 21
151.6823702648
 31
0.0
  0
LINE
  5
1BC
100
AcDbEntity
  8
51060010
  6
CONTINUOUS
 62
         7
100
AcDbLine
 10
138.1868350087
 20
163.5180507818
 30
0.0
 11
138.1868350087
 21
150.8163448596
 31
0.0
  0
LINE
  5
1BD
100
AcDbEntity
  8
51060010
  6
CONTINUOUS
 62
         7
100
AcDbLine
 10
138.1868350087
 20
150.8163448596
 30
0.0
 11
138.1868350087
 21
144.4654918985
 31
0.0
  0
LINE
  5
1BE
100
AcDbEntity
  8
51060010
  6
CONTINUOUS
 62
         7
100
AcDbLine
 10
133.8868350087
 20
162.6520253766
 30
0.0
 11
133.8868350087
 21
151.6823702648
 31
0.0
  0
LINE
  5
1BF
100
AcDbEntity
  8
51060010
  6
CONTINUOUS
 62
         7
100
AcDbLine
 10
133.8868350087
 20
168.1368529325
 30
0.0
 11
133.8868350087
 21
162.6520253766
 31
0.0
  0
LINE
  5
1C0
100
AcDbEntity
  8
51060010
  6
CONTINUOUS
 62
         7
100
AcDbLine
 10
133.8868350087
 20
168.1368529325
 30
0.0
 11
122.0868350087
 21
168.1368529325
 31
0.0
  0
LINE
  5
1C1
100
AcDbEntity
  8
51060010
  6
CONTINUOUS
 62
         7
100
AcDbLine
 10
133.8868350087
 20
151.6823702648
 30
0.0
 11
133.8868350087
 21
146.1975426978
 31
0.0
  0
LINE
  5
1C2
100
AcDbEntity
  8
51060010
  6
CONTINUOUS
 62
         7
100
AcDbLine
 10
122.0868350087
 20
162.6520253766
 30
0.0
 11
122.0868350087
 21
151.6823702648
 31
0.0
  0
LINE
  5
1C3
100
AcDbEntity
  8
51060010
  6
CONTINUOUS
 62
         7
100
AcDbLine
 10
122.0868350087
 20
168.1368529325
 30
0.0
 11
122.0868350087
 21
162.6520253766
 31
0.0
  0
LINE
  5
1C4
100
AcDbEntity
  8
51060010
  6
CONTINUOUS
 62
         7
100
AcDbLine
 10
122.0868350087
 20
151.6823702648
 30
0.0
 11
122.0868350087
 21
146.1975426978
 31
0.0
  0
LINE
  5
1C5
100
AcDbEntity
  8
51060010
  6
CONTINUOUS
 62
         7
100
AcDbLine
 10
165.7142569251
 20
170.0671978207
 30
0.0
 11
165.7142569251
 21
169.6671978207
 31
0.0
  0
LINE
  5
1C6
100
AcDbEntity
  8
51060010
  6
CONTINUOUS
 62
         7
100
AcDbLine
 10
164.8868350087
 20
170.0671978207
 30
0.0
 11
164.8868350087
 21
169.6671978207
 31
0.0
  0
LINE
  5
1C7
100
AcDbEntity
  8
51060010
  6
CONTINUOUS
 62
         7
100
AcDbLine
 10
167.8868350087
 20
170.0671978207
 30
0.0
 11
165.7142569251
 21
170.0671978207
 31
0.0
  0
LINE
  5
1C8
100
AcDbEntity
  8
51060010
  6
CONTINUOUS
 62
         7
100
AcDbLine
 10
167.8868350087
 20
170.0671978207
 30
0.0
 11
167.8868350087
 21
169.6671978207
 31
0.0
  0
LINE
  5
1C9
100
AcDbEntity
  8
51060010
  6
CONTINUOUS
 62
         7
100
AcDbLine
 10
165.7142569251
 20
170.0671978207
 30
0.0
 11
164.8868350087
 21
170.0671978207
 31
0.0
  0
LINE
  5
1CA
100
AcDbEntity
  8
51060010
  6
CONTINUOUS
 62
         7
100
AcDbLine
 10
110.0868350087
 20
182.1671978207
 30
0.0
 11
110.0868350087
 21
180.8722888062
 31
0.0
  0
LINE
  5
1CB
100
AcDbEntity
  8
51060010
  6
CONTINUOUS
 62
         7
100
AcDbLine
 10
110.0868350087
 20
133.4621068352
 30
0.0
 11
110.0868350087
 21
132.1671978207
 31
0.0
  0
LINE
  5
1CC
100
AcDbEntity
  8
51060010
  6
CONTINUOUS
 62
         7
100
AcDbLine
 10
110.0868350087
 20
175.8973516207
 30
0.0
 11
110.0868350087
 21
162.1421350063
 31
0.0
  0
SPLINE
  5
1CD
100
AcDbEntity
  8
51060010
  6
CONTINUOUS
 62
         7
100
AcDbSpline
210
0.0
220
0.0
230
1.0
 70
         8
 71
         3
 72
        18
 73
        14
 74
         0
 42
0.0
 43
0.0
 40
0.0
 40
0.0
 40
0.0
 40
0.0
 40
0.1250000000000002
 40
0.1250000000000002
 40
0.2500000000000003
 40
0.2500000000000003
 40
0.5000000000000006
 40
0.5000000000000006
 40
0.7500000000000008
 40
0.7500000000000008
 40
0.8750000000000003
 40
0.8750000000000003
 40
1.0
 40
1.0
 40
1.0
 40
1.0
 10
106.08683500870697
 20
162.14213500625479
 30
0.0
 10
105.56185018881506
 20
162.14213500625479
 30
0.0
 10
105.0754764224869
 20
161.86759110770996
 30
0.0
 10
104.36720813579259
 20
161.12862141085165
 30
0.0
 10
104.11803697179317
 20
160.66839959339475
 30
0.0
 10
103.56700747885148
 20
159.23163026938454
 30
0.0
 10
103.44099647476071
 20
158.19711983166755
 30
0.0
 10
103.4411709979059
 20
156.1354475146058
 30
0.0
 10
103.56650411683266
 20
155.10426149184948
 30
0.0
 10
104.11809761246077
 20
153.66574615963987
 30
0.0
 10
104.36398078558732
 20
153.20886570729519
 30
0.0
 10
105.08009493184126
 20
152.46226213140267
 30
0.0
 10
105.56304478878917
 20
152.19226063518767
 30
0.0
 10
106.08683500870691
 20
152.19226063518855
 30
0.0
  0
LINE
  5
1CE
100
AcDbEntity
  8
51060010
  6
CONTINUOUS
 62
         7
100
AcDbLine
 10
102.0868350087
 20
178.1671978207
 30
0.0
 11
102.0868350087
 21
136.1671978207
 31
0.0
  0
LINE
  5
1CF
100
AcDbEntity
  8
51060010
  6
CONTINUOUS
 62
         7
100
AcDbLine
 10
154.3868350087
 20
142.1671978207
 30
0.0
 11
160.4815791204
 21
142.1671978207
 31
0.0
  0
LINE
  5
1D0
100
AcDbEntity
  8
51060010
  6
CONTINUOUS
 62
         7
100
AcDbLine
 10
154.3868350087
 20
172.1671978207
 30
0.0
 11
154.0981598741
 21
172.6671978207
 31
0.0
  0
LINE
  5
1D1
100
AcDbEntity
  8
51060010
  6
CONTINUOUS
 62
         7
100
AcDbLine
 10
150.3868350087
 20
142.1671978207
 30
0.0
 11
150.8868350087
 21
141.6671978207
 31
0.0
  0
LINE
  5
1D2
100
AcDbEntity
  8
51060010
  6
CONTINUOUS
 62
         7
100
AcDbLine
 10
150.8868350087
 20
141.6671978207
 30
0.0
 11
154.0981598741
 21
141.6671978207
 31
0.0
  0
LINE
  5
1D3
100
AcDbEntity
  8
51060010
  6
CONTINUOUS
 62
         7
100
AcDbLine
 10
180.2376879698
 20
146.1671978207
 30
0.0
 11
186.5885409309
 21
157.1671978207
 31
0.0
  0
CIRCLE
  5
1D4
100
AcDbEntity
  8
51060010
  6
CONTINUOUS
 62
         7
100
AcDbCircle
 10
173.8868350087
 20
157.1671978207
 30
0.0
 40
10.5
  0
LINE
  5
1D5
100
AcDbEntity
  8
51060010
  6
CONTINUOUS
 62
         7
100
AcDbLine
 10
162.3868350087
 20
165.2070983176
 30
0.0
 11
165.8269678027
 21
165.2070983176
 31
0.0
  0
LINE
  5
1D6
100
AcDbEntity
  8
51060010
  6
CONTINUOUS
 62
         7
100
AcDbLine
 10
165.8269678027
 20
149.1272973238
 30
0.0
 11
162.3868350087
 21
149.1272973238
 31
0.0
  0
ARC
  5
1D7
100
AcDbEntity
  8
51060010
  6
CONTINUOUS
 62
         7
100
AcDbCircle
 10
173.8868350087
 20
157.1671978207
 30
0.0
 40
12.5
100
AcDbArc
 50
270.0
 51
298.1913314064
  0
ARC
  5
1D8
100
AcDbEntity
  8
51060010
  6
CONTINUOUS
 62
         7
100
AcDbCircle
 10
173.8868350087
 20
157.1671978207
 30
0.0
 40
12.5
100
AcDbArc
 50
301.7196204364
 51
358.2701109677
  0
ARC
  5
1D9
100
AcDbEntity
  8
51060010
  6
CONTINUOUS
 62
         7
100
AcDbCircle
 10
173.8868350087
 20
157.1671978207
 30
0.0
 40
12.5
100
AcDbArc
 50
1.8062871139
 51
58.2925005151
  0
ARC
  5
1DA
100
AcDbEntity
  8
51060010
  6
CONTINUOUS
 62
         7
100
AcDbCircle
 10
173.8868350087
 20
157.1671978207
 30
0.0
 40
12.5
100
AcDbArc
 50
61.796636735
 51
90.0
  0
LINE
  5
1DB
100
AcDbEntity
  8
51060010
  6
CONTINUOUS
 62
         7
100
AcDbLine
 10
160.5734805355
 20
169.6671978207
 30
0.0
 11
173.8868350087
 21
169.6671978207
 31
0.0
  0
LINE
  5
1DC
100
AcDbEntity
  8
51060010
  6
CONTINUOUS
 62
         7
100
AcDbLine
 10
173.8868350087
 20
144.6671978207
 30
0.0
 11
160.5734805355
 21
144.6671978207
 31
0.0
  0
SPLINE
  5
1DD
100
AcDbEntity
  8
51060010
  6
CONTINUOUS
 62
         7
100
AcDbSpline
210
0.0
220
0.0
230
1.0
 70
         8
 71
         3
 72
        14
 73
        10
 74
         0
 42
0.0
 43
0.0
 40
0.0
 40
0.0
 40
0.0
 40
0.0
 40
0.25
 40
0.25
 40
0.5
 40
0.5
 40
0.75
 40
0.75
 40
1.0
 40
1.0
 40
1.0
 40
1.0
 10
160.57348053554094
 20
169.66719782072167
 30
0.0
 10
160.55325490094091
 20
169.66719782072164
 30
0.0
 10
160.53877381971643
 20
169.65433546888502
 30
0.0
 10
160.52450315006436
 20
169.60278718264098
 30
0.0
 10
160.52487724481813
 20
169.56371230637853
 30
0.0
 10
160.54051379384944
 20
169.46796376158963
 30
0.0
 10
160.55565195179548
 20
169.41126136667231
 30
0.0
 10
160.59709499941954
 20
169.29075992913835
 30
0.0
 10
160.62265904503079
 20
169.22871709359734
 30
0.0
 10
160.65164274025889
 20
169.16719782072167
 30
0.0
  0
LINE
  5
1DE
100
AcDbEntity
  8
51060010
  6
CONTINUOUS
 62
         7
100
AcDbLine
 10
167.5359820476
 20
168.1671978207
 30
0.0
 11
161.1851290865
 21
157.1671978207
 31
0.0
  0
LINE
  5
1DF
100
AcDbEntity
  8
51060010
  6
CONTINUOUS
 62
         7
100
AcDbLine
 10
161.1851290865
 20
157.1671978207
 30
0.0
 11
167.5359820476
 21
146.1671978207
 31
0.0
  0
LINE
  5
1E0
100
AcDbEntity
  8
51060010
  6
CONTINUOUS
 62
         7
100
AcDbLine
 10
167.5359820476
 20
146.1671978207
 30
0.0
 11
180.2376879698
 21
146.1671978207
 31
0.0
  0
LINE
  5
1E1
100
AcDbEntity
  8
51060010
  6
CONTINUOUS
 62
         7
100
AcDbLine
 10
186.5885409309
 20
157.1671978207
 30
0.0
 11
180.2376879698
 21
168.1671978207
 31
0.0
  0
LINE
  5
1E2
100
AcDbEntity
  8
51060010
  6
CONTINUOUS
 62
         7
100
AcDbLine
 10
122.0868350087
 20
161.0171978207
 30
0.0
 11
117.0868350087
 21
161.0171978207
 31
0.0
  0
LINE
  5
1E3
100
AcDbEntity
  8
51060010
  6
CONTINUOUS
 62
         7
100
AcDbLine
 10
138.1868350087
 20
165.9671978207
 30
0.0
 11
133.8868350087
 21
165.9671978207
 31
0.0
  0
LINE
  5
1E4
100
AcDbEntity
  8
51060010
  6
CONTINUOUS
 62
         7
100
AcDbLine
 10
150.3868350087
 20
172.6671978207
 30
0.0
 11
147.3868350087
 21
172.6671978207
 31
0.0
  0
LINE
  5
1E5
100
AcDbEntity
  8
51060010
  6
CONTINUOUS
 62
         7
100
AcDbLine
 10
160.4815791204
 20
142.1671978207
 30
0.0
 11
161.9232764018
 21
144.6642907613
 31
0.0
  0
LINE
  5
1E6
100
AcDbEntity
  8
51060010
  6
CONTINUOUS
 62
         7
100
AcDbLine
 10
106.0868350087
 20
132.1671978207
 30
0.0
 11
110.0868350087
 21
132.1671978207
 31
0.0
  0
ARC
  5
1E7
100
AcDbEntity
  8
51060010
  6
CONTINUOUS
 62
         7
100
AcDbCircle
 10
106.0868350087
 20
178.1671978207
 30
0.0
 40
4.0
100
AcDbArc
 50
90.0
 51
180.0
  0
ARC
  5
1E8
100
AcDbEntity
  8
51060010
  6
CONTINUOUS
 62
         7
100
AcDbCircle
 10
106.0868350087
 20
136.1671978207
 30
0.0
 40
4.0
100
AcDbArc
 50
180.0
 51
270.0
  0
LINE
  5
1E9
100
AcDbEntity
  8
51060010
  6
CONTINUOUS
 62
         7
100
AcDbLine
 10
110.0868350087
 20
182.1671978207
 30
0.0
 11
106.0868350087
 21
182.1671978207
 31
0.0
  0
LINE
  5
1EA
100
AcDbEntity
  8
51060010
  6
CONTINUOUS
 62
         7
100
AcDbLine
 10
160.4815791204
 20
172.1671978207
 30
0.0
 11
154.3868350087
 21
172.1671978207
 31
0.0
  0
LINE
  5
1EB
100
AcDbEntity
  8
51060010
  6
CONTINUOUS
 62
         7
100
AcDbLine
 10
154.0981598741
 20
141.6671978207
 30
0.0
 11
154.3868350087
 21
142.1671978207
 31
0.0
  0
LINE
  5
1EC
100
AcDbEntity
  8
51060010
  6
CONTINUOUS
 62
         7
100
AcDbLine
 10
150.8868350087
 20
172.6671978207
 30
0.0
 11
150.3868350087
 21
172.1671978207
 31
0.0
  0
LINE
  5
1ED
100
AcDbEntity
  8
51060010
  6
CONTINUOUS
 62
         7
100
AcDbLine
 10
154.0981598741
 20
172.6671978207
 30
0.0
 11
150.8868350087
 21
172.6671978207
 31
0.0
  0
LINE
  5
1EE
100
AcDbEntity
  8
51060010
  6
CONTINUOUS
 62
         7
100
AcDbLine
 10
110.0868350087
 20
161.1671978207
 30
0.0
 11
117.0868350087
 21
161.1671978207
 31
0.0
  0
LINE
  5
1EF
100
AcDbEntity
  8
51060010
  6
CONTINUOUS
 62
         7
100
AcDbLine
 10
117.0868350087
 20
153.1671978207
 30
0.0
 11
117.0868350087
 21
161.1671978207
 31
0.0
  0
LINE
  5
1F0
100
AcDbEntity
  8
51060010
  6
CONTINUOUS
 62
         7
100
AcDbLine
 10
110.0868350087
 20
153.1671978207
 30
0.0
 11
117.0868350087
 21
153.1671978207
 31
0.0
  0
LINE
  5
1F1
100
AcDbEntity
  8
51060010
  6
CONTINUOUS
 62
         7
100
AcDbLine
 10
110.0868350087
 20
180.8722888062
 30
0.0
 11
106.0868350087
 21
180.8722888062
 31
0.0
  0
LINE
  5
1F2
100
AcDbEntity
  8
51060010
  6
CONTINUOUS
 62
         7
100
AcDbLine
 10
110.0868350087
 20
152.1922606352
 30
0.0
 11
110.0868350087
 21
162.1421350063
 31
0.0
  0
LINE
  5
1F3
100
AcDbEntity
  8
51060010
  6
CONTINUOUS
 62
         7
100
AcDbLine
 10
110.0868350087
 20
162.1421350063
 30
0.0
 11
106.0868350087
 21
162.1421350063
 31
0.0
  0
LINE
  5
1F4
100
AcDbEntity
  8
51060010
  6
CONTINUOUS
 62
         7
100
AcDbLine
 10
106.0868350087
 20
152.1922606352
 30
0.0
 11
110.0868350087
 21
152.1922606352
 31
0.0
  0
LINE
  5
1F5
100
AcDbEntity
  8
51060010
  6
CONTINUOUS
 62
         7
100
AcDbLine
 10
110.0868350087
 20
175.8973516207
 30
0.0
 11
110.0868350087
 21
180.8722888062
 31
0.0
  0
LINE
  5
1F6
100
AcDbEntity
  8
51060010
  6
CONTINUOUS
 62
         7
100
AcDbLine
 10
106.0868350087
 20
175.8973516207
 30
0.0
 11
110.0868350087
 21
175.8973516207
 31
0.0
  0
LINE
  5
1F7
100
AcDbEntity
  8
51060010
  6
CONTINUOUS
 62
         7
100
AcDbLine
 10
110.0868350087
 20
133.4621068352
 30
0.0
 11
110.0868350087
 21
138.4370440208
 31
0.0
  0
LINE
  5
1F8
100
AcDbEntity
  8
51060010
  6
CONTINUOUS
 62
         7
100
AcDbLine
 10
106.0868350087
 20
133.4621068352
 30
0.0
 11
110.0868350087
 21
133.4621068352
 31
0.0
  0
LINE
  5
1F9
100
AcDbEntity
  8
51060010
  6
CONTINUOUS
 62
         7
100
AcDbLine
 10
110.0868350087
 20
138.4370440208
 30
0.0
 11
106.0868350087
 21
138.4370440208
 31
0.0
  0
LINE
  5
1FA
100
AcDbEntity
  8
51060010
  6
CONTINUOUS
 62
         7
100
AcDbLine
 10
110.0868350087
 20
152.1922606352
 30
0.0
 11
110.0868350087
 21
138.4370440208
 31
0.0
  0
SPLINE
  5
1FB
100
AcDbEntity
  8
51060010
  6
CONTINUOUS
 62
         7
100
AcDbSpline
210
0.0
220
0.0
230
1.0
 70
         8
 71
         3
 72
        18
 73
        14
 74
         0
 42
0.0
 43
0.0
 40
0.0
 40
0.0
 40
0.0
 40
0.0
 40
0.1249999999999999
 40
0.1249999999999999
 40
0.2500000000000001
 40
0.2500000000000001
 40
0.5000000000000004
 40
0.5000000000000004
 40
0.7500000000000008
 40
0.7500000000000008
 40
0.8750000000000003
 40
0.8750000000000003
 40
1.0
 40
1.0
 40
1.0
 40
1.0
 10
106.08683500870697
 20
138.43704402076949
 30
0.0
 10
105.56185018881506
 20
138.43704402076949
 30
0.0
 10
105.07547642248693
 20
138.34914956964451
 30
0.0
 10
104.36720813579259
 20
138.09223216699206
 30
0.0
 10
104.11803697179317
 20
137.923887054179
 30
0.0
 10
103.56700747885148
 20
137.35703605777275
 30
0.0
 10
103.44099647476068
 20
136.89758176438389
 30
0.0
 10
103.4411709979059
 20
135.86668031887311
 30
0.0
 10
103.56650411683266
 20
135.29349818077569
 30
0.0
 10
104.11809761246077
 20
134.42253961980296
 30
0.0
 10
104.36398078558732
 20
134.13283505128811
 30
0.0
 10
105.08009493184129
 20
133.64578330645494
 30
0.0
 10
105.56304478878917
 20
133.46210683523577
 30
0.0
 10
106.08683500870691
 20
133.46210683523637
 30
0.0
  0
SPLINE
  5
1FC
100
AcDbEntity
  8
51060010
  6
CONTINUOUS
 62
         7
100
AcDbSpline
210
0.0
220
0.0
230
1.0
 70
         8
 71
         3
 72
        18
 73
        14
 74
         0
 42
0.0
 43
0.0
 40
0.0
 40
0.0
 40
0.0
 40
0.0
 40
0.125
 40
0.125
 40
0.2500000000000001
 40
0.2500000000000001
 40
0.5000000000000001
 40
0.5000000000000001
 40
0.7500000000000002
 40
0.7500000000000002
 40
0.8750000000000001
 40
0.8750000000000001
 40
1.0
 40
1.0
 40
1.0
 40
1.0
 10
106.08683500870697
 20
180.872288806207
 30
0.0
 10
105.56185018881506
 20
180.872288806207
 30
0.0
 10
105.07547642248689
 20
180.68563935878711
 30
0.0
 10
104.36720813579262
 20
180.20358706458128
 30
0.0
 10
104.1180369717932
 20
179.91171035993739
 30
0.0
 10
103.56700747885148
 20
179.04179203233343
 30
0.0
 10
103.44099647476068
 20
178.46673588800536
 30
0.0
 10
103.44117099790584
 20
177.43596501645436
 30
0.0
 10
103.56650411683269
 20
176.97796113179544
 30
0.0
 10
104.11809761246077
 20
176.4104043605586
 30
0.0
 10
104.36398078558732
 20
176.24322847672872
 30
0.0
 10
105.08009493184126
 20
175.98367664566945
 30
0.0
 10
105.56304478878917
 20
175.89735162067359
 30
0.0
 10
106.08683500870691
 20
175.89735162067387
 30
0.0
  0
ENDBLK
  5
1FD
100
AcDbEntity
  8
51060010
  6
CONTINUOUS
 62
         7
100
AcDbBlockEnd
  0
ENDSEC
  0
SECTION
  2
ENTITIES
  0
INSERT
  5
3A
102
{ACAD_XDICTIONARY
360
3B
102
}
100
AcDbEntity
  8
0
 62
         0
 48
0.0
100
AcDbBlockReference
  2
SE1
 10
0.0
 20
0.0
 30
0.0
  0
INSERT
  5
3E
100
AcDbEntity
  8
0
 62
         0
 48
0.0
100
AcDbBlockReference
  2
SE0
 10
0.0
 20
0.0
 30
0.0
  0
INSERT
  5
41
102
{ACAD_XDICTIONARY
360
42
102
}
100
AcDbEntity
  8
0
 62
         0
 48
0.0
100
AcDbBlockReference
  2
SE3
 10
0.0
 20
0.0
 30
0.0
  0
INSERT
  5
45
100
AcDbEntity
  8
0
 62
         0
 48
0.0
100
AcDbBlockReference
  2
SE2
 10
0.0
 20
0.0
 30
0.0
  0
INSERT
  5
48
102
{ACAD_XDICTIONARY
360
49
102
}
100
AcDbEntity
  8
0
 62
         0
 48
0.0
100
AcDbBlockReference
  2
SE5
 10
0.0
 20
0.0
 30
0.0
  0
INSERT
  5
4C
100
AcDbEntity
  8
0
 62
         0
 48
0.0
100
AcDbBlockReference
  2
SE4
 10
0.0
 20
0.0
 30
0.0
  0
INSERT
  5
4F
102
{ACAD_XDICTIONARY
360
50
102
}
100
AcDbEntity
  8
0
 62
         0
 48
0.0
100
AcDbBlockReference
  2
SE7
 10
0.0
 20
0.0
 30
0.0
  0
INSERT
  5
53
100
AcDbEntity
  8
0
 62
         0
 48
0.0
100
AcDbBlockReference
  2
SE6
 10
0.0
 20
0.0
 30
0.0
  0
ENDSEC
  0
SECTION
  2
OBJECTS
  0
DICTIONARY
  5
19
100
AcDbDictionary
  3
ACAD_GROUP
350
1A
  3
ACAD_MLINESTYLE
350
1B
  3
ACDBVARIABLEDICTIONARY
350
200
  0
DICTIONARY
  5
1A
102
{ACAD_REACTORS
330
19
102
}
100
AcDbDictionary
  0
DICTIONARY
  5
1B
102
{ACAD_REACTORS
330
19
102
}
100
AcDbDictionary
  3
STANDARD
350
1C
  0
MLINESTYLE
  5
1C
102
{ACAD_REACTORS
330
1B
102
}
100
AcDbMlineStyle
  2
Standard
 70
         0
  3

 62
         0
 51
90.0
 52
90.0
 71
         2
 49
0.5
 62
       256
  6
ByLayer
 49
-0.5
 62
       256
  6
ByLayer
  0
DICTIONARY
  5
22
102
{ACAD_REACTORS
330
19
102
}
100
AcDbDictionary
  0
DICTIONARY
  5
3B
100
AcDbDictionary
  3
ACAD_FILTER
350
3C
  0
DICTIONARY
  5
3C
100
AcDbDictionary
  3
SPATIAL
350
3D
  0
SPATIAL_FILTER
  5
3D
100
AcDbFilter
100
AcDbSpatialFilter
 70
         2
 10
1.5183109201
 20
2.8822535419
 10
63.7183109201
 20
100.083959464
210
0.0
220
0.0
230
1.0
 11
0.0
 21
0.0
 31
0.0
 71
         1
 72
         0
 73
         0
 40
1.0
 40
0.0
 40
0.0
 40
0.0
 40
0.0
 40
1.0
 40
0.0
 40
0.0
 40
0.0
 40
0.0
 40
1.0
 40
0.0
 40
1.0
 40
0.0
 40
0.0
 40
0.0
 40
0.0
 40
1.0
 40
0.0
 40
0.0
 40
0.0
 40
0.0
 40
1.0
 40
0.0
  0
DICTIONARY
  5
42
100
AcDbDictionary
  3
ACAD_FILTER
350
43
  0
DICTIONARY
  5
43
100
AcDbDictionary
  3
SPATIAL
350
44
  0
SPATIAL_FILTER
  5
44
100
AcDbFilter
100
AcDbSpatialFilter
 70
         2
 10
1.5183109201
 20
125.8171978207
 10
63.7183109201
 20
188.5171978207
210
0.0
220
0.0
230
1.0
 11
0.0
 21
0.0
 31
0.0
 71
         1
 72
         0
 73
         0
 40
1.0
 40
0.0
 40
0.0
 40
0.0
 40
0.0
 40
1.0
 40
0.0
 40
0.0
 40
0.0
 40
0.0
 40
1.0
 40
0.0
 40
1.0
 40
0.0
 40
0.0
 40
0.0
 40
0.0
 40
1.0
 40
0.0
 40
0.0
 40
0.0
 40
0.0
 40
1.0
 40
0.0
  0
DICTIONARY
  5
49
100
AcDbDictionary
  3
ACAD_FILTER
350
4A
  0
DICTIONARY
  5
4A
100
AcDbDictionary
  3
SPATIAL
350
4B
  0
SPATIAL_FILTER
  5
4B
100
AcDbFilter
100
AcDbSpatialFilter
 70
         2
 10
114.3785796521
 20
2.8822535419
 10
176.5785796521
 20
100.083959464
210
0.0
220
0.0
230
1.0
 11
0.0
 21
0.0
 31
0.0
 71
         1
 72
         0
 73
         0
 40
1.0
 40
0.0
 40
0.0
 40
0.0
 40
0.0
 40
1.0
 40
0.0
 40
0.0
 40
0.0
 40
0.0
 40
1.0
 40
0.0
 40
1.0
 40
0.0
 40
0.0
 40
0.0
 40
0.0
 40
1.0
 40
0.0
 40
0.0
 40
0.0
 40
0.0
 40
1.0
 40
0.0
  0
DICTIONARY
  5
50
100
AcDbDictionary
  3
ACAD_FILTER
350
51
  0
DICTIONARY
  5
51
100
AcDbDictionary
  3
SPATIAL
350
52
  0
SPATIAL_FILTER
  5
52
100
AcDbFilter
100
AcDbSpatialFilter
 70
         2
 10
95.7368350087
 20
125.8171978207
 10
192.9385409309
 20
188.5171978207
210
0.0
220
0.0
230
1.0
 11
0.0
 21
0.0
 31
0.0
 71
         1
 72
         0
 73
         0
 40
1.0
 40
0.0
 40
0.0
 40
0.0
 40
0.0
 40
1.0
 40
0.0
 40
0.0
 40
0.0
 40
0.0
 40
1.0
 40
0.0
 40
1.0
 40
0.0
 40
0.0
 40
0.0
 40
0.0
 40
1.0
 40
0.0
 40
0.0
 40
0.0
 40
0.0
 40
1.0
 40
0.0
  0
DICTIONARY
  5
200
100
AcDbDictionary
  3
DIMASSOC
350
201
  0
DICTIONARYVAR
  5
201
100
DictionaryVariables
280
         0
  1
2
  0
ENDSEC
  0
EOF
