  0
SECTION
  2
HEADER
  9
$ACADVER
  1
AC1014
  9
$ACADMAINTVER
 70
         0
  9
$DWGCODEPAGE
  3
ANSI_1252
  9
$INSBASE
 10
0.0
 20
0.0
 30
0.0
  9
$EXTMIN
 10
0.0
 20
0.0
 30
0.0
  9
$EXTMAX
 10
420.0
 20
297.0
 30
0.0
  9
$LIMMIN
 10
0.0
 20
0.0
  9
$LIMMAX
 10
420.0
 20
297.0
  9
$ORTHOMODE
 70
         0
  9
$REGENMODE
 70
         1
  9
$FILLMODE
 70
         1
  9
$QTEXTMODE
 70
         0
  9
$MIRRTEXT
 70
         1
  9
$DRAGMODE
 70
         2
  9
$LTSCALE
 40
25.4
  9
$OSMODE
 70
         0
  9
$ATTMODE
 70
         1
  9
$TEXTSIZE
 40
0.2
  9
$TRACEWID
 40
0.05
  9
$TEXTSTYLE
  7
Standard
  9
$CLAYER
  8
0
  9
$CELTYPE
  6
CONTINUOUS
  9
$CECOLOR
 62
       256
  9
$CELTSCALE
 40
1.0
  9
$DELOBJ
 70
         1
  9
$DISPSILH
 70
         0
  9
$DIMSCALE
 40
1.0
  9
$DIMASZ
 40
0.18
  9
$DIMEXO
 40
0.0625
  9
$DIMDLI
 40
0.38
  9
$DIMRND
 40
0.0
  9
$DIMDLE
 40
0.0
  9
$DIMEXE
 40
0.18
  9
$DIMTP
 40
0.0
  9
$DIMTM
 40
0.0
  9
$DIMTXT
 40
0.18
  9
$DIMCEN
 40
0.09
  9
$DIMTSZ
 40
0.0
  9
$DIMTOL
 70
         0
  9
$DIMLIM
 70
         0
  9
$DIMTIH
 70
         1
  9
$DIMTOH
 70
         1
  9
$DIMSE1
 70
         0
  9
$DIMSE2
 70
         0
  9
$DIMTAD
 70
         0
  9
$DIMZIN
 70
         0
  9
$DIMBLK
  1

  9
$DIMASO
 70
         1
  9
$DIMSHO
 70
         1
  9
$DIMPOST
  1

  9
$DIMAPOST
  1

  9
$DIMALT
 70
         0
  9
$DIMALTD
 70
         2
  9
$DIMALTF
 40
25.4
  9
$DIMLFAC
 40
1.0
  9
$DIMTOFL
 70
         0
  9
$DIMTVP
 40
0.0
  9
$DIMTIX
 70
         0
  9
$DIMSOXD
 70
         0
  9
$DIMSAH
 70
         0
  9
$DIMBLK1
  1

  9
$DIMBLK2
  1

  9
$DIMSTYLE
  2
Standard
  9
$DIMCLRD
 70
         0
  9
$DIMCLRE
 70
         0
  9
$DIMCLRT
 70
         0
  9
$DIMTFAC
 40
1.0
  9
$DIMGAP
 40
0.09
  9
$DIMJUST
 70
         0
  9
$DIMSD1
 70
         0
  9
$DIMSD2
 70
         0
  9
$DIMTOLJ
 70
         1
  9
$DIMTZIN
 70
         0
  9
$DIMALTZ
 70
         0
  9
$DIMALTTZ
 70
         0
  9
$DIMFIT
 70
         3
  9
$DIMUPT
 70
         0
  9
$DIMUNIT
 70
         2
  9
$DIMDEC
 70
         4
  9
$DIMTDEC
 70
         4
  9
$DIMALTU
 70
         2
  9
$DIMALTTD
 70
         2
  9
$DIMTXSTY
  7
Standard
  9
$DIMAUNIT
 70
         0
  9
$LUNITS
 70
         2
  9
$LUPREC
 70
         4
  9
$SKETCHINC
 40
0.1
  9
$FILLETRAD
 40
0.0
  9
$AUNITS
 70
         0
  9
$AUPREC
 70
         0
  9
$MENU
  1
acad
  9
$ELEVATION
 40
0.0
  9
$PELEVATION
 40
0.0
  9
$THICKNESS
 40
0.0
  9
$LIMCHECK
 70
         0
  9
$BLIPMODE
 70
         1
  9
$CHAMFERA
 40
0.0
  9
$CHAMFERB
 40
0.0
  9
$CHAMFERC
 40
0.0
  9
$CHAMFERD
 40
0.0
  9
$SKPOLY
 70
         0
  9
$TDCREATE
 40
0.000000000
  9
$TDUPDATE
 40
0.000000000
  9
$TDINDWG
 40
0.0000000000
  9
$TDUSRTIMER
 40
0.0000000000
  9
$USRTIMER
 70
         1
  9
$ANGBASE
 50
0.0
  9
$ANGDIR
 70
         0
  9
$PDMODE
 70
         0
  9
$PDSIZE
 40
0.0
  9
$PLINEWID
 40
0.0
  9
$COORDS
 70
         0
  9
$SPLFRAME
 70
         0
  9
$SPLINETYPE
 70
         6
  9
$SPLINESEGS
 70
         8
  9
$ATTDIA
 70
         0
  9
$ATTREQ
 70
         1
  9
$HANDLING
 70
         1
  9
$HANDSEED
  5
164
  9
$SURFTAB1
 70
         6
  9
$SURFTAB2
 70
         6
  9
$SURFTYPE
 70
         6
  9
$SURFU
 70
         6
  9
$SURFV
 70
         6
  9
$UCSNAME
  2

  9
$UCSORG
 10
0.0
 20
0.0
 30
0.0
  9
$UCSXDIR
 10
1.0
 20
0.0
 30
0.0
  9
$UCSYDIR
 10
0.0
 20
1.0
 30
0.0
  9
$PUCSNAME
  2

  9
$PUCSORG
 10
0.0
 20
0.0
 30
0.0
  9
$PUCSXDIR
 10
1.0
 20
0.0
 30
0.0
  9
$PUCSYDIR
 10
0.0
 20
1.0
 30
0.0
  9
$USERI1
 70
         0
  9
$USERI2
 70
         0
  9
$USERI3
 70
         0
  9
$USERI4
 70
         0
  9
$USERI5
 70
         0
  9
$USERR1
 40
0.0
  9
$USERR2
 40
0.0
  9
$USERR3
 40
0.0
  9
$USERR4
 40
0.0
  9
$USERR5
 40
0.0
  9
$WORLDVIEW
 70
         1
  9
$SHADEDGE
 70
         3
  9
$SHADEDIF
 70
        70
  9
$TILEMODE
 70
         1
  9
$MAXACTVP
 70
        16
  9
$PINSBASE
 10
0.0
 20
0.0
 30
0.0
  9
$PLIMCHECK
 70
         0
  9
$PEXTMIN
 10
1.0000000000E+20
 20
1.0000000000E+20
 30
1.0000000000E+20
  9
$PEXTMAX
 10
-1.0000000000E+20
 20
-1.0000000000E+20
 30
-1.0000000000E+20
  9
$PLIMMIN
 10
0.0
 20
0.0
  9
$PLIMMAX
 10
12.0
 20
9.0
  9
$UNITMODE
 70
         0
  9
$VISRETAIN
 70
         0
  9
$PLINEGEN
 70
         1
  9
$PSLTSCALE
 70
         0
  9
$TREEDEPTH
 70
      3020
  9
$PICKSTYLE
 70
         1
  9
$CMLSTYLE
  2
Standard
  9
$CMLJUST
 70
         0
  9
$CMLSCALE
 40
1.0
  9
$PROXYGRAPHICS
 70
         0
  9
$MEASUREMENT
 70
         0
  0
ENDSEC
  0
SECTION
  2
CLASSES
  0
CLASS
  1
LWPOLYLINE
  2
AcDbPolyline
  3
"AutoCAD"
 90
        0
280
         0
281
         1
  0
CLASS
  1
IMAGE
  2
AcDbRasterImage
  3
ISM
 90
      127
280
         0
281
         1
  0
CLASS
  1
OLE2FRAME
  2
AcDbOle2Frame
  3
""
 90
        0
280
         0
281
         1
  0
CLASS
  1
HATCH
  2
AcDbHatch
  3
"ACAD_SEDONA"
 90
        0
280
         0
281
         1
  0
CLASS
  1
DICTIONARYVAR
  2
AcDbDictionaryVar
  3
"AutoCAD"
 90
        0
280
         0
281
         0
  0
CLASS
  1
RASTERVARIABLES
  2
AcDbRasterVariables
  3
ISM
 90
        0
280
         0
281
         0
  0
CLASS
  1
IMAGEDEF
  2
AcDbRasterImageDef
  3
ISM
 90
        0
280
         0
281
         0
  0
CLASS
  1
IMAGEDEF_REACTOR
  2
AcDbRasterImageDefReactor
  3
ISM
 90
        1
280
         0
281
         0
  0
CLASS
  1
IDBUFFER
  2
AcDbIdBuffer
  3
"Acad"
 90
        0
280
         0
281
         0
  0
CLASS
  1
SPATIAL_FILTER
  2
AcDbSpatialFilter
  3
"Acad"
 90
        0
280
         0
281
         0
  0
CLASS
  1
XRECORD
  2
AcDbXrecord
  3
"<Built In>"
 90
        0
280
         0
281
         0
  0
CLASS
  1
SORTENTSTABLE
  2
AcDbSortentsTable
  3
"AutoCAD"
 90
        0
280
         0
281
         0
  0
CLASS
  1
LAYER_INDEX
  2
AcDbLayerIndex
  3
"Acad"
 90
        0
280
         0
281
         0
  0
CLASS
  1
SPATIAL_INDEX
  2
AcDbSpatialIndex
  3
"Acad"
 90
        0
280
         0
281
         0
  0
CLASS
  1
OBJECT_PTR
  2
CAseDLPNTableRecord
  3
"ASE-LPNTableRecord"
 90
        1
280
         0
281
         0
  0
CLASS
  1
LAYOUT
  2
AcDbLayout
  3
"AutoCAD 2000"
 90
        1
280
         0
281
         0
  0
CLASS
  1
PLOTSETTINGS
  2
AcDbPlotSettings
  3
"AutoCAD 2000"
 90
        1
280
         0
281
         0
  0
CLASS
  1
ACDBDICTIONARYWDFLT
  2
AcDbDictionaryWithDefault
  3
"AutoCAD 2000"
 90
        1
280
         0
281
         0
  0
CLASS
  1
ACDBPLACEHOLDER
  2
AcDbPlaceHolder
  3
"AutoCAD 2000"
 90
        1
280
         0
281
         0
  0
CLASS
  1
VBA_PROJECT
  2
AcDbVbaProject
  3
"acadvba"
 90
        1
280
         0
281
         0
  0
CLASS
  1
WIPEOUT
  2
AcDbWipeout
  3
WipeOut|AutoCAD Express Tool|expresstools@autodesk.com
 90
      127
280
         0
281
         1
  0
CLASS
  1
WIPEOUTVARIABLES
  2
AcDbWipeoutVariables
  3
WipeOut|AutoCAD Express Tool|expresstools@autodesk.com
 90
        0
280
         0
281
         0
  0
CLASS
  1
RTEXT
  2
RText
  3
RText|AutoCAD Express Tool|expresstools@autodesk.com
 90
        0
280
         0
281
         1
  0
CLASS
  1
ARCALIGNEDTEXT
  2
AcDbArcAlignedText
  3
ATEXT|AutoCAD Express Tool|expresstools@autodesk.com
 90
        0
280
         0
281
         1
  0
ENDSEC
  0
SECTION
  2
TABLES
  0
TABLE
  2
VPORT
  5
7
100
AcDbSymbolTable
 70
         1
  0
VPORT
  5
15
100
AcDbSymbolTableRecord
100
AcDbViewportTableRecord
  2
*ACTIVE
 70
         0
 10
0.0
 20
0.0
 11
1.0
 21
1.0
 12
210.0
 22
148.5
 13
0.0
 23
0.0
 14
1.0
 24
1.0
 15
0.0
 25
0.0
 16
0.0
 26
0.0
 36
1.0
 17
0.0
 27
0.0
 37
0.0
 40
297.0
 41
1.604229
 42
50.0
 43
0.0
 44
0.0
 50
0.0
 51
0.0
 71
         0
 72
       100
 73
         1
 74
         1
 75
         0
 76
         0
 77
         0
 78
         0
  0
ENDTAB
  0
TABLE
  2
LTYPE
  5
4
100
AcDbSymbolTable
 70
         7
  0
LTYPE
  5
11
100
AcDbSymbolTableRecord
100
AcDbLinetypeTableRecord
  2
ByBlock
 70
        64
  3

 72
        65
 73
         0
 40
0.0
  0
LTYPE
  5
12
100
AcDbSymbolTableRecord
100
AcDbLinetypeTableRecord
  2
ByLayer
 70
        64
  3

 72
        65
 73
         0
 40
0.0
  0
LTYPE
  5
13
100
AcDbSymbolTableRecord
100
AcDbLinetypeTableRecord
  2
CONTINUOUS
 70
         0
  3
Solid line
 72
        65
 73
         0
 40
0.0
  0
LTYPE
  5
28
100
AcDbSymbolTableRecord
100
AcDbLinetypeTableRecord
  2
HIDDEN2
 70
        64
  3
_ _ _ _ _ _ _ _ _ _ _ _ _ _ _ _ _ _ _ _ _ _ _ _
 72
        65
 73
         2
 40
0.1875
 49
0.125
 74
         0
 49
-0.0625
 74
         0
  0
LTYPE
  5
29
100
AcDbSymbolTableRecord
100
AcDbLinetypeTableRecord
  2
CENTER2
 70
        64
  3
___ _ ___ _ ___ _ ___ _ ___ _ ___ _ ___ _ ___ _
 72
        65
 73
         4
 40
1.125
 49
0.75
 74
         0
 49
-0.125
 74
         0
 49
0.125
 74
         0
 49
-0.125
 74
         0
  0
LTYPE
  5
2A
100
AcDbSymbolTableRecord
100
AcDbLinetypeTableRecord
  2
PHANTOM2
 70
        64
  3
___ _ _ ___ _ _ ___ _ _ ___ _ _ ___ _ _ ___ _ _
 72
        65
 73
         6
 40
1.25
 49
0.625
 74
         0
 49
-0.125
 74
         0
 49
0.125
 74
         0
 49
-0.125
 74
         0
 49
0.125
 74
         0
 49
-0.125
 74
         0
  0
LTYPE
  5
2B
100
AcDbSymbolTableRecord
100
AcDbLinetypeTableRecord
  2
DOT2
 70
        64
  3
...............................................
 72
        65
 73
         2
 40
0.125
 49
0.0
 74
         0
 49
-0.125
 74
         0
  0
ENDTAB
  0
TABLE
  2
LAYER
  5
2
100
AcDbSymbolTable
 70
         3
  0
LAYER
  5
14
100
AcDbSymbolTableRecord
100
AcDbLayerTableRecord
  2
0
 70
         0
 62
         7
  6
CONTINUOUS
  0
LAYER
  5
2D
100
AcDbSymbolTableRecord
100
AcDbLayerTableRecord
  2
DEFAULT
 70
         0
 62
         7
  6
CONTINUOUS
  0
LAYER
  5
37
100
AcDbSymbolTableRecord
100
AcDbLayerTableRecord
  2
TA400F_DN10
 70
         0
 62
         7
  6
CONTINUOUS
  0
ENDTAB
  0
TABLE
  2
STYLE
  5
3
100
AcDbSymbolTable
 70
         1
  0
STYLE
  5
17
100
AcDbSymbolTableRecord
100
AcDbTextStyleTableRecord
  2
Standard
 70
         0
 40
0.0
 41
1.0
 50
0.0
 71
         0
 42
0.2
  3
txt
  4

  0
ENDTAB
  0
TABLE
  2
VIEW
  5
5
100
AcDbSymbolTable
 70
         0
  0
ENDTAB
  0
TABLE
  2
UCS
  5
6
100
AcDbSymbolTable
 70
         0
  0
ENDTAB
  0
TABLE
  2
APPID
  5
8
100
AcDbSymbolTable
 70
         1
  0
APPID
  5
16
100
AcDbSymbolTableRecord
100
AcDbRegAppTableRecord
  2
ACAD
 70
         0
  0
ENDTAB
  0
TABLE
  2
DIMSTYLE
  5
9
100
AcDbSymbolTable
 70
         1
  0
DIMSTYLE
105
18
100
AcDbSymbolTableRecord
100
AcDbDimStyleTableRecord
  2
Standard
 70
         0
  3

  4

  5

  6

  7

 40
1.0
 41
0.18
 42
0.0625
 43
0.38
 44
0.18
 45
0.0
 46
0.0
 47
0.0
 48
0.0
 71
         0
 72
         0
 73
         1
 74
         1
 75
         0
 76
         0
 77
         0
 78
         0
140
0.18
141
0.09
142
0.0
143
25.4
144
1.0
145
0.0
146
1.0
147
0.09
170
         0
171
         2
172
         0
173
         0
174
         0
175
         0
176
         0
177
         0
178
         0
270
         2
271
         4
272
         4
273
         2
274
         2
275
         0
280
         0
281
         0
282
         0
283
         1
284
         0
285
         0
286
         0
287
         0
288
         0
340
17
  0
ENDTAB
  0
TABLE
  2
BLOCK_RECORD
  5
1
100
AcDbSymbolTable
 70
         8
  0
BLOCK_RECORD
  5
A
100
AcDbSymbolTableRecord
100
AcDbBlockTableRecord
  2
*MODEL_SPACE
  0
BLOCK_RECORD
  5
B
100
AcDbSymbolTableRecord
100
AcDbBlockTableRecord
  2
*PAPER_SPACE
  0
BLOCK_RECORD
  5
38
100
AcDbSymbolTableRecord
100
AcDbBlockTableRecord
  2
SE0
  0
BLOCK_RECORD
  5
39
100
AcDbSymbolTableRecord
100
AcDbBlockTableRecord
  2
SE1
  0
BLOCK_RECORD
  5
3F
100
AcDbSymbolTableRecord
100
AcDbBlockTableRecord
  2
SE2
  0
BLOCK_RECORD
  5
40
100
AcDbSymbolTableRecord
100
AcDbBlockTableRecord
  2
SE3
  0
BLOCK_RECORD
  5
46
100
AcDbSymbolTableRecord
100
AcDbBlockTableRecord
  2
SE4
  0
BLOCK_RECORD
  5
47
100
AcDbSymbolTableRecord
100
AcDbBlockTableRecord
  2
SE5
  0
BLOCK_RECORD
  5
4D
100
AcDbSymbolTableRecord
100
AcDbBlockTableRecord
  2
SE6
  0
BLOCK_RECORD
  5
4E
100
AcDbSymbolTableRecord
100
AcDbBlockTableRecord
  2
SE7
  0
ENDTAB
  0
ENDSEC
  0
SECTION
  2
BLOCKS
  0
BLOCK
  5
D
100
AcDbEntity
  8
0
100
AcDbBlockBegin
  2
*MODEL_SPACE
 70
         0
 10
0.0
 20
0.0
 30
0.0
  3
*MODEL_SPACE
  1

  0
ENDBLK
  5
E
100
AcDbEntity
  8
0
100
AcDbBlockEnd
  0
BLOCK
  5
F
100
AcDbEntity
 67
         1
  8
0
100
AcDbBlockBegin
  2
*PAPER_SPACE
 70
         0
 10
0.0
 20
0.0
 30
0.0
  3
*PAPER_SPACE
  1

  0
ENDBLK
  5
10
100
AcDbEntity
 67
         1
  8
0
100
AcDbBlockEnd
  0
BLOCK
  5
A7
100
AcDbEntity
  8
0
 62
         1
 48
0.0
100
AcDbBlockBegin
  2
SE0
 70
         0
 10
0.0
 20
0.0
 30
0.0
  3
SE0
  1

  0
ENDBLK
  5
A8
100
AcDbEntity
  8
0
 62
         1
 48
0.0
100
AcDbBlockEnd
  0
BLOCK
  5
54
100
AcDbEntity
  8
0
 62
         1
 48
0.0
100
AcDbBlockBegin
  2
SE1
 70
         0
 10
0.0
 20
0.0
 30
0.0
  3
SE1
  1

  0
LINE
  5
55
100
AcDbEntity
  8
TA400F_DN10
  6
CONTINUOUS
 62
         7
100
AcDbLine
 10
48.5547441907
 20
44.1464087309
 30
0.0
 11
48.5547441907
 21
45.1495868136
 31
0.0
  0
LINE
  5
56
100
AcDbEntity
  8
TA400F_DN10
  6
CONTINUOUS
 62
         7
100
AcDbLine
 10
16.106099611
 20
44.8512927358
 30
0.0
 11
15.3047441907
 21
42.6495868136
 31
0.0
  0
LINE
  5
57
100
AcDbEntity
  8
TA400F_DN10
  6
CONTINUOUS
 62
         7
100
AcDbLine
 10
54.8047441907
 20
44.1495868136
 30
0.0
 11
48.549777224
 21
44.1495868136
 31
0.0
  0
LINE
  5
58
100
AcDbEntity
  8
TA400F_DN10
  6
CONTINUOUS
 62
         7
100
AcDbLine
 10
22.3047441907
 20
21.3995868136
 30
0.0
 11
45.0547441907
 21
21.3995868136
 31
0.0
  0
LINE
  5
59
100
AcDbEntity
  8
TA400F_DN10
  6
CONTINUOUS
 62
         7
100
AcDbLine
 10
55.3047441907
 20
20.1995868136
 30
0.0
 11
66.8047441907
 21
20.1995868136
 31
0.0
  0
LINE
  5
5A
100
AcDbEntity
  8
TA400F_DN10
  6
CONTINUOUS
 62
         7
100
AcDbLine
 10
54.8047441907
 20
20.1495868136
 30
0.0
 11
55.3047441907
 21
20.6495868136
 31
0.0
  0
LINE
  5
5B
100
AcDbEntity
  8
TA400F_DN10
  6
CONTINUOUS
 62
         7
100
AcDbLine
 10
36.3614637079
 20
34.6495868136
 30
0.0
 11
37.8443036345
 21
29.6495868136
 31
0.0
  0
LINE
  5
5C
100
AcDbEntity
  8
TA400F_DN10
  6
CONTINUOUS
 62
         7
100
AcDbLine
 10
36.5047441907
 20
45.5495868136
 30
0.0
 11
36.5047441907
 21
45.1495868136
 31
0.0
  0
LINE
  5
5D
100
AcDbEntity
  8
TA400F_DN10
  6
CONTINUOUS
 62
         7
100
AcDbLine
 10
21.594381329
 20
19.4478808914
 30
0.0
 11
22.3047441907
 21
21.3995868136
 31
0.0
  0
LINE
  5
5E
100
AcDbEntity
  8
TA400F_DN10
  6
CONTINUOUS
 62
         7
100
AcDbLine
 10
34.3716811561
 20
34.6495868136
 30
0.0
 11
36.3614637079
 21
34.6495868136
 31
0.0
  0
LINE
  5
5F
100
AcDbEntity
  8
TA400F_DN10
  6
CONTINUOUS
 62
         7
100
AcDbLine
 10
32.7355795056
 20
29.6495868136
 30
0.0
 11
32.7355795056
 21
33.2689213695
 31
0.0
  0
LINE
  5
60
100
AcDbEntity
  8
TA400F_DN10
  6
CONTINUOUS
 62
         7
100
AcDbLine
 10
32.7355795056
 20
33.2689213695
 30
0.0
 11
33.5438058614
 21
33.2689213695
 31
0.0
  0
LINE
  5
61
100
AcDbEntity
  8
TA400F_DN10
  6
CONTINUOUS
 62
         7
100
AcDbLine
 10
33.5438058614
 20
33.2689213695
 30
0.0
 11
33.9551236502
 21
34.6495868136
 31
0.0
  0
LINE
  5
62
100
AcDbEntity
  8
TA400F_DN10
  6
CONTINUOUS
 62
         7
100
AcDbLine
 10
33.9551236502
 20
34.6495868136
 30
0.0
 11
30.5532373521
 21
34.6495868136
 31
0.0
  0
LINE
  5
63
100
AcDbEntity
  8
TA400F_DN10
  6
CONTINUOUS
 62
         7
100
AcDbLine
 10
30.5532373521
 20
34.6495868136
 30
0.0
 11
30.1484692096
 21
33.2689213695
 31
0.0
  0
LINE
  5
64
100
AcDbEntity
  8
TA400F_DN10
  6
CONTINUOUS
 62
         7
100
AcDbLine
 10
30.1484692096
 20
33.2689213695
 30
0.0
 11
31.2461899327
 21
33.2689213695
 31
0.0
  0
LINE
  5
65
100
AcDbEntity
  8
TA400F_DN10
  6
CONTINUOUS
 62
         7
100
AcDbLine
 10
31.2461899327
 20
33.2689213695
 30
0.0
 11
31.2461899327
 21
29.6495868136
 31
0.0
  0
LINE
  5
66
100
AcDbEntity
  8
TA400F_DN10
  6
CONTINUOUS
 62
         7
100
AcDbLine
 10
45.0547441907
 20
21.3995868136
 30
0.0
 11
46.3047441907
 21
20.1495868136
 31
0.0
  0
LINE
  5
67
100
AcDbEntity
  8
TA400F_DN10
  6
CONTINUOUS
 62
         7
100
AcDbLine
 10
66.8047441907
 20
44.0105236177
 30
0.0
 11
66.8047441907
 21
39.3412088928
 31
0.0
  0
LINE
  5
68
100
AcDbEntity
  8
TA400F_DN10
  6
CONTINUOUS
 62
         7
100
AcDbLine
 10
59.3047441907
 20
44.0105236177
 30
0.0
 11
59.3047441907
 21
39.3412088928
 31
0.0
  0
LINE
  5
69
100
AcDbEntity
  8
TA400F_DN10
  6
CONTINUOUS
 62
         7
100
AcDbLine
 10
31.2461899327
 20
29.6495868136
 30
0.0
 11
32.7355795056
 21
29.6495868136
 31
0.0
  0
LINE
  5
6A
100
AcDbEntity
  8
TA400F_DN10
  6
CONTINUOUS
 62
         7
100
AcDbLine
 10
66.8047441907
 20
24.9579647344
 30
0.0
 11
66.8047441907
 21
20.2886500095
 31
0.0
  0
LINE
  5
6B
100
AcDbEntity
  8
TA400F_DN10
  6
CONTINUOUS
 62
         7
100
AcDbLine
 10
59.3047441907
 20
24.9579647344
 30
0.0
 11
59.3047441907
 21
20.2886500095
 31
0.0
  0
LINE
  5
6C
100
AcDbEntity
  8
TA400F_DN10
  6
CONTINUOUS
 62
         7
100
AcDbLine
 10
66.8047441907
 20
36.8189015385
 30
0.0
 11
66.8047441907
 21
27.4802720887
 31
0.0
  0
LINE
  5
6D
100
AcDbEntity
  8
TA400F_DN10
  6
CONTINUOUS
 62
         7
100
AcDbLine
 10
59.3047441907
 20
36.8189015385
 30
0.0
 11
59.3047441907
 21
27.4802720887
 31
0.0
  0
LINE
  5
6E
100
AcDbEntity
  8
TA400F_DN10
  6
CONTINUOUS
 62
         7
100
AcDbLine
 10
24.5547441907
 20
45.1495868136
 30
0.0
 11
34.1240408826
 21
45.1495868136
 31
0.0
  0
LINE
  5
6F
100
AcDbEntity
  8
TA400F_DN10
  6
CONTINUOUS
 62
         7
100
AcDbLine
 10
24.5547441907
 20
45.1495868136
 30
0.0
 11
22.2923452361
 21
42.887187859
 31
0.0
  0
LINE
  5
70
100
AcDbEntity
  8
TA400F_DN10
  6
CONTINUOUS
 62
         7
100
AcDbLine
 10
55.3047441907
 20
20.1995868136
 30
0.0
 11
55.3047441907
 21
44.0995868136
 31
0.0
  0
LINE
  5
71
100
AcDbEntity
  8
TA400F_DN10
  6
CONTINUOUS
 62
         7
100
AcDbLine
 10
66.8047441907
 20
36.8189015385
 30
0.0
 11
66.8047441907
 21
39.3412088928
 31
0.0
  0
LINE
  5
72
100
AcDbEntity
  8
TA400F_DN10
  6
CONTINUOUS
 62
         7
100
AcDbLine
 10
22.3047441907
 20
42.8529741279
 30
0.0
 11
22.2923452361
 21
42.887187859
 31
0.0
  0
LINE
  5
73
100
AcDbEntity
  8
TA400F_DN10
  6
CONTINUOUS
 62
         7
100
AcDbLine
 10
45.9994220285
 20
47.1495868136
 30
0.0
 11
45.9994220285
 21
45.5495868136
 31
0.0
  0
LINE
  5
74
100
AcDbEntity
  8
TA400F_DN10
  6
CONTINUOUS
 62
         7
100
AcDbLine
 10
36.610066353
 20
45.5495868136
 30
0.0
 11
36.610066353
 21
47.1495868136
 31
0.0
  0
LINE
  5
75
100
AcDbEntity
  8
TA400F_DN10
  6
CONTINUOUS
 62
         7
100
AcDbLine
 10
48.5547441907
 20
45.1495868136
 30
0.0
 11
34.1240408826
 21
45.1495868136
 31
0.0
  0
ARC
  5
76
100
AcDbEntity
  8
TA400F_DN10
  6
CONTINUOUS
 62
         7
100
AcDbCircle
 10
140.1975301013
 20
-16.7843272052
 30
0.0
 40
111.2783686103
100
AcDbArc
 50
147.5398497905
 51
148.7595171147
  0
LINE
  5
77
100
AcDbEntity
  8
TA400F_DN10
  6
CONTINUOUS
 62
         7
100
AcDbLine
 10
15.3047441907
 20
42.6495868136
 30
0.0
 11
15.3047441907
 21
21.6495868136
 31
0.0
  0
LINE
  5
78
100
AcDbEntity
  8
TA400F_DN10
  6
CONTINUOUS
 62
         7
100
AcDbLine
 10
46.3047441907
 20
20.1495868136
 30
0.0
 11
46.3047441907
 21
42.940207741
 31
0.0
  0
LINE
  5
79
100
AcDbEntity
  8
TA400F_DN10
  6
CONTINUOUS
 62
         7
100
AcDbLine
 10
54.8047441907
 20
44.1495868136
 30
0.0
 11
54.8047441907
 21
20.1495868136
 31
0.0
  0
LINE
  5
7A
100
AcDbEntity
  8
TA400F_DN10
  6
CONTINUOUS
 62
         7
100
AcDbLine
 10
22.3047441907
 20
21.3995868136
 30
0.0
 11
22.3047441907
 21
42.8529741279
 31
0.0
  0
LINE
  5
7B
100
AcDbEntity
  8
TA400F_DN10
  6
CONTINUOUS
 62
         7
100
AcDbLine
 10
21.594381329
 20
19.4478808914
 30
0.0
 11
16.106099611
 21
19.4478808914
 31
0.0
  0
ARC
  5
7C
100
AcDbEntity
  8
TA400F_DN10
  6
CONTINUOUS
 62
         7
100
AcDbCircle
 10
13.7640787526
 20
22.623307372
 30
0.0
 40
8.4496728795
100
AcDbArc
 50
337.9259452632
 51
22.0740547368
  0
ARC
  5
7D
100
AcDbEntity
  8
TA400F_DN10
  6
CONTINUOUS
 62
         7
100
AcDbCircle
 10
13.7640787526
 20
41.6758662552
 30
0.0
 40
8.4496728795
100
AcDbArc
 50
337.9259452632
 51
22.0740547368
  0
ARC
  5
7E
100
AcDbEntity
  8
TA400F_DN10
  6
CONTINUOUS
 62
         7
100
AcDbCircle
 10
-10.6558900889
 20
32.1495868136
 30
0.0
 40
32.8696416145
100
AcDbArc
 50
348.8596297444
 51
11.1403702556
  0
LINE
  5
7F
100
AcDbEntity
  8
TA400F_DN10
  6
CONTINUOUS
 62
         7
100
AcDbLine
 10
21.594381329
 20
25.7987338525
 30
0.0
 11
16.106099611
 21
25.7987338525
 31
0.0
  0
LINE
  5
80
100
AcDbEntity
  8
TA400F_DN10
  6
CONTINUOUS
 62
         7
100
AcDbLine
 10
21.594381329
 20
44.8512927358
 30
0.0
 11
16.106099611
 21
44.8512927358
 31
0.0
  0
LINE
  5
81
100
AcDbEntity
  8
TA400F_DN10
  6
CONTINUOUS
 62
         7
100
AcDbLine
 10
21.594381329
 20
38.5004397747
 30
0.0
 11
16.106099611
 21
38.5004397747
 31
0.0
  0
LINE
  5
82
100
AcDbEntity
  8
TA400F_DN10
  6
CONTINUOUS
 62
         7
100
AcDbLine
 10
36.5047441907
 20
45.5495868136
 30
0.0
 11
36.610066353
 21
45.5495868136
 31
0.0
  0
LINE
  5
83
100
AcDbEntity
  8
TA400F_DN10
  6
CONTINUOUS
 62
         7
100
AcDbLine
 10
34.1240408826
 20
45.1495868136
 30
0.0
 11
34.1240408826
 21
42.8529741279
 31
0.0
  0
ARC
  5
84
100
AcDbEntity
  8
TA400F_DN10
  6
CONTINUOUS
 62
         7
100
AcDbCircle
 10
35.9271922156
 20
64.9449216764
 30
0.0
 40
24.3290160174
100
AcDbArc
 50
295.2488394035
 51
301.267369009
  0
LINE
  5
85
100
AcDbEntity
  8
TA400F_DN10
  6
CONTINUOUS
 62
         7
100
AcDbLine
 10
66.8047441907
 20
20.2886500095
 30
0.0
 11
59.3047441907
 21
20.2886500095
 31
0.0
  0
ELLIPSE
  5
86
100
AcDbEntity
  8
TA400F_DN10
  6
CONTINUOUS
 62
         7
100
AcDbEllipse
 10
65.6555971518
 20
32.1495868136
 30
0.0
 11
-6.3484672489286416
 21
-11.862219561491075
 31
0.0
210
0.0
220
0.0
230
1.0
 40
0.2277350773
 41
5.4794356734595535
 42
6.2823012637984572
  0
LINE
  5
87
100
AcDbEntity
  8
TA400F_DN10
  6
CONTINUOUS
 62
         7
100
AcDbLine
 10
59.3047441907
 20
24.9579647344
 30
0.0
 11
66.8047441907
 21
24.9579647344
 31
0.0
  0
LINE
  5
88
100
AcDbEntity
  8
TA400F_DN10
  6
CONTINUOUS
 62
         7
100
AcDbLine
 10
66.8047441907
 20
27.4802720887
 30
0.0
 11
59.3047441907
 21
27.4802720887
 31
0.0
  0
LINE
  5
89
100
AcDbEntity
  8
TA400F_DN10
  6
CONTINUOUS
 62
         7
100
AcDbLine
 10
59.3047441907
 20
36.8189015385
 30
0.0
 11
66.8047441907
 21
36.8189015385
 31
0.0
  0
ELLIPSE
  5
8A
100
AcDbEntity
  8
TA400F_DN10
  6
CONTINUOUS
 62
         7
100
AcDbEllipse
 10
65.6555971518
 20
32.1495868136
 30
0.0
 11
0.0000000000000208
 21
-11.950000000000074
 31
0.0
210
0.0
220
0.0
230
1.0
 40
0.5773502692
 41
4.3109561852152147
 42
5.1138217755541611
  0
LINE
  5
8B
100
AcDbEntity
  8
TA400F_DN10
  6
CONTINUOUS
 62
         7
100
AcDbLine
 10
59.3047441907
 20
44.0105236177
 30
0.0
 11
66.8047441907
 21
44.0105236177
 31
0.0
  0
ELLIPSE
  5
8C
100
AcDbEntity
  8
TA400F_DN10
  6
CONTINUOUS
 62
         7
100
AcDbEllipse
 10
65.6555971518
 20
32.1495868136
 30
0.0
 11
-6.3484672489287668
 21
11.862219561491266
 31
0.0
210
0.0
220
0.0
230
1.0
 40
0.2277350773
 41
0.0008840433815061
 42
0.8037496337200243
  0
LINE
  5
8D
100
AcDbEntity
  8
TA400F_DN10
  6
CONTINUOUS
 62
         7
100
AcDbLine
 10
66.8047441907
 20
39.3412088928
 30
0.0
 11
59.3047441907
 21
39.3412088928
 31
0.0
  0
LINE
  5
8E
100
AcDbEntity
  8
TA400F_DN10
  6
CONTINUOUS
 62
         7
100
AcDbLine
 10
32.8888412295
 20
29.6495868136
 30
0.0
 11
34.3716811561
 21
34.6495868136
 31
0.0
  0
LINE
  5
8F
100
AcDbEntity
  8
TA400F_DN10
  6
CONTINUOUS
 62
         7
100
AcDbLine
 10
35.3672273966
 20
29.6495868136
 30
0.0
 11
32.8888412295
 21
29.6495868136
 31
0.0
  0
LINE
  5
90
100
AcDbEntity
  8
TA400F_DN10
  6
CONTINUOUS
 62
         7
100
AcDbLine
 10
35.7588962465
 20
30.9398671385
 30
0.0
 11
35.3672273966
 21
29.6495868136
 31
0.0
  0
LINE
  5
91
100
AcDbEntity
  8
TA400F_DN10
  6
CONTINUOUS
 62
         7
100
AcDbLine
 10
34.782998945
 20
30.9398671385
 30
0.0
 11
35.7588962465
 21
30.9398671385
 31
0.0
  0
LINE
  5
92
100
AcDbEntity
  8
TA400F_DN10
  6
CONTINUOUS
 62
         7
100
AcDbLine
 10
35.3672273966
 20
33.41039373
 30
0.0
 11
34.782998945
 21
30.9398671385
 31
0.0
  0
LINE
  5
93
100
AcDbEntity
  8
TA400F_DN10
  6
CONTINUOUS
 62
         7
100
AcDbLine
 10
36.2658388716
 20
29.6495868136
 30
0.0
 11
35.3672273966
 21
33.41039373
 31
0.0
  0
LINE
  5
94
100
AcDbEntity
  8
TA400F_DN10
  6
CONTINUOUS
 62
         7
100
AcDbLine
 10
37.8443036345
 20
29.6495868136
 30
0.0
 11
36.2658388716
 21
29.6495868136
 31
0.0
  0
LINE
  5
95
100
AcDbEntity
  8
TA400F_DN10
  6
CONTINUOUS
 62
         7
100
AcDbLine
 10
66.8047441907
 20
44.0995868136
 30
0.0
 11
66.8047441907
 21
44.0105236177
 31
0.0
  0
LINE
  5
96
100
AcDbEntity
  8
TA400F_DN10
  6
CONTINUOUS
 62
         7
100
AcDbLine
 10
66.8047441907
 20
20.1995868136
 30
0.0
 11
66.8047441907
 21
20.2886500095
 31
0.0
  0
LINE
  5
97
100
AcDbEntity
  8
TA400F_DN10
  6
CONTINUOUS
 62
         7
100
AcDbLine
 10
66.8047441907
 20
24.9579647344
 30
0.0
 11
66.8047441907
 21
27.4802720887
 31
0.0
  0
SPLINE
  5
98
100
AcDbEntity
  8
TA400F_DN10
  6
CONTINUOUS
 62
         7
100
AcDbSpline
210
0.0
220
0.0
230
1.0
 70
         8
 71
         3
 72
        14
 73
        10
 74
         0
 42
0.0
 43
0.0
 40
0.0
 40
0.0
 40
0.0
 40
0.0
 40
0.25
 40
0.25
 40
0.5
 40
0.5
 40
0.75
 40
0.75
 40
1.0
 40
1.0
 40
1.0
 40
1.0
 10
34.124040882567783
 20
42.852974127895138
 30
0.0
 10
34.293888816598837
 20
42.739026310632362
 30
0.0
 10
34.772350678865841
 20
42.413898416496274
 30
0.0
 10
36.167867206198544
 20
41.587353119336782
 30
0.0
 10
37.067465883294098
 20
41.094782499159166
 30
0.0
 10
39.155363505983765
 20
40.315481481437089
 30
0.0
 10
40.401218101890208
 20
40.041729901902471
 30
0.0
 10
42.877633194068984
 20
40.146057469445495
 30
0.0
 10
44.051427800559594
 20
40.499516226099225
 30
0.0
 10
45.054744190740337
 20
40.928111746631053
 30
0.0
  0
LINE
  5
99
100
AcDbEntity
  8
TA400F_DN10
  6
CONTINUOUS
 62
         7
100
AcDbLine
 10
45.0547441907
 20
21.3995868136
 30
0.0
 11
45.0547441907
 21
40.9281117466
 31
0.0
  0
LINE
  5
9A
100
AcDbEntity
  8
TA400F_DN10
  6
CONTINUOUS
 62
         7
100
AcDbLine
 10
34.1240408826
 20
42.8529741279
 30
0.0
 11
22.3047441907
 21
42.8529741279
 31
0.0
  0
ARC
  5
9B
100
AcDbEntity
  8
TA400F_DN10
  6
CONTINUOUS
 62
         7
100
AcDbCircle
 10
23.9364021874
 20
22.623307372
 30
0.0
 40
8.4496728795
100
AcDbArc
 50
157.9259452632
 51
202.0740547368
  0
ARC
  5
9C
100
AcDbEntity
  8
TA400F_DN10
  6
CONTINUOUS
 62
         7
100
AcDbCircle
 10
48.3563711018
 20
32.1495868136
 30
0.0
 40
32.8696416859
100
AcDbArc
 50
168.8596297689
 51
191.1403702311
  0
ARC
  5
9D
100
AcDbEntity
  8
TA400F_DN10
  6
CONTINUOUS
 62
         7
100
AcDbCircle
 10
23.9364021874
 20
41.6758662552
 30
0.0
 40
8.4496728795
100
AcDbArc
 50
157.9259452632
 51
202.0740547368
  0
LINE
  5
9E
100
AcDbEntity
  8
TA400F_DN10
  6
CONTINUOUS
 62
         7
100
AcDbLine
 10
45.9994220285
 20
45.5495868136
 30
0.0
 11
46.1047441907
 21
45.5495868136
 31
0.0
  0
LINE
  5
9F
100
AcDbEntity
  8
TA400F_DN10
  6
CONTINUOUS
 62
         7
100
AcDbLine
 10
45.9994220285
 20
47.1495868136
 30
0.0
 11
36.610066353
 21
47.1495868136
 31
0.0
  0
LINE
  5
A0
100
AcDbEntity
  8
TA400F_DN10
  6
CONTINUOUS
 62
         7
100
AcDbLine
 10
15.3047441907
 20
21.6495868136
 30
0.0
 11
16.106099611
 21
19.4478808914
 31
0.0
  0
LINE
  5
A1
100
AcDbEntity
  8
TA400F_DN10
  6
CONTINUOUS
 62
         7
100
AcDbLine
 10
46.3047441907
 20
20.1495868136
 30
0.0
 11
54.8047441907
 21
20.1495868136
 31
0.0
  0
LINE
  5
A2
100
AcDbEntity
  8
TA400F_DN10
  6
CONTINUOUS
 62
         7
100
AcDbLine
 10
66.8047441907
 20
44.0995868136
 30
0.0
 11
55.3047441907
 21
44.0995868136
 31
0.0
  0
LINE
  5
A3
100
AcDbEntity
  8
TA400F_DN10
  6
CONTINUOUS
 62
         7
100
AcDbLine
 10
55.3047441907
 20
43.6495868136
 30
0.0
 11
54.8047441907
 21
44.1495868136
 31
0.0
  0
LINE
  5
A4
100
AcDbEntity
  8
TA400F_DN10
  6
CONTINUOUS
 62
         7
100
AcDbLine
 10
46.1047441907
 20
45.1495868136
 30
0.0
 11
46.1047441907
 21
45.5495868136
 31
0.0
  0
LINE
  5
A5
100
AcDbEntity
  8
TA400F_DN10
  6
CONTINUOUS
 62
         7
100
AcDbLine
 10
22.3047457474
 20
42.8995825368
 30
0.0
 11
21.594381329
 21
44.8512927358
 31
0.0
  0
ENDBLK
  5
A6
100
AcDbEntity
  8
TA400F_DN10
  6
CONTINUOUS
 62
         7
100
AcDbBlockEnd
  0
BLOCK
  5
FA
100
AcDbEntity
  8
0
 62
         1
 48
0.0
100
AcDbBlockBegin
  2
SE2
 70
         0
 10
0.0
 20
0.0
 30
0.0
  3
SE2
  1

  0
ENDBLK
  5
FB
100
AcDbEntity
  8
0
 62
         1
 48
0.0
100
AcDbBlockEnd
  0
BLOCK
  5
A9
100
AcDbEntity
  8
0
 62
         1
 48
0.0
100
AcDbBlockBegin
  2
SE3
 70
         0
 10
0.0
 20
0.0
 30
0.0
  3
SE3
  1

  0
LINE
  5
AA
100
AcDbEntity
  8
TA400F_DN10
  6
CONTINUOUS
 62
         7
100
AcDbLine
 10
15.4867293079
 20
110.1040140801
 30
0.0
 11
15.3047441907
 21
109.6040140801
 31
0.0
  0
LINE
  5
AB
100
AcDbEntity
  8
TA400F_DN10
  6
CONTINUOUS
 62
         7
100
AcDbLine
 10
54.8047441907
 20
111.1040140801
 30
0.0
 11
46.3047441907
 21
111.1040140801
 31
0.0
  0
LINE
  5
AC
100
AcDbEntity
  8
TA400F_DN10
  6
CONTINUOUS
 62
         7
100
AcDbLine
 10
37.1028836712
 20
110.2540140801
 30
0.0
 11
35.6684860329
 21
110.2540140801
 31
0.0
  0
LINE
  5
AD
100
AcDbEntity
  8
TA400F_DN10
  6
CONTINUOUS
 62
         7
100
AcDbLine
 10
31.2461899327
 20
109.8540140801
 30
0.0
 11
22.3047441907
 21
109.8540140801
 31
0.0
  0
LINE
  5
AE
100
AcDbEntity
  8
TA400F_DN10
  6
CONTINUOUS
 62
         7
100
AcDbLine
 10
55.3047441907
 20
87.1540140801
 30
0.0
 11
58.756261435
 21
87.1540140801
 31
0.0
  0
LINE
  5
AF
100
AcDbEntity
  8
TA400F_DN10
  6
CONTINUOUS
 62
         7
100
AcDbLine
 10
54.8047441907
 20
87.1040140801
 30
0.0
 11
55.3047441907
 21
87.6040140801
 31
0.0
  0
ELLIPSE
  5
B0
100
AcDbEntity
  8
TA400F_DN10
  6
CONTINUOUS
 62
         7
100
AcDbEllipse
 10
37.1028836712
 20
99.1040140801
 30
0.0
 11
-0.0000000000000147
 21
-11.150000000001622
 31
0.0
210
0.0
220
0.0
230
1.0
 40
0.2965679853
 41
2.915454947555189
 42
3.1415926535897931
  0
LINE
  5
B1
100
AcDbEntity
  8
TA400F_DN10
  6
CONTINUOUS
 62
         7
100
AcDbLine
 10
32.8888412295
 20
109.5592759131
 30
0.0
 11
32.8888412295
 21
109.9701311418
 31
0.0
  0
LINE
  5
B2
100
AcDbEntity
  8
TA400F_DN10
  6
CONTINUOUS
 62
         7
100
AcDbLine
 10
32.7355795056
 20
109.9701311418
 30
0.0
 11
32.7355795056
 21
110.2540140801
 31
0.0
  0
LINE
  5
B3
100
AcDbEntity
  8
TA400F_DN10
  6
CONTINUOUS
 62
         7
100
AcDbLine
 10
32.7355795056
 20
110.1976875092
 30
0.0
 11
33.2983023987
 21
110.1976875092
 31
0.0
  0
LINE
  5
B4
100
AcDbEntity
  8
TA400F_DN10
  6
CONTINUOUS
 62
         7
100
AcDbLine
 10
30.1484692096
 20
110.197687509
 30
0.0
 11
31.2461899327
 21
110.1976875092
 31
0.0
  0
LINE
  5
B5
100
AcDbEntity
  8
TA400F_DN10
  6
CONTINUOUS
 62
         7
100
AcDbLine
 10
22.2137516322
 20
88.1040140801
 30
0.0
 11
22.3047441907
 21
88.3540140801
 31
0.0
  0
LINE
  5
B6
100
AcDbEntity
  8
TA400F_DN10
  6
CONTINUOUS
 62
         7
100
AcDbLine
 10
30.1484692096
 20
109.85401408
 30
0.0
 11
30.1484692096
 21
110.197687509
 31
0.0
  0
LINE
  5
B7
100
AcDbEntity
  8
TA400F_DN10
  6
CONTINUOUS
 62
         7
100
AcDbLine
 10
31.2461899327
 20
110.2540140801
 30
0.0
 11
31.2461899327
 21
109.9701311418
 31
0.0
  0
LINE
  5
B8
100
AcDbEntity
  8
TA400F_DN10
  6
CONTINUOUS
 62
         7
100
AcDbLine
 10
32.7355795056
 20
109.5592759132
 30
0.0
 11
32.7355795056
 21
109.9701311418
 31
0.0
  0
LINE
  5
B9
100
AcDbEntity
  8
TA400F_DN10
  6
CONTINUOUS
 62
         7
100
AcDbLine
 10
31.2461899327
 20
109.5592759132
 30
0.0
 11
31.2461899327
 21
109.9701311418
 31
0.0
  0
LINE
  5
BA
100
AcDbEntity
  8
TA400F_DN10
  6
CONTINUOUS
 62
         7
100
AcDbLine
 10
46.3047441907
 20
111.1040140801
 30
0.0
 11
45.0547441907
 21
109.8540140801
 31
0.0
  0
LINE
  5
BB
100
AcDbEntity
  8
TA400F_DN10
  6
CONTINUOUS
 62
         7
100
AcDbLine
 10
31.2461899327
 20
109.9701311418
 30
0.0
 11
32.7355795056
 21
109.9701311418
 31
0.0
  0
LINE
  5
BC
100
AcDbEntity
  8
TA400F_DN10
  6
CONTINUOUS
 62
         7
100
AcDbLine
 10
66.8047441907
 20
108.6477592501
 30
0.0
 11
66.8047441907
 21
100.56026891
 31
0.0
  0
LINE
  5
BD
100
AcDbEntity
  8
TA400F_DN10
  6
CONTINUOUS
 62
         7
100
AcDbLine
 10
59.3047441907
 20
108.6477592501
 30
0.0
 11
59.3047441907
 21
100.56026891
 31
0.0
  0
LINE
  5
BE
100
AcDbEntity
  8
TA400F_DN10
  6
CONTINUOUS
 62
         7
100
AcDbLine
 10
66.8047441907
 20
97.6477592501
 30
0.0
 11
66.8047441907
 21
89.56026891
 31
0.0
  0
LINE
  5
BF
100
AcDbEntity
  8
TA400F_DN10
  6
CONTINUOUS
 62
         7
100
AcDbLine
 10
59.3047441907
 20
97.6477592501
 30
0.0
 11
59.3047441907
 21
89.56026891
 31
0.0
  0
LINE
  5
C0
100
AcDbEntity
  8
TA400F_DN10
  6
CONTINUOUS
 62
         7
100
AcDbLine
 10
55.3047441907
 20
111.0540140801
 30
0.0
 11
55.3047441907
 21
87.1540140801
 31
0.0
  0
LINE
  5
C1
100
AcDbEntity
  8
TA400F_DN10
  6
CONTINUOUS
 62
         7
100
AcDbLine
 10
54.8047441907
 20
87.1040140801
 30
0.0
 11
54.8047441907
 21
111.1040140801
 31
0.0
  0
LINE
  5
C2
100
AcDbEntity
  8
TA400F_DN10
  6
CONTINUOUS
 62
         7
100
AcDbLine
 10
46.3047441907
 20
111.1040140801
 30
0.0
 11
46.3047441907
 21
87.1040140801
 31
0.0
  0
LINE
  5
C3
100
AcDbEntity
  8
TA400F_DN10
  6
CONTINUOUS
 62
         7
100
AcDbLine
 10
15.3047441907
 20
88.6040140801
 30
0.0
 11
15.3047441907
 21
109.6040140801
 31
0.0
  0
LINE
  5
C4
100
AcDbEntity
  8
TA400F_DN10
  6
CONTINUOUS
 62
         7
100
AcDbLine
 10
22.3047441907
 20
109.8540140801
 30
0.0
 11
22.3047441907
 21
88.3540140801
 31
0.0
  0
ARC
  5
C5
100
AcDbEntity
  8
TA400F_DN10
  6
CONTINUOUS
 62
         7
100
AcDbCircle
 10
40.2163776433
 20
93.6040140801
 30
0.0
 40
24.7296483355
100
AcDbArc
 50
167.1496643135
 51
192.8503356865
  0
ARC
  5
C6
100
AcDbEntity
  8
TA400F_DN10
  6
CONTINUOUS
 62
         7
100
AcDbCircle
 10
-2.5158967033
 20
104.6040140801
 30
0.0
 40
24.7296483355
100
AcDbArc
 50
347.1496643135
 51
12.8503356865
  0
LINE
  5
C7
100
AcDbEntity
  8
TA400F_DN10
  6
CONTINUOUS
 62
         7
100
AcDbLine
 10
22.2137503085
 20
110.1040140801
 30
0.0
 11
21.594381329
 21
110.1040140801
 31
0.0
  0
LINE
  5
C8
100
AcDbEntity
  8
TA400F_DN10
  6
CONTINUOUS
 62
         7
100
AcDbLine
 10
21.594381329
 20
99.1040140801
 30
0.0
 11
16.106099611
 21
99.1040140801
 31
0.0
  0
LINE
  5
C9
100
AcDbEntity
  8
TA400F_DN10
  6
CONTINUOUS
 62
         7
100
AcDbLine
 10
32.7355795056
 20
110.2540140801
 30
0.0
 11
31.2461899327
 21
110.2540140801
 31
0.0
  0
LINE
  5
CA
100
AcDbEntity
  8
TA400F_DN10
  6
CONTINUOUS
 62
         7
100
AcDbLine
 10
21.594381329
 20
110.1040140801
 30
0.0
 11
16.106099611
 21
110.1040140801
 31
0.0
  0
LINE
  5
CB
100
AcDbEntity
  8
TA400F_DN10
  6
CONTINUOUS
 62
         7
100
AcDbLine
 10
21.594381329
 20
88.1040140801
 30
0.0
 11
16.106099611
 21
88.1040140801
 31
0.0
  0
ARC
  5
CC
100
AcDbEntity
  8
TA400F_DN10
  6
CONTINUOUS
 62
         7
100
AcDbCircle
 10
-2.5158967033
 20
93.6040140801
 30
0.0
 40
24.7296483355
100
AcDbArc
 50
347.1496643135
 51
12.8503356865
  0
LINE
  5
CD
100
AcDbEntity
  8
TA400F_DN10
  6
CONTINUOUS
 62
         7
100
AcDbLine
 10
35.0690726327
 20
110.2540140801
 30
0.0
 11
33.6302611928
 21
110.2540140801
 31
0.0
  0
LINE
  5
CE
100
AcDbEntity
  8
TA400F_DN10
  6
CONTINUOUS
 62
         7
100
AcDbLine
 10
66.8047441907
 20
89.56026891
 30
0.0
 11
59.3047441907
 21
89.56026891
 31
0.0
  0
LINE
  5
CF
100
AcDbEntity
  8
TA400F_DN10
  6
CONTINUOUS
 62
         7
100
AcDbLine
 10
59.3047441907
 20
97.6477592501
 30
0.0
 11
66.8047441907
 21
97.6477592501
 31
0.0
  0
LINE
  5
D0
100
AcDbEntity
  8
TA400F_DN10
  6
CONTINUOUS
 62
         7
100
AcDbLine
 10
66.8047441907
 20
100.56026891
 30
0.0
 11
59.3047441907
 21
100.56026891
 31
0.0
  0
ELLIPSE
  5
D1
100
AcDbEntity
  8
TA400F_DN10
  6
CONTINUOUS
 62
         7
100
AcDbEllipse
 10
65.6555971518
 20
99.1040140801
 30
0.0
 11
-4.3934679576911053
 21
11.784272975925369
 31
0.0
210
0.0
220
0.0
230
1.0
 40
0.4514162296
 41
0.4790281699012076
 42
1.2818937602401594
  0
LINE
  5
D2
100
AcDbEntity
  8
TA400F_DN10
  6
CONTINUOUS
 62
         7
100
AcDbLine
 10
59.3047441907
 20
108.6477592501
 30
0.0
 11
66.8047441907
 21
108.6477592501
 31
0.0
  0
LINE
  5
D3
100
AcDbEntity
  8
TA400F_DN10
  6
CONTINUOUS
 62
         7
100
AcDbLine
 10
66.8047441907
 20
110.1040140801
 30
0.0
 11
59.3047441907
 21
110.1040140801
 31
0.0
  0
LINE
  5
D4
100
AcDbEntity
  8
TA400F_DN10
  6
CONTINUOUS
 62
         7
100
AcDbLine
 10
58.756261435
 20
111.0540140801
 30
0.0
 11
59.3047441907
 21
110.1040140801
 31
0.0
  0
LINE
  5
D5
100
AcDbEntity
  8
TA400F_DN10
  6
CONTINUOUS
 62
         7
100
AcDbLine
 10
58.756261435
 20
87.1540140801
 30
0.0
 11
59.3047441907
 21
88.1040140801
 31
0.0
  0
LINE
  5
D6
100
AcDbEntity
  8
TA400F_DN10
  6
CONTINUOUS
 62
         7
100
AcDbLine
 10
59.3047441907
 20
88.1040140801
 30
0.0
 11
66.8047441907
 21
88.1040140801
 31
0.0
  0
ELLIPSE
  5
D7
100
AcDbEntity
  8
TA400F_DN10
  6
CONTINUOUS
 62
         7
100
AcDbEllipse
 10
65.6555971518
 20
99.1040140801
 30
0.0
 11
-4.3934679576912092
 21
-11.784272975925495
 31
0.0
210
0.0
220
0.0
230
1.0
 40
0.4514162296
 41
5.0012915469394379
 42
5.8041571372783869
  0
ELLIPSE
  5
D8
100
AcDbEntity
  8
TA400F_DN10
  6
CONTINUOUS
 62
         7
100
AcDbEllipse
 10
35.6684860329
 20
99.1040140801
 30
0.0
 11
0.0000000000000737
 21
-10.749999999995124
 31
0.0
210
0.0
220
0.0
230
1.0
 40
0.2389411355
 41
2.9068855397485396
 42
3.1063873719233137
  0
ELLIPSE
  5
D9
100
AcDbEntity
  8
TA400F_DN10
  6
CONTINUOUS
 62
         7
100
AcDbEllipse
 10
36.1261106454
 20
99.1040140805
 30
0.0
 11
0.0000000000227145
 21
10.749999999609111
 31
0.0
210
0.0
220
0.0
230
1.0
 40
0.3035532995
 41
0.112770934191085
 42
0.2347071138411972
  0
LINE
  5
DA
100
AcDbEntity
  8
TA400F_DN10
  6
CONTINUOUS
 62
         7
100
AcDbLine
 10
35.3672273966
 20
109.5592759132
 30
0.0
 11
32.8888412295
 21
109.5592759131
 31
0.0
  0
LINE
  5
DB
100
AcDbEntity
  8
TA400F_DN10
  6
CONTINUOUS
 62
         7
100
AcDbLine
 10
31.2461899327
 20
109.5592759132
 30
0.0
 11
32.7355795056
 21
109.5592759132
 31
0.0
  0
LINE
  5
DC
100
AcDbEntity
  8
TA400F_DN10
  6
CONTINUOUS
 62
         7
100
AcDbLine
 10
37.8443036345
 20
109.5592759132
 30
0.0
 11
36.2658388716
 21
109.559275913
 31
0.0
  0
ELLIPSE
  5
DD
100
AcDbEntity
  8
TA400F_DN10
  6
CONTINUOUS
 62
         7
100
AcDbEllipse
 10
33.6302611928
 20
99.1040140801
 30
0.0
 11
0.0000000000000356
 21
-11.150000000001157
 31
0.0
210
0.0
220
0.0
230
1.0
 40
0.2965679853
 41
3.1415926535897931
 42
3.3677303596221351
  0
ELLIPSE
  5
DE
100
AcDbEntity
  8
TA400F_DN10
  6
CONTINUOUS
 62
         7
100
AcDbEllipse
 10
36.1261106454
 20
99.1040140801
 30
0.0
 11
0.0000000000029317
 21
11.149999999980786
 31
0.0
210
0.0
220
0.0
230
1.0
 40
0.3035532995
 41
0.1087090258934713
 42
0.226137706032605
  0
LINE
  5
DF
100
AcDbEntity
  8
TA400F_DN10
  6
CONTINUOUS
 62
         7
100
AcDbLine
 10
35.3672273966
 20
109.9701311418
 30
0.0
 11
32.8888412295
 21
109.9701311418
 31
0.0
  0
LINE
  5
E0
100
AcDbEntity
  8
TA400F_DN10
  6
CONTINUOUS
 62
         7
100
AcDbLine
 10
37.8443036345
 20
109.5592759132
 30
0.0
 11
37.8443036345
 21
109.9701311417
 31
0.0
  0
LINE
  5
E1
100
AcDbEntity
  8
TA400F_DN10
  6
CONTINUOUS
 62
         7
100
AcDbLine
 10
36.2658388716
 20
109.559275913
 30
0.0
 11
36.2658388716
 21
109.9701311418
 31
0.0
  0
LINE
  5
E2
100
AcDbEntity
  8
TA400F_DN10
  6
CONTINUOUS
 62
         7
100
AcDbLine
 10
35.7588962465
 20
109.7857310913
 30
0.0
 11
35.7588962465
 21
110.1881955251
 31
0.0
  0
LINE
  5
E3
100
AcDbEntity
  8
TA400F_DN10
  6
CONTINUOUS
 62
         7
100
AcDbLine
 10
35.3672273966
 20
109.5592759132
 30
0.0
 11
35.3672273966
 21
109.9701311418
 31
0.0
  0
LINE
  5
E4
100
AcDbEntity
  8
TA400F_DN10
  6
CONTINUOUS
 62
         7
100
AcDbLine
 10
34.782998945
 20
110.1881955251
 30
0.0
 11
35.7588962465
 21
110.1881955251
 31
0.0
  0
ELLIPSE
  5
E5
100
AcDbEntity
  8
TA400F_DN10
  6
CONTINUOUS
 62
         7
100
AcDbEllipse
 10
35.0690726327
 20
99.10401408
 30
0.0
 11
0.0000000000000078
 21
-11.150000000011874
 31
0.0
210
0.0
220
0.0
230
1.0
 40
0.2364793213
 41
3.0328836276965347
 42
3.2503016794830639
  0
ELLIPSE
  5
E6
100
AcDbEntity
  8
TA400F_DN10
  6
CONTINUOUS
 62
         7
100
AcDbEllipse
 10
35.6684860329
 20
99.1040140801
 30
0.0
 11
0.0000000000001327
 21
-11.149999999992545
 31
0.0
210
0.0
220
0.0
230
1.0
 40
0.2389411355
 41
2.915454947557365
 42
3.2503016794831416
  0
LINE
  5
E7
100
AcDbEntity
  8
TA400F_DN10
  6
CONTINUOUS
 62
         7
100
AcDbLine
 10
37.8443036345
 20
109.9701311417
 30
0.0
 11
36.2658388716
 21
109.9701311418
 31
0.0
  0
LINE
  5
E8
100
AcDbEntity
  8
TA400F_DN10
  6
CONTINUOUS
 62
         7
100
AcDbLine
 10
66.8047441907
 20
88.1040140801
 30
0.0
 11
66.8047441907
 21
89.56026891
 31
0.0
  0
LINE
  5
E9
100
AcDbEntity
  8
TA400F_DN10
  6
CONTINUOUS
 62
         7
100
AcDbLine
 10
66.8047441907
 20
97.6477592501
 30
0.0
 11
66.8047441907
 21
100.56026891
 31
0.0
  0
LINE
  5
EA
100
AcDbEntity
  8
TA400F_DN10
  6
CONTINUOUS
 62
         7
100
AcDbLine
 10
66.8047441907
 20
108.6477592501
 30
0.0
 11
66.8047441907
 21
110.1040140801
 31
0.0
  0
LINE
  5
EB
100
AcDbEntity
  8
TA400F_DN10
  6
CONTINUOUS
 62
         7
100
AcDbLine
 10
45.0547441907
 20
109.8540140801
 30
0.0
 11
45.0547441907
 21
88.3540140801
 31
0.0
  0
LINE
  5
EC
100
AcDbEntity
  8
TA400F_DN10
  6
CONTINUOUS
 62
         7
100
AcDbLine
 10
22.3047441907
 20
88.3540140801
 30
0.0
 11
45.0547441907
 21
88.3540140801
 31
0.0
  0
LINE
  5
ED
100
AcDbEntity
  8
TA400F_DN10
  6
CONTINUOUS
 62
         7
100
AcDbLine
 10
22.2137503085
 20
88.1040140801
 30
0.0
 11
21.594381329
 21
88.1040140801
 31
0.0
  0
ARC
  5
EE
100
AcDbEntity
  8
TA400F_DN10
  6
CONTINUOUS
 62
         7
100
AcDbCircle
 10
40.2163776433
 20
104.6040140801
 30
0.0
 40
24.7296483355
100
AcDbArc
 50
167.1496643135
 51
192.8503356865
  0
LINE
  5
EF
100
AcDbEntity
  8
TA400F_DN10
  6
CONTINUOUS
 62
         7
100
AcDbLine
 10
16.106099611
 20
110.1040140801
 30
0.0
 11
15.4867306485
 21
110.1040140801
 31
0.0
  0
LINE
  5
F0
100
AcDbEntity
  8
TA400F_DN10
  6
CONTINUOUS
 62
         7
100
AcDbLine
 10
15.4867306485
 20
88.1040140801
 30
0.0
 11
16.106099611
 21
88.1040140801
 31
0.0
  0
LINE
  5
F1
100
AcDbEntity
  8
TA400F_DN10
  6
CONTINUOUS
 62
         7
100
AcDbLine
 10
45.0547441907
 20
109.8540140801
 30
0.0
 11
37.8443036345
 21
109.8540140801
 31
0.0
  0
LINE
  5
F2
100
AcDbEntity
  8
TA400F_DN10
  6
CONTINUOUS
 62
         7
100
AcDbLine
 10
15.3047441907
 20
88.6040140801
 30
0.0
 11
15.4867293079
 21
88.1040140801
 31
0.0
  0
LINE
  5
F3
100
AcDbEntity
  8
TA400F_DN10
  6
CONTINUOUS
 62
         7
100
AcDbLine
 10
46.3047441907
 20
87.1040140801
 30
0.0
 11
54.8047441907
 21
87.1040140801
 31
0.0
  0
LINE
  5
F4
100
AcDbEntity
  8
TA400F_DN10
  6
CONTINUOUS
 62
         7
100
AcDbLine
 10
32.8888412295
 20
109.8540140801
 30
0.0
 11
32.7355795056
 21
109.8540140801
 31
0.0
  0
LINE
  5
F5
100
AcDbEntity
  8
TA400F_DN10
  6
CONTINUOUS
 62
         7
100
AcDbLine
 10
58.756261435
 20
111.0540140801
 30
0.0
 11
55.3047441907
 21
111.0540140801
 31
0.0
  0
LINE
  5
F6
100
AcDbEntity
  8
TA400F_DN10
  6
CONTINUOUS
 62
         7
100
AcDbLine
 10
55.3047441907
 20
110.6040140801
 30
0.0
 11
54.8047441907
 21
111.1040140801
 31
0.0
  0
LINE
  5
F7
100
AcDbEntity
  8
TA400F_DN10
  6
CONTINUOUS
 62
         7
100
AcDbLine
 10
22.3047441907
 20
109.8540140801
 30
0.0
 11
22.2137516322
 21
110.1040140801
 31
0.0
  0
LINE
  5
F8
100
AcDbEntity
  8
TA400F_DN10
  6
CONTINUOUS
 62
         7
100
AcDbLine
 10
45.0547441907
 20
88.3540140801
 30
0.0
 11
46.3047441907
 21
87.1040140801
 31
0.0
  0
ENDBLK
  5
F9
100
AcDbEntity
  8
TA400F_DN10
  6
CONTINUOUS
 62
         7
100
AcDbBlockEnd
  0
BLOCK
  5
11C
100
AcDbEntity
  8
0
 62
         1
 48
0.0
100
AcDbBlockBegin
  2
SE4
 70
         0
 10
0.0
 20
0.0
 30
0.0
  3
SE4
  1

  0
ENDBLK
  5
11D
100
AcDbEntity
  8
0
 62
         1
 48
0.0
100
AcDbBlockEnd
  0
BLOCK
  5
FC
100
AcDbEntity
  8
0
 62
         1
 48
0.0
100
AcDbBlockBegin
  2
SE5
 70
         0
 10
0.0
 20
0.0
 30
0.0
  3
SE5
  1

  0
LINE
  5
FD
100
AcDbEntity
  8
TA400F_DN10
  6
CONTINUOUS
 62
         7
100
AcDbLine
 10
108.9084069072
 20
91.8540140801
 30
0.0
 11
113.3924904366
 21
91.8540140801
 31
0.0
  0
LINE
  5
FE
100
AcDbEntity
  8
TA400F_DN10
  6
CONTINUOUS
 62
         7
100
AcDbLine
 10
106.9084069072
 20
94.3040140801
 30
0.0
 11
108.9084069072
 21
94.3040140801
 31
0.0
  0
ARC
  5
FF
100
AcDbEntity
  8
TA400F_DN10
  6
CONTINUOUS
 62
         7
100
AcDbCircle
 10
121.9084069072
 20
99.1040140801
 30
0.0
 40
11.15
100
AcDbArc
 50
95.7615568288
 51
99.2252887121
  0
ARC
  5
100
100
AcDbEntity
  8
TA400F_DN10
  6
CONTINUOUS
 62
         7
100
AcDbCircle
 10
121.9084069072
 20
99.1040140801
 30
0.0
 40
11.15
100
AcDbArc
 50
80.7390979687
 51
95.7615568287
  0
LINE
  5
101
100
AcDbEntity
  8
TA400F_DN10
  6
CONTINUOUS
 62
         7
100
AcDbLine
 10
120.7890723512
 20
110.1040140801
 30
0.0
 11
120.7890723512
 21
110.197687509
 31
0.0
  0
LINE
  5
102
100
AcDbEntity
  8
TA400F_DN10
  6
CONTINUOUS
 62
         7
100
AcDbLine
 10
108.9084069072
 20
98.1040140801
 30
0.0
 11
109.7840512542
 21
98.1040140801
 31
0.0
  0
LINE
  5
103
100
AcDbEntity
  8
TA400F_DN10
  6
CONTINUOUS
 62
         7
100
AcDbLine
 10
108.9084069072
 20
100.1040140801
 30
0.0
 11
109.7840512542
 21
100.1040140801
 31
0.0
  0
LINE
  5
104
100
AcDbEntity
  8
TA400F_DN10
  6
CONTINUOUS
 62
         7
100
AcDbLine
 10
108.9084069072
 20
100.1040140801
 30
0.0
 11
108.9084069072
 21
98.1040140801
 31
0.0
  0
LINE
  5
105
100
AcDbEntity
  8
TA400F_DN10
  6
CONTINUOUS
 62
         7
100
AcDbLine
 10
108.5084069072
 20
100.1040140801
 30
0.0
 11
106.9084069072
 21
100.1040140801
 31
0.0
  0
LINE
  5
106
100
AcDbEntity
  8
TA400F_DN10
  6
CONTINUOUS
 62
         7
100
AcDbLine
 10
106.9084069072
 20
98.1040140801
 30
0.0
 11
108.5084069072
 21
98.1040140801
 31
0.0
  0
LINE
  5
107
100
AcDbEntity
  8
TA400F_DN10
  6
CONTINUOUS
 62
         7
100
AcDbLine
 10
106.9084069072
 20
94.3040140801
 30
0.0
 11
106.9084069072
 21
98.1040140801
 31
0.0
  0
LINE
  5
108
100
AcDbEntity
  8
TA400F_DN10
  6
CONTINUOUS
 62
         7
100
AcDbLine
 10
108.9084069072
 20
91.8540140801
 30
0.0
 11
108.9084069072
 21
98.1040140801
 31
0.0
  0
LINE
  5
109
100
AcDbEntity
  8
TA400F_DN10
  6
CONTINUOUS
 62
         7
100
AcDbLine
 10
108.9084069072
 20
100.1040140801
 30
0.0
 11
108.9084069072
 21
106.3540140801
 31
0.0
  0
ARC
  5
10A
100
AcDbEntity
  8
TA400F_DN10
  6
CONTINUOUS
 62
         7
100
AcDbCircle
 10
121.9084069072
 20
99.1040140801
 30
0.0
 40
12.0
100
AcDbArc
 50
217.168899656
 51
233.486975211
  0
ARC
  5
10B
100
AcDbEntity
  8
TA400F_DN10
  6
CONTINUOUS
 62
         7
100
AcDbCircle
 10
121.9084069072
 20
99.1040140801
 30
0.0
 40
12.0
100
AcDbArc
 50
246.5402317355
 51
293.5144300293
  0
ARC
  5
10C
100
AcDbEntity
  8
TA400F_DN10
  6
CONTINUOUS
 62
         7
100
AcDbCircle
 10
121.9084069072
 20
99.1040140801
 30
0.0
 40
12.0
100
AcDbArc
 50
306.5266927543
 51
353.5504163561
  0
ARC
  5
10D
100
AcDbEntity
  8
TA400F_DN10
  6
CONTINUOUS
 62
         7
100
AcDbCircle
 10
121.9084069072
 20
99.1040140801
 30
0.0
 40
12.0
100
AcDbArc
 50
6.5073344267
 51
53.5293276999
  0
ARC
  5
10E
100
AcDbEntity
  8
TA400F_DN10
  6
CONTINUOUS
 62
         7
100
AcDbCircle
 10
121.9084069072
 20
99.1040140801
 30
0.0
 40
12.0
100
AcDbArc
 50
66.4824595668
 51
113.5022634381
  0
ARC
  5
10F
100
AcDbEntity
  8
TA400F_DN10
  6
CONTINUOUS
 62
         7
100
AcDbCircle
 10
121.9084069072
 20
99.1040140801
 30
0.0
 40
12.0
100
AcDbArc
 50
126.4523521858
 51
142.831100344
  0
CIRCLE
  5
110
100
AcDbEntity
  8
TA400F_DN10
  6
CONTINUOUS
 62
         7
100
AcDbCircle
 10
121.9084069072
 20
99.1040140801
 30
0.0
 40
10.5
  0
LINE
  5
111
100
AcDbEntity
  8
TA400F_DN10
  6
CONTINUOUS
 62
         7
100
AcDbLine
 10
109.206700985
 20
99.1040140801
 30
0.0
 11
115.5575539461
 21
88.1040140801
 31
0.0
  0
LINE
  5
112
100
AcDbEntity
  8
TA400F_DN10
  6
CONTINUOUS
 62
         7
100
AcDbLine
 10
128.2592598682
 20
88.1040140801
 30
0.0
 11
134.6101128293
 21
99.1040140801
 31
0.0
  0
LINE
  5
113
100
AcDbEntity
  8
TA400F_DN10
  6
CONTINUOUS
 62
         7
100
AcDbLine
 10
108.5084069072
 20
98.1040140801
 30
0.0
 11
108.5084069072
 21
100.1040140801
 31
0.0
  0
LINE
  5
114
100
AcDbEntity
  8
TA400F_DN10
  6
CONTINUOUS
 62
         7
100
AcDbLine
 10
134.6101128293
 20
99.1040140801
 30
0.0
 11
128.2592598682
 21
110.1040140801
 31
0.0
  0
LINE
  5
115
100
AcDbEntity
  8
TA400F_DN10
  6
CONTINUOUS
 62
         7
100
AcDbLine
 10
128.2592598682
 20
110.1040140801
 30
0.0
 11
115.5575539461
 21
110.1040140801
 31
0.0
  0
LINE
  5
116
100
AcDbEntity
  8
TA400F_DN10
  6
CONTINUOUS
 62
         7
100
AcDbLine
 10
115.5575539461
 20
110.1040140801
 30
0.0
 11
109.206700985
 21
99.1040140801
 31
0.0
  0
LINE
  5
117
100
AcDbEntity
  8
TA400F_DN10
  6
CONTINUOUS
 62
         7
100
AcDbLine
 10
115.5575539461
 20
88.1040140801
 30
0.0
 11
128.2592598682
 21
88.1040140801
 31
0.0
  0
LINE
  5
118
100
AcDbEntity
  8
TA400F_DN10
  6
CONTINUOUS
 62
         7
100
AcDbLine
 10
106.9084069072
 20
100.1040140801
 30
0.0
 11
106.9084069072
 21
103.9040140801
 31
0.0
  0
LINE
  5
119
100
AcDbEntity
  8
TA400F_DN10
  6
CONTINUOUS
 62
         7
100
AcDbLine
 10
113.3924904366
 20
106.3540140801
 30
0.0
 11
108.9084069072
 21
106.3540140801
 31
0.0
  0
LINE
  5
11A
100
AcDbEntity
  8
TA400F_DN10
  6
CONTINUOUS
 62
         7
100
AcDbLine
 10
108.9084069072
 20
103.9040140801
 30
0.0
 11
106.9084069072
 21
103.9040140801
 31
0.0
  0
ENDBLK
  5
11B
100
AcDbEntity
  8
TA400F_DN10
  6
CONTINUOUS
 62
         7
100
AcDbBlockEnd
  0
BLOCK
  5
160
100
AcDbEntity
  8
0
 62
         1
 48
0.0
100
AcDbBlockBegin
  2
SE6
 70
         0
 10
0.0
 20
0.0
 30
0.0
  3
SE6
  1

  0
ENDBLK
  5
161
100
AcDbEntity
  8
0
 62
         1
 48
0.0
100
AcDbBlockEnd
  0
BLOCK
  5
11E
100
AcDbEntity
  8
0
 62
         1
 48
0.0
100
AcDbBlockBegin
  2
SE7
 70
         0
 10
0.0
 20
0.0
 30
0.0
  3
SE7
  1

  0
LINE
  5
11F
100
AcDbEntity
  8
TA400F_DN10
  6
CONTINUOUS
 62
         7
100
AcDbLine
 10
107.5548014566
 20
45.1495868136
 30
0.0
 11
107.5548014566
 21
44.1464087309
 31
0.0
  0
LINE
  5
120
100
AcDbEntity
  8
TA400F_DN10
  6
CONTINUOUS
 62
         7
100
AcDbLine
 10
140.0034460363
 20
19.4478808914
 30
0.0
 11
140.8048014566
 21
21.6495868136
 31
0.0
  0
LINE
  5
121
100
AcDbEntity
  8
TA400F_DN10
  6
CONTINUOUS
 62
         7
100
AcDbLine
 10
101.3048014566
 20
20.1495868136
 30
0.0
 11
109.8048014566
 21
20.1495868136
 31
0.0
  0
LINE
  5
122
100
AcDbEntity
  8
TA400F_DN10
  6
CONTINUOUS
 62
         7
100
AcDbLine
 10
111.0548014566
 20
21.3995868136
 30
0.0
 11
133.8048014566
 21
21.3995868136
 31
0.0
  0
LINE
  5
123
100
AcDbEntity
  8
TA400F_DN10
  6
CONTINUOUS
 62
         7
100
AcDbLine
 10
100.8048014566
 20
44.0995868136
 30
0.0
 11
89.3048014566
 21
44.0995868136
 31
0.0
  0
LINE
  5
124
100
AcDbEntity
  8
TA400F_DN10
  6
CONTINUOUS
 62
         7
100
AcDbLine
 10
101.3048014566
 20
44.1495868136
 30
0.0
 11
100.8048014566
 21
43.6495868136
 31
0.0
  0
LINE
  5
125
100
AcDbEntity
  8
TA400F_DN10
  6
CONTINUOUS
 62
         7
100
AcDbLine
 10
110.0048014566
 20
45.5495868136
 30
0.0
 11
110.0048014566
 21
45.1495868136
 31
0.0
  0
LINE
  5
126
100
AcDbEntity
  8
TA400F_DN10
  6
CONTINUOUS
 62
         7
100
AcDbLine
 10
134.5151643183
 20
44.8512927358
 30
0.0
 11
133.8047999
 21
42.8995825368
 31
0.0
  0
LINE
  5
127
100
AcDbEntity
  8
TA400F_DN10
  6
CONTINUOUS
 62
         7
100
AcDbLine
 10
109.8048014566
 20
20.1495868136
 30
0.0
 11
111.0548014566
 21
21.3995868136
 31
0.0
  0
LINE
  5
128
100
AcDbEntity
  8
TA400F_DN10
  6
CONTINUOUS
 62
         7
100
AcDbLine
 10
89.3048014566
 20
39.3412088928
 30
0.0
 11
89.3048014566
 21
44.0105236177
 31
0.0
  0
LINE
  5
129
100
AcDbEntity
  8
TA400F_DN10
  6
CONTINUOUS
 62
         7
100
AcDbLine
 10
96.8048014566
 20
39.3412088928
 30
0.0
 11
96.8048014566
 21
44.0105236177
 31
0.0
  0
LINE
  5
12A
100
AcDbEntity
  8
TA400F_DN10
  6
CONTINUOUS
 62
         7
100
AcDbLine
 10
89.3048014566
 20
20.2886500095
 30
0.0
 11
89.3048014566
 21
24.9579647344
 31
0.0
  0
LINE
  5
12B
100
AcDbEntity
  8
TA400F_DN10
  6
CONTINUOUS
 62
         7
100
AcDbLine
 10
96.8048014566
 20
20.2886500095
 30
0.0
 11
96.8048014566
 21
24.9579647344
 31
0.0
  0
LINE
  5
12C
100
AcDbEntity
  8
TA400F_DN10
  6
CONTINUOUS
 62
         7
100
AcDbLine
 10
89.3048014566
 20
27.4802720887
 30
0.0
 11
89.3048014566
 21
36.8189015385
 31
0.0
  0
LINE
  5
12D
100
AcDbEntity
  8
TA400F_DN10
  6
CONTINUOUS
 62
         7
100
AcDbLine
 10
96.8048014566
 20
27.4802720887
 30
0.0
 11
96.8048014566
 21
36.8189015385
 31
0.0
  0
LINE
  5
12E
100
AcDbEntity
  8
TA400F_DN10
  6
CONTINUOUS
 62
         7
100
AcDbLine
 10
131.5548014566
 20
45.1495868136
 30
0.0
 11
121.9855047647
 21
45.1495868136
 31
0.0
  0
LINE
  5
12F
100
AcDbEntity
  8
TA400F_DN10
  6
CONTINUOUS
 62
         7
100
AcDbLine
 10
131.5548014566
 20
45.1495868136
 30
0.0
 11
133.8172004112
 21
42.887187859
 31
0.0
  0
LINE
  5
130
100
AcDbEntity
  8
TA400F_DN10
  6
CONTINUOUS
 62
         7
100
AcDbLine
 10
121.9855047647
 20
42.8529741279
 30
0.0
 11
133.8048014566
 21
42.8529741279
 31
0.0
  0
LINE
  5
131
100
AcDbEntity
  8
TA400F_DN10
  6
CONTINUOUS
 62
         7
100
AcDbLine
 10
100.8048014566
 20
20.1995868136
 30
0.0
 11
100.8048014566
 21
44.0995868136
 31
0.0
  0
LINE
  5
132
100
AcDbEntity
  8
TA400F_DN10
  6
CONTINUOUS
 62
         7
100
AcDbLine
 10
133.8048014566
 20
42.8529741279
 30
0.0
 11
133.8172004112
 21
42.887187859
 31
0.0
  0
LINE
  5
133
100
AcDbEntity
  8
TA400F_DN10
  6
CONTINUOUS
 62
         7
100
AcDbLine
 10
110.1101236189
 20
45.5495868136
 30
0.0
 11
110.1101236189
 21
47.1495868136
 31
0.0
  0
LINE
  5
134
100
AcDbEntity
  8
TA400F_DN10
  6
CONTINUOUS
 62
         7
100
AcDbLine
 10
119.4994792943
 20
47.1495868136
 30
0.0
 11
119.4994792943
 21
45.5495868136
 31
0.0
  0
LINE
  5
135
100
AcDbEntity
  8
TA400F_DN10
  6
CONTINUOUS
 62
         7
100
AcDbLine
 10
119.4994792943
 20
47.1495868136
 30
0.0
 11
110.1101236189
 21
47.1495868136
 31
0.0
  0
LINE
  5
136
100
AcDbEntity
  8
TA400F_DN10
  6
CONTINUOUS
 62
         7
100
AcDbLine
 10
107.5548014566
 20
45.1495868136
 30
0.0
 11
121.9855047647
 21
45.1495868136
 31
0.0
  0
SPLINE
  5
137
100
AcDbEntity
  8
TA400F_DN10
  6
CONTINUOUS
 62
         7
100
AcDbSpline
210
0.0
220
0.0
230
1.0
 70
         8
 71
         3
 72
        16
 73
        12
 74
         0
 42
0.0
 43
0.0
 40
0.0
 40
0.0
 40
0.0
 40
0.0
 40
0.25
 40
0.25
 40
0.5
 40
0.5
 40
0.75
 40
0.75
 40
0.875
 40
0.875
 40
1.0
 40
1.0
 40
1.0
 40
1.0
 10
111.05480145657715
 20
40.928111746631053
 30
0.0
 10
112.05804970840546
 20
40.499545333360807
 30
0.0
 10
113.23525429994811
 20
40.146768230273942
 30
0.0
 10
115.69398464831228
 20
40.041486400060712
 30
0.0
 10
116.94932025866513
 20
40.313622924219736
 30
0.0
 10
119.0477731826041
 20
41.096951441849193
 30
0.0
 10
119.94568026130534
 20
41.589538792915867
 30
0.0
 10
120.99235444594305
 20
42.209747180999649
 30
0.0
 10
121.2816448687766
 20
42.392605188466284
 30
0.0
 10
121.73564707999353
 20
42.685551216412001
 30
0.0
 10
121.90100947374258
 20
42.7962878100181
 30
0.0
 10
121.98550476474971
 20
42.852974127895138
 30
0.0
  0
LINE
  5
138
100
AcDbEntity
  8
TA400F_DN10
  6
CONTINUOUS
 62
         7
100
AcDbLine
 10
140.8048014566
 20
42.6495868136
 30
0.0
 11
140.8048014566
 21
21.6495868136
 31
0.0
  0
LINE
  5
139
100
AcDbEntity
  8
TA400F_DN10
  6
CONTINUOUS
 62
         7
100
AcDbLine
 10
109.8048014566
 20
20.1495868136
 30
0.0
 11
109.8048014566
 21
42.940207741
 31
0.0
  0
LINE
  5
13A
100
AcDbEntity
  8
TA400F_DN10
  6
CONTINUOUS
 62
         7
100
AcDbLine
 10
101.3048014566
 20
44.1495868136
 30
0.0
 11
101.3048014566
 21
20.1495868136
 31
0.0
  0
LINE
  5
13B
100
AcDbEntity
  8
TA400F_DN10
  6
CONTINUOUS
 62
         7
100
AcDbLine
 10
133.8048014566
 20
21.3995868136
 30
0.0
 11
133.8048014566
 21
42.8529741279
 31
0.0
  0
ARC
  5
13C
100
AcDbEntity
  8
TA400F_DN10
  6
CONTINUOUS
 62
         7
100
AcDbCircle
 10
132.1731434599
 20
41.6758662552
 30
0.0
 40
8.4496728795
100
AcDbArc
 50
337.9259452632
 51
22.0740547368
  0
ARC
  5
13D
100
AcDbEntity
  8
TA400F_DN10
  6
CONTINUOUS
 62
         7
100
AcDbCircle
 10
132.1731434599
 20
22.623307372
 30
0.0
 40
8.4496728795
100
AcDbArc
 50
337.9259452632
 51
22.0740547368
  0
ARC
  5
13E
100
AcDbEntity
  8
TA400F_DN10
  6
CONTINUOUS
 62
         7
100
AcDbCircle
 10
142.3454668947
 20
41.6758662552
 30
0.0
 40
8.4496728795
100
AcDbArc
 50
157.9259452632
 51
202.0740547368
  0
LINE
  5
13F
100
AcDbEntity
  8
TA400F_DN10
  6
CONTINUOUS
 62
         7
100
AcDbLine
 10
134.5151643183
 20
19.4478808914
 30
0.0
 11
140.0034460363
 21
19.4478808914
 31
0.0
  0
LINE
  5
140
100
AcDbEntity
  8
TA400F_DN10
  6
CONTINUOUS
 62
         7
100
AcDbLine
 10
134.5151643183
 20
44.8512927358
 30
0.0
 11
140.0034460363
 21
44.8512927358
 31
0.0
  0
ARC
  5
141
100
AcDbEntity
  8
TA400F_DN10
  6
CONTINUOUS
 62
         7
100
AcDbCircle
 10
142.3454668947
 20
22.623307372
 30
0.0
 40
8.4496728795
100
AcDbArc
 50
157.9259452632
 51
202.0740547368
  0
LINE
  5
142
100
AcDbEntity
  8
TA400F_DN10
  6
CONTINUOUS
 62
         7
100
AcDbLine
 10
134.5151643183
 20
25.7987338525
 30
0.0
 11
140.0034460363
 21
25.7987338525
 31
0.0
  0
LINE
  5
143
100
AcDbEntity
  8
TA400F_DN10
  6
CONTINUOUS
 62
         7
100
AcDbLine
 10
134.5151643183
 20
38.5004397747
 30
0.0
 11
140.0034460363
 21
38.5004397747
 31
0.0
  0
LINE
  5
144
100
AcDbEntity
  8
TA400F_DN10
  6
CONTINUOUS
 62
         7
100
AcDbLine
 10
119.6048014566
 20
45.5495868136
 30
0.0
 11
119.4994792943
 21
45.5495868136
 31
0.0
  0
LINE
  5
145
100
AcDbEntity
  8
TA400F_DN10
  6
CONTINUOUS
 62
         7
100
AcDbLine
 10
121.9855047647
 20
45.1495868136
 30
0.0
 11
121.9855047647
 21
42.8529741279
 31
0.0
  0
ARC
  5
146
100
AcDbEntity
  8
TA400F_DN10
  6
CONTINUOUS
 62
         7
100
AcDbCircle
 10
120.1823534317
 20
64.9449216764
 30
0.0
 40
24.3290160174
100
AcDbArc
 50
238.732630991
 51
244.7511605965
  0
LINE
  5
147
100
AcDbEntity
  8
TA400F_DN10
  6
CONTINUOUS
 62
         7
100
AcDbLine
 10
89.3048014566
 20
24.9579647344
 30
0.0
 11
96.8048014566
 21
24.9579647344
 31
0.0
  0
LINE
  5
148
100
AcDbEntity
  8
TA400F_DN10
  6
CONTINUOUS
 62
         7
100
AcDbLine
 10
96.8048014566
 20
20.2886500095
 30
0.0
 11
89.3048014566
 21
20.2886500095
 31
0.0
  0
LINE
  5
149
100
AcDbEntity
  8
TA400F_DN10
  6
CONTINUOUS
 62
         7
100
AcDbLine
 10
89.3048014566
 20
44.0105236177
 30
0.0
 11
96.8048014566
 21
44.0105236177
 31
0.0
  0
ELLIPSE
  5
14A
100
AcDbEntity
  8
TA400F_DN10
  6
CONTINUOUS
 62
         7
100
AcDbEllipse
 10
90.4539484955
 20
32.1495868136
 30
0.0
 11
6.3484672489287766
 21
11.862219561491299
 31
0.0
210
0.0
220
0.0
230
1.0
 40
0.2277350773
 41
5.4794356734595633
 42
6.2823012637987077
  0
LINE
  5
14B
100
AcDbEntity
  8
TA400F_DN10
  6
CONTINUOUS
 62
         7
100
AcDbLine
 10
96.8048014566
 20
39.3412088928
 30
0.0
 11
89.3048014566
 21
39.3412088928
 31
0.0
  0
LINE
  5
14C
100
AcDbEntity
  8
TA400F_DN10
  6
CONTINUOUS
 62
         7
100
AcDbLine
 10
89.3048014566
 20
36.8189015385
 30
0.0
 11
96.8048014566
 21
36.8189015385
 31
0.0
  0
ELLIPSE
  5
14D
100
AcDbEntity
  8
TA400F_DN10
  6
CONTINUOUS
 62
         7
100
AcDbEllipse
 10
90.4539484955
 20
32.1495868136
 30
0.0
 11
-0.0000000000000208
 21
11.950000000000074
 31
0.0
210
0.0
220
0.0
230
1.0
 40
0.5773502692
 41
4.3109561852152147
 42
5.1138217755541611
  0
LINE
  5
14E
100
AcDbEntity
  8
TA400F_DN10
  6
CONTINUOUS
 62
         7
100
AcDbLine
 10
96.8048014566
 20
27.4802720887
 30
0.0
 11
89.3048014566
 21
27.4802720887
 31
0.0
  0
ELLIPSE
  5
14F
100
AcDbEntity
  8
TA400F_DN10
  6
CONTINUOUS
 62
         7
100
AcDbEllipse
 10
90.4539484955
 20
32.1495868136
 30
0.0
 11
6.3484672489287632
 21
-11.862219561491258
 31
0.0
210
0.0
220
0.0
230
1.0
 40
0.2277350773
 41
0.0008840433812549
 42
0.8037496337200272
  0
LINE
  5
150
100
AcDbEntity
  8
TA400F_DN10
  6
CONTINUOUS
 62
         7
100
AcDbLine
 10
89.3048014566
 20
44.0995868136
 30
0.0
 11
89.3048014566
 21
44.0105236177
 31
0.0
  0
LINE
  5
151
100
AcDbEntity
  8
TA400F_DN10
  6
CONTINUOUS
 62
         7
100
AcDbLine
 10
89.3048014566
 20
39.3412088928
 30
0.0
 11
89.3048014566
 21
36.8189015385
 31
0.0
  0
LINE
  5
152
100
AcDbEntity
  8
TA400F_DN10
  6
CONTINUOUS
 62
         7
100
AcDbLine
 10
89.3048014566
 20
27.4802720887
 30
0.0
 11
89.3048014566
 21
24.9579647344
 31
0.0
  0
LINE
  5
153
100
AcDbEntity
  8
TA400F_DN10
  6
CONTINUOUS
 62
         7
100
AcDbLine
 10
89.3048014566
 20
20.1995868136
 30
0.0
 11
89.3048014566
 21
20.2886500095
 31
0.0
  0
LINE
  5
154
100
AcDbEntity
  8
TA400F_DN10
  6
CONTINUOUS
 62
         7
100
AcDbLine
 10
111.0548014566
 20
21.3995868136
 30
0.0
 11
111.0548014566
 21
40.9281117466
 31
0.0
  0
ARC
  5
155
100
AcDbEntity
  8
TA400F_DN10
  6
CONTINUOUS
 62
         7
100
AcDbCircle
 10
15.9120155461
 20
-16.7843272052
 30
0.0
 40
111.2783686103
100
AcDbArc
 50
31.2404828853
 51
32.4601502095
  0
ARC
  5
156
100
AcDbEntity
  8
TA400F_DN10
  6
CONTINUOUS
 62
         7
100
AcDbCircle
 10
166.7654357363
 20
32.1495868136
 30
0.0
 40
32.8696416145
100
AcDbArc
 50
168.8596297444
 51
191.1403702556
  0
ARC
  5
157
100
AcDbEntity
  8
TA400F_DN10
  6
CONTINUOUS
 62
         7
100
AcDbCircle
 10
107.7531745456
 20
32.1495868136
 30
0.0
 40
32.8696416859
100
AcDbArc
 50
348.8596297689
 51
11.1403702311
  0
LINE
  5
158
100
AcDbEntity
  8
TA400F_DN10
  6
CONTINUOUS
 62
         7
100
AcDbLine
 10
110.1101236189
 20
45.5495868136
 30
0.0
 11
110.0048014566
 21
45.5495868136
 31
0.0
  0
LINE
  5
159
100
AcDbEntity
  8
TA400F_DN10
  6
CONTINUOUS
 62
         7
100
AcDbLine
 10
140.8048014566
 20
42.6495868136
 30
0.0
 11
140.0034460363
 21
44.8512927358
 31
0.0
  0
LINE
  5
15A
100
AcDbEntity
  8
TA400F_DN10
  6
CONTINUOUS
 62
         7
100
AcDbLine
 10
107.5597684234
 20
44.1495868136
 30
0.0
 11
101.3048014566
 21
44.1495868136
 31
0.0
  0
LINE
  5
15B
100
AcDbEntity
  8
TA400F_DN10
  6
CONTINUOUS
 62
         7
100
AcDbLine
 10
89.3048014566
 20
20.1995868136
 30
0.0
 11
100.8048014566
 21
20.1995868136
 31
0.0
  0
LINE
  5
15C
100
AcDbEntity
  8
TA400F_DN10
  6
CONTINUOUS
 62
         7
100
AcDbLine
 10
100.8048014566
 20
20.6495868136
 30
0.0
 11
101.3048014566
 21
20.1495868136
 31
0.0
  0
LINE
  5
15D
100
AcDbEntity
  8
TA400F_DN10
  6
CONTINUOUS
 62
         7
100
AcDbLine
 10
119.6048014566
 20
45.1495868136
 30
0.0
 11
119.6048014566
 21
45.5495868136
 31
0.0
  0
LINE
  5
15E
100
AcDbEntity
  8
TA400F_DN10
  6
CONTINUOUS
 62
         7
100
AcDbLine
 10
133.8048014566
 20
21.3995868136
 30
0.0
 11
134.5151643183
 21
19.4478808914
 31
0.0
  0
ENDBLK
  5
15F
100
AcDbEntity
  8
TA400F_DN10
  6
CONTINUOUS
 62
         7
100
AcDbBlockEnd
  0
ENDSEC
  0
SECTION
  2
ENTITIES
  0
INSERT
  5
3A
102
{ACAD_XDICTIONARY
360
3B
102
}
100
AcDbEntity
  8
0
 62
         0
 48
0.0
100
AcDbBlockReference
  2
SE1
 10
0.0
 20
0.0
 30
0.0
  0
INSERT
  5
3E
100
AcDbEntity
  8
0
 62
         0
 48
0.0
100
AcDbBlockReference
  2
SE0
 10
0.0
 20
0.0
 30
0.0
  0
INSERT
  5
41
102
{ACAD_XDICTIONARY
360
42
102
}
100
AcDbEntity
  8
0
 62
         0
 48
0.0
100
AcDbBlockReference
  2
SE3
 10
0.0
 20
0.0
 30
0.0
  0
INSERT
  5
45
100
AcDbEntity
  8
0
 62
         0
 48
0.0
100
AcDbBlockReference
  2
SE2
 10
0.0
 20
0.0
 30
0.0
  0
INSERT
  5
48
102
{ACAD_XDICTIONARY
360
49
102
}
100
AcDbEntity
  8
0
 62
         0
 48
0.0
100
AcDbBlockReference
  2
SE5
 10
0.0
 20
0.0
 30
0.0
  0
INSERT
  5
4C
100
AcDbEntity
  8
0
 62
         0
 48
0.0
100
AcDbBlockReference
  2
SE4
 10
0.0
 20
0.0
 30
0.0
  0
INSERT
  5
4F
102
{ACAD_XDICTIONARY
360
50
102
}
100
AcDbEntity
  8
0
 62
         0
 48
0.0
100
AcDbBlockReference
  2
SE7
 10
0.0
 20
0.0
 30
0.0
  0
INSERT
  5
53
100
AcDbEntity
  8
0
 62
         0
 48
0.0
100
AcDbBlockReference
  2
SE6
 10
0.0
 20
0.0
 30
0.0
  0
ENDSEC
  0
SECTION
  2
OBJECTS
  0
DICTIONARY
  5
19
100
AcDbDictionary
  3
ACAD_GROUP
350
1A
  3
ACAD_MLINESTYLE
350
1B
  3
ACDBVARIABLEDICTIONARY
350
162
  0
DICTIONARY
  5
1A
102
{ACAD_REACTORS
330
19
102
}
100
AcDbDictionary
  0
DICTIONARY
  5
1B
102
{ACAD_REACTORS
330
19
102
}
100
AcDbDictionary
  3
STANDARD
350
1C
  0
MLINESTYLE
  5
1C
102
{ACAD_REACTORS
330
1B
102
}
100
AcDbMlineStyle
  2
Standard
 70
         0
  3

 62
         0
 51
90.0
 52
90.0
 71
         2
 49
0.5
 62
       256
  6
ByLayer
 49
-0.5
 62
       256
  6
ByLayer
  0
DICTIONARY
  5
22
102
{ACAD_REACTORS
330
19
102
}
100
AcDbDictionary
  0
DICTIONARY
  5
3B
100
AcDbDictionary
  3
ACAD_FILTER
350
3C
  0
DICTIONARY
  5
3C
100
AcDbDictionary
  3
SPATIAL
350
3D
  0
SPATIAL_FILTER
  5
3D
100
AcDbFilter
100
AcDbSpatialFilter
 70
         2
 10
8.9547441907
 20
13.0978808914
 10
73.1547441907
 20
53.4995868136
210
0.0
220
0.0
230
1.0
 11
0.0
 21
0.0
 31
0.0
 71
         1
 72
         0
 73
         0
 40
1.0
 40
0.0
 40
0.0
 40
0.0
 40
0.0
 40
1.0
 40
0.0
 40
0.0
 40
0.0
 40
0.0
 40
1.0
 40
0.0
 40
1.0
 40
0.0
 40
0.0
 40
0.0
 40
0.0
 40
1.0
 40
0.0
 40
0.0
 40
0.0
 40
0.0
 40
1.0
 40
0.0
  0
DICTIONARY
  5
42
100
AcDbDictionary
  3
ACAD_FILTER
350
43
  0
DICTIONARY
  5
43
100
AcDbDictionary
  3
SPATIAL
350
44
  0
SPATIAL_FILTER
  5
44
100
AcDbFilter
100
AcDbSpatialFilter
 70
         2
 10
8.9547441907
 20
80.7540140801
 10
73.1547441907
 20
117.4540140801
210
0.0
220
0.0
230
1.0
 11
0.0
 21
0.0
 31
0.0
 71
         1
 72
         0
 73
         0
 40
1.0
 40
0.0
 40
0.0
 40
0.0
 40
0.0
 40
1.0
 40
0.0
 40
0.0
 40
0.0
 40
0.0
 40
1.0
 40
0.0
 40
1.0
 40
0.0
 40
0.0
 40
0.0
 40
0.0
 40
1.0
 40
0.0
 40
0.0
 40
0.0
 40
0.0
 40
1.0
 40
0.0
  0
DICTIONARY
  5
49
100
AcDbDictionary
  3
ACAD_FILTER
350
4A
  0
DICTIONARY
  5
4A
100
AcDbDictionary
  3
SPATIAL
350
4B
  0
SPATIAL_FILTER
  5
4B
100
AcDbFilter
100
AcDbSpatialFilter
 70
         2
 10
100.5584069072
 20
80.7540140801
 10
140.9601128293
 20
117.4540140801
210
0.0
220
0.0
230
1.0
 11
0.0
 21
0.0
 31
0.0
 71
         1
 72
         0
 73
         0
 40
1.0
 40
0.0
 40
0.0
 40
0.0
 40
0.0
 40
1.0
 40
0.0
 40
0.0
 40
0.0
 40
0.0
 40
1.0
 40
0.0
 40
1.0
 40
0.0
 40
0.0
 40
0.0
 40
0.0
 40
1.0
 40
0.0
 40
0.0
 40
0.0
 40
0.0
 40
1.0
 40
0.0
  0
DICTIONARY
  5
50
100
AcDbDictionary
  3
ACAD_FILTER
350
51
  0
DICTIONARY
  5
51
100
AcDbDictionary
  3
SPATIAL
350
52
  0
SPATIAL_FILTER
  5
52
100
AcDbFilter
100
AcDbSpatialFilter
 70
         2
 10
82.9548014566
 20
13.0978808914
 10
147.1548014566
 20
53.4995868136
210
0.0
220
0.0
230
1.0
 11
0.0
 21
0.0
 31
0.0
 71
         1
 72
         0
 73
         0
 40
1.0
 40
0.0
 40
0.0
 40
0.0
 40
0.0
 40
1.0
 40
0.0
 40
0.0
 40
0.0
 40
0.0
 40
1.0
 40
0.0
 40
1.0
 40
0.0
 40
0.0
 40
0.0
 40
0.0
 40
1.0
 40
0.0
 40
0.0
 40
0.0
 40
0.0
 40
1.0
 40
0.0
  0
DICTIONARY
  5
162
100
AcDbDictionary
  3
DIMASSOC
350
163
  0
DICTIONARYVAR
  5
163
100
DictionaryVariables
280
         0
  1
2
  0
ENDSEC
  0
EOF
